ISO-10303-21;
HEADER;
/* Generated by software containing ST-Developer
 * from STEP Tools, Inc. (www.steptools.com) 
 */
/* OPTION: using custom schema-name function */

FILE_DESCRIPTION(
/* description */ (''),
/* implementation_level */ '2;1');

FILE_NAME(
/* name */ '1560777745259.stp',
/* time_stamp */ '2019-06-17T15:22:27+02:00',
/* author */ (''),
/* organization */ ('SMS'),
/* preprocessor_version */ 'ST-DEVELOPER v15',
/* originating_system */ 'SIEMENS PLM Software NX 8.5',
/* authorisation */ '');

FILE_SCHEMA (('AUTOMOTIVE_DESIGN { 1 0 10303 214 3 1 1 1 }'));
ENDSEC;

DATA;
#10=CONSTRUCTIVE_GEOMETRY_REPRESENTATION_RELATIONSHIP(
'supplemental geometry','',#26,#11);
#11=CONSTRUCTIVE_GEOMETRY_REPRESENTATION('supplemental geometry',(#280,
#281,#282),#433);
#12=GEOMETRICALLY_BOUNDED_WIREFRAME_SHAPE_REPRESENTATION(
'111151625mod000_01-None',(#27),#433);
#13=SHAPE_REPRESENTATION_RELATIONSHIP('None',
'relationship between 111151625mod000_01-None and 111151625mod000_01-N
one',#26,#15);
#14=SHAPE_REPRESENTATION_RELATIONSHIP('None',
'relationship between 111151625mod000_01-None and 111151625mod000_01-N
one',#26,#12);
#15=ADVANCED_BREP_SHAPE_REPRESENTATION('111151625mod000_01-None',(#33),
#433);
#16=SHAPE_DEFINITION_REPRESENTATION(#17,#26);
#17=PRODUCT_DEFINITION_SHAPE('','',#18);
#18=PRODUCT_DEFINITION(' ','',#20,#19);
#19=PRODUCT_DEFINITION_CONTEXT('part definition',#25,'design');
#20=PRODUCT_DEFINITION_FORMATION_WITH_SPECIFIED_SOURCE(' ',' ',#22,
 .NOT_KNOWN.);
#21=PRODUCT_RELATED_PRODUCT_CATEGORY('part','',(#22));
#22=PRODUCT('111151625mod000_01','111151625mod000_01',' ',(#23));
#23=PRODUCT_CONTEXT(' ',#25,'mechanical');
#24=APPLICATION_PROTOCOL_DEFINITION('international standard',
'automotive_design',2010,#25);
#25=APPLICATION_CONTEXT(
'core data for automotive mechanical design processes');
#26=SHAPE_REPRESENTATION('111151625mod000_01-None',(#279),#433);
#27=GEOMETRIC_CURVE_SET('None',(#364,#365,#366));
#28=SURFACE_STYLE_USAGE(.BOTH.,#29);
#29=SURFACE_SIDE_STYLE('',(#30));
#30=SURFACE_STYLE_FILL_AREA(#31);
#31=FILL_AREA_STYLE('',(#32));
#32=FILL_AREA_STYLE_COLOUR('',#278);
#33=MANIFOLD_SOLID_BREP('NOCUT',#34);
#34=CLOSED_SHELL('',(#39,#40,#41,#42,#43,#44,#45,#46,#47,#48,#49,#50));
#35=CYLINDRICAL_SURFACE('',#289,55.);
#36=CIRCLE('',#286,55.);
#37=CIRCLE('',#287,55.);
#38=CIRCLE('',#288,55.);
#39=ADVANCED_FACE('',(#62),#51,.F.);
#40=ADVANCED_FACE('',(#63),#52,.F.);
#41=ADVANCED_FACE('',(#64),#53,.F.);
#42=ADVANCED_FACE('',(#65),#35,.T.);
#43=ADVANCED_FACE('',(#66),#54,.F.);
#44=ADVANCED_FACE('',(#67),#55,.F.);
#45=ADVANCED_FACE('',(#68),#56,.F.);
#46=ADVANCED_FACE('',(#69),#57,.F.);
#47=ADVANCED_FACE('',(#70),#58,.F.);
#48=ADVANCED_FACE('',(#71),#59,.F.);
#49=ADVANCED_FACE('',(#72),#60,.F.);
#50=ADVANCED_FACE('',(#73),#61,.T.);
#51=PLANE('',#283);
#52=PLANE('',#284);
#53=PLANE('',#285);
#54=PLANE('',#290);
#55=PLANE('',#291);
#56=PLANE('',#292);
#57=PLANE('',#293);
#58=PLANE('',#294);
#59=PLANE('',#295);
#60=PLANE('',#296);
#61=PLANE('',#297);
#62=FACE_OUTER_BOUND('',#74,.T.);
#63=FACE_OUTER_BOUND('',#75,.T.);
#64=FACE_OUTER_BOUND('',#76,.T.);
#65=FACE_OUTER_BOUND('',#77,.T.);
#66=FACE_OUTER_BOUND('',#78,.T.);
#67=FACE_OUTER_BOUND('',#79,.T.);
#68=FACE_OUTER_BOUND('',#80,.T.);
#69=FACE_OUTER_BOUND('',#81,.T.);
#70=FACE_OUTER_BOUND('',#82,.T.);
#71=FACE_OUTER_BOUND('',#83,.T.);
#72=FACE_OUTER_BOUND('',#84,.T.);
#73=FACE_OUTER_BOUND('',#85,.T.);
#74=EDGE_LOOP('',(#86,#87,#88,#89));
#75=EDGE_LOOP('',(#90,#91,#92,#93,#94,#95));
#76=EDGE_LOOP('',(#96,#97,#98,#99,#100,#101));
#77=EDGE_LOOP('',(#102,#103,#104,#105,#106,#107));
#78=EDGE_LOOP('',(#108,#109,#110,#111,#112,#113));
#79=EDGE_LOOP('',(#114,#115,#116,#117));
#80=EDGE_LOOP('',(#118,#119,#120,#121));
#81=EDGE_LOOP('',(#122,#123,#124,#125));
#82=EDGE_LOOP('',(#126,#127,#128,#129,#130,#131));
#83=EDGE_LOOP('',(#132,#133,#134,#135,#136,#137));
#84=EDGE_LOOP('',(#138,#139,#140,#141));
#85=EDGE_LOOP('',(#142,#143,#144,#145));
#86=ORIENTED_EDGE('',*,*,#166,.F.);
#87=ORIENTED_EDGE('',*,*,#167,.T.);
#88=ORIENTED_EDGE('',*,*,#168,.T.);
#89=ORIENTED_EDGE('',*,*,#169,.F.);
#90=ORIENTED_EDGE('',*,*,#170,.F.);
#91=ORIENTED_EDGE('',*,*,#171,.F.);
#92=ORIENTED_EDGE('',*,*,#169,.T.);
#93=ORIENTED_EDGE('',*,*,#172,.T.);
#94=ORIENTED_EDGE('',*,*,#173,.F.);
#95=ORIENTED_EDGE('',*,*,#174,.F.);
#96=ORIENTED_EDGE('',*,*,#175,.F.);
#97=ORIENTED_EDGE('',*,*,#176,.T.);
#98=ORIENTED_EDGE('',*,*,#177,.T.);
#99=ORIENTED_EDGE('',*,*,#178,.F.);
#100=ORIENTED_EDGE('',*,*,#167,.F.);
#101=ORIENTED_EDGE('',*,*,#179,.F.);
#102=ORIENTED_EDGE('',*,*,#176,.F.);
#103=ORIENTED_EDGE('',*,*,#180,.F.);
#104=ORIENTED_EDGE('',*,*,#181,.T.);
#105=ORIENTED_EDGE('',*,*,#182,.F.);
#106=ORIENTED_EDGE('',*,*,#183,.F.);
#107=ORIENTED_EDGE('',*,*,#184,.F.);
#108=ORIENTED_EDGE('',*,*,#180,.T.);
#109=ORIENTED_EDGE('',*,*,#175,.T.);
#110=ORIENTED_EDGE('',*,*,#185,.F.);
#111=ORIENTED_EDGE('',*,*,#170,.T.);
#112=ORIENTED_EDGE('',*,*,#186,.T.);
#113=ORIENTED_EDGE('',*,*,#187,.F.);
#114=ORIENTED_EDGE('',*,*,#187,.T.);
#115=ORIENTED_EDGE('',*,*,#188,.T.);
#116=ORIENTED_EDGE('',*,*,#189,.F.);
#117=ORIENTED_EDGE('',*,*,#181,.F.);
#118=ORIENTED_EDGE('',*,*,#189,.T.);
#119=ORIENTED_EDGE('',*,*,#190,.T.);
#120=ORIENTED_EDGE('',*,*,#191,.F.);
#121=ORIENTED_EDGE('',*,*,#182,.T.);
#122=ORIENTED_EDGE('',*,*,#191,.T.);
#123=ORIENTED_EDGE('',*,*,#192,.T.);
#124=ORIENTED_EDGE('',*,*,#193,.F.);
#125=ORIENTED_EDGE('',*,*,#183,.T.);
#126=ORIENTED_EDGE('',*,*,#173,.T.);
#127=ORIENTED_EDGE('',*,*,#194,.T.);
#128=ORIENTED_EDGE('',*,*,#177,.F.);
#129=ORIENTED_EDGE('',*,*,#184,.T.);
#130=ORIENTED_EDGE('',*,*,#193,.T.);
#131=ORIENTED_EDGE('',*,*,#195,.T.);
#132=ORIENTED_EDGE('',*,*,#186,.F.);
#133=ORIENTED_EDGE('',*,*,#174,.T.);
#134=ORIENTED_EDGE('',*,*,#195,.F.);
#135=ORIENTED_EDGE('',*,*,#192,.F.);
#136=ORIENTED_EDGE('',*,*,#190,.F.);
#137=ORIENTED_EDGE('',*,*,#188,.F.);
#138=ORIENTED_EDGE('',*,*,#168,.F.);
#139=ORIENTED_EDGE('',*,*,#178,.T.);
#140=ORIENTED_EDGE('',*,*,#194,.F.);
#141=ORIENTED_EDGE('',*,*,#172,.F.);
#142=ORIENTED_EDGE('',*,*,#171,.T.);
#143=ORIENTED_EDGE('',*,*,#185,.T.);
#144=ORIENTED_EDGE('',*,*,#179,.T.);
#145=ORIENTED_EDGE('',*,*,#166,.T.);
#146=VERTEX_POINT('',#371);
#147=VERTEX_POINT('',#372);
#148=VERTEX_POINT('',#374);
#149=VERTEX_POINT('',#376);
#150=VERTEX_POINT('',#380);
#151=VERTEX_POINT('',#381);
#152=VERTEX_POINT('',#384);
#153=VERTEX_POINT('',#386);
#154=VERTEX_POINT('',#390);
#155=VERTEX_POINT('',#391);
#156=VERTEX_POINT('',#393);
#157=VERTEX_POINT('',#395);
#158=VERTEX_POINT('',#400);
#159=VERTEX_POINT('',#402);
#160=VERTEX_POINT('',#404);
#161=VERTEX_POINT('',#406);
#162=VERTEX_POINT('',#411);
#163=VERTEX_POINT('',#415);
#164=VERTEX_POINT('',#419);
#165=VERTEX_POINT('',#423);
#166=EDGE_CURVE('',#146,#147,#196,.T.);
#167=EDGE_CURVE('',#146,#148,#197,.T.);
#168=EDGE_CURVE('',#148,#149,#198,.T.);
#169=EDGE_CURVE('',#147,#149,#199,.T.);
#170=EDGE_CURVE('',#150,#151,#200,.T.);
#171=EDGE_CURVE('',#147,#150,#201,.T.);
#172=EDGE_CURVE('',#149,#152,#202,.T.);
#173=EDGE_CURVE('',#153,#152,#203,.T.);
#174=EDGE_CURVE('',#151,#153,#204,.T.);
#175=EDGE_CURVE('',#154,#155,#205,.T.);
#176=EDGE_CURVE('',#154,#156,#206,.T.);
#177=EDGE_CURVE('',#156,#157,#207,.T.);
#178=EDGE_CURVE('',#148,#157,#208,.T.);
#179=EDGE_CURVE('',#155,#146,#209,.T.);
#180=EDGE_CURVE('',#158,#154,#36,.T.);
#181=EDGE_CURVE('',#158,#159,#210,.T.);
#182=EDGE_CURVE('',#160,#159,#37,.T.);
#183=EDGE_CURVE('',#161,#160,#211,.T.);
#184=EDGE_CURVE('',#156,#161,#38,.T.);
#185=EDGE_CURVE('',#150,#155,#212,.T.);
#186=EDGE_CURVE('',#151,#162,#213,.T.);
#187=EDGE_CURVE('',#158,#162,#214,.T.);
#188=EDGE_CURVE('',#162,#163,#215,.T.);
#189=EDGE_CURVE('',#159,#163,#216,.T.);
#190=EDGE_CURVE('',#163,#164,#217,.T.);
#191=EDGE_CURVE('',#160,#164,#218,.T.);
#192=EDGE_CURVE('',#164,#165,#219,.T.);
#193=EDGE_CURVE('',#161,#165,#220,.T.);
#194=EDGE_CURVE('',#152,#157,#221,.T.);
#195=EDGE_CURVE('',#165,#153,#222,.T.);
#196=LINE('',#370,#223);
#197=LINE('',#373,#224);
#198=LINE('',#375,#225);
#199=LINE('',#377,#226);
#200=LINE('',#379,#227);
#201=LINE('',#382,#228);
#202=LINE('',#383,#229);
#203=LINE('',#385,#230);
#204=LINE('',#387,#231);
#205=LINE('',#389,#232);
#206=LINE('',#392,#233);
#207=LINE('',#394,#234);
#208=LINE('',#396,#235);
#209=LINE('',#397,#236);
#210=LINE('',#401,#237);
#211=LINE('',#405,#238);
#212=LINE('',#409,#239);
#213=LINE('',#410,#240);
#214=LINE('',#412,#241);
#215=LINE('',#414,#242);
#216=LINE('',#416,#243);
#217=LINE('',#418,#244);
#218=LINE('',#420,#245);
#219=LINE('',#422,#246);
#220=LINE('',#424,#247);
#221=LINE('',#426,#248);
#222=LINE('',#427,#249);
#223=VECTOR('',#306,1.);
#224=VECTOR('',#307,1.);
#225=VECTOR('',#308,1.);
#226=VECTOR('',#309,1.);
#227=VECTOR('',#312,1.);
#228=VECTOR('',#313,1.);
#229=VECTOR('',#314,1.);
#230=VECTOR('',#315,1.);
#231=VECTOR('',#316,1.);
#232=VECTOR('',#319,1.);
#233=VECTOR('',#320,1.);
#234=VECTOR('',#321,1.);
#235=VECTOR('',#322,1.);
#236=VECTOR('',#323,1.);
#237=VECTOR('',#328,1.);
#238=VECTOR('',#331,1.);
#239=VECTOR('',#336,1.);
#240=VECTOR('',#337,1.);
#241=VECTOR('',#338,1.);
#242=VECTOR('',#341,1.);
#243=VECTOR('',#342,1.);
#244=VECTOR('',#345,1.);
#245=VECTOR('',#346,1.);
#246=VECTOR('',#349,1.);
#247=VECTOR('',#350,1.);
#248=VECTOR('',#353,1.);
#249=VECTOR('',#354,1.);
#250=CURVE_STYLE('',#253,POSITIVE_LENGTH_MEASURE(0.18),#277);
#251=CURVE_STYLE('',#254,POSITIVE_LENGTH_MEASURE(0.18),#277);
#252=CURVE_STYLE('',#255,POSITIVE_LENGTH_MEASURE(0.18),#277);
#253=DRAUGHTING_PRE_DEFINED_CURVE_FONT('continuous');
#254=DRAUGHTING_PRE_DEFINED_CURVE_FONT('continuous');
#255=DRAUGHTING_PRE_DEFINED_CURVE_FONT('continuous');
#256=PRESENTATION_LAYER_ASSIGNMENT('1','Layer 1',(#364,#365,#366,#280,#281,
#282,#33));
#257=STYLED_ITEM('',(#264),#364);
#258=STYLED_ITEM('',(#265),#365);
#259=STYLED_ITEM('',(#266),#366);
#260=STYLED_ITEM('',(#267),#280);
#261=STYLED_ITEM('',(#268),#281);
#262=STYLED_ITEM('',(#269),#282);
#263=STYLED_ITEM('',(#270),#33);
#264=PRESENTATION_STYLE_ASSIGNMENT((#271));
#265=PRESENTATION_STYLE_ASSIGNMENT((#272));
#266=PRESENTATION_STYLE_ASSIGNMENT((#273));
#267=PRESENTATION_STYLE_ASSIGNMENT((#250));
#268=PRESENTATION_STYLE_ASSIGNMENT((#251));
#269=PRESENTATION_STYLE_ASSIGNMENT((#252));
#270=PRESENTATION_STYLE_ASSIGNMENT((#28));
#271=POINT_STYLE('',#274,POSITIVE_LENGTH_MEASURE(3.),#277);
#272=POINT_STYLE('',#275,POSITIVE_LENGTH_MEASURE(3.),#277);
#273=POINT_STYLE('',#276,POSITIVE_LENGTH_MEASURE(3.),#277);
#274=PRE_DEFINED_POINT_MARKER_SYMBOL('plus');
#275=PRE_DEFINED_POINT_MARKER_SYMBOL('plus');
#276=PRE_DEFINED_POINT_MARKER_SYMBOL('plus');
#277=COLOUR_RGB('Strong Stone',0.576470588235294,0.54508278019379,0.392156862745098);
#278=COLOUR_RGB('TLS_NOCUT',0.501960784313725,0.501960784313725,0.501960784313725);
#279=AXIS2_PLACEMENT_3D('',#363,#298,#299);
#280=AXIS2_PLACEMENT_3D('PCS',#367,#300,#301);
#281=AXIS2_PLACEMENT_3D('MCS',#368,#302,#303);
#282=AXIS2_PLACEMENT_3D('CSW',#369,#304,#305);
#283=AXIS2_PLACEMENT_3D('',#378,#310,#311);
#284=AXIS2_PLACEMENT_3D('',#388,#317,#318);
#285=AXIS2_PLACEMENT_3D('',#398,#324,#325);
#286=AXIS2_PLACEMENT_3D('',#399,#326,#327);
#287=AXIS2_PLACEMENT_3D('',#403,#329,#330);
#288=AXIS2_PLACEMENT_3D('',#407,#332,#333);
#289=AXIS2_PLACEMENT_3D('',#408,#334,#335);
#290=AXIS2_PLACEMENT_3D('',#413,#339,#340);
#291=AXIS2_PLACEMENT_3D('',#417,#343,#344);
#292=AXIS2_PLACEMENT_3D('',#421,#347,#348);
#293=AXIS2_PLACEMENT_3D('',#425,#351,#352);
#294=AXIS2_PLACEMENT_3D('',#428,#355,#356);
#295=AXIS2_PLACEMENT_3D('',#429,#357,#358);
#296=AXIS2_PLACEMENT_3D('',#430,#359,#360);
#297=AXIS2_PLACEMENT_3D('',#431,#361,#362);
#298=DIRECTION('',(0.,0.,1.));
#299=DIRECTION('',(1.,0.,0.));
#300=DIRECTION('',(0.,0.,1.));
#301=DIRECTION('',(1.,0.,0.));
#302=DIRECTION('',(0.,0.,1.));
#303=DIRECTION('',(1.,0.,0.));
#304=DIRECTION('',(0.,0.,1.));
#305=DIRECTION('',(1.,0.,0.));
#306=DIRECTION('',(0.,1.,0.));
#307=DIRECTION('',(-1.,0.,0.));
#308=DIRECTION('',(-0.374606593415912,0.927183854566787,0.));
#309=DIRECTION('',(-1.,0.,0.));
#310=DIRECTION('',(0.,0.,1.));
#311=DIRECTION('',(0.,-1.,0.));
#312=DIRECTION('',(1.,0.,0.));
#313=DIRECTION('',(0.,0.,1.));
#314=DIRECTION('',(0.,0.,1.));
#315=DIRECTION('',(-1.,-1.78837471750186E-016,0.));
#316=DIRECTION('',(0.,0.,1.));
#317=DIRECTION('',(0.,-1.,0.));
#318=DIRECTION('',(0.,0.,-1.));
#319=DIRECTION('',(-1.,0.,0.));
#320=DIRECTION('',(0.,0.,1.));
#321=DIRECTION('',(-1.,0.,0.));
#322=DIRECTION('',(0.,0.,1.));
#323=DIRECTION('',(0.,1.61369625672261E-016,-1.));
#324=DIRECTION('',(0.,1.,1.61369625672261E-016));
#325=DIRECTION('',(0.,-1.59594559789866E-016,1.));
#326=DIRECTION('',(0.,-3.46944695195361E-016,-1.));
#327=DIRECTION('',(0.,-1.,3.78485122031303E-016));
#328=DIRECTION('',(0.,0.,1.));
#329=DIRECTION('',(0.,0.,1.));
#330=DIRECTION('',(0.,1.,0.));
#331=DIRECTION('',(0.,0.,1.));
#332=DIRECTION('',(0.,0.,1.));
#333=DIRECTION('',(0.,1.,0.));
#334=DIRECTION('',(0.,0.,1.));
#335=DIRECTION('',(0.,-1.,0.));
#336=DIRECTION('',(0.,-1.,1.26161707343768E-016));
#337=DIRECTION('',(0.,1.,-3.46944695195361E-016));
#338=DIRECTION('',(-1.,0.,0.));
#339=DIRECTION('',(0.,3.46944695195361E-016,1.));
#340=DIRECTION('',(0.,-1.,3.46944695195361E-016));
#341=DIRECTION('',(0.,0.,1.));
#342=DIRECTION('',(-1.,0.,0.));
#343=DIRECTION('',(0.,-1.,8.83109340353171E-034));
#344=DIRECTION('',(0.,-8.83109340353171E-034,-1.));
#345=DIRECTION('',(0.,-1.,0.));
#346=DIRECTION('',(-1.,0.,0.));
#347=DIRECTION('',(0.,0.,-1.));
#348=DIRECTION('',(0.,1.,0.));
#349=DIRECTION('',(0.,0.,-1.));
#350=DIRECTION('',(-1.,0.,0.));
#351=DIRECTION('',(0.,1.,0.));
#352=DIRECTION('',(0.,0.,1.));
#353=DIRECTION('',(0.374606593415912,-0.927183854566787,0.));
#354=DIRECTION('',(0.,-1.,0.));
#355=DIRECTION('',(0.,0.,-1.));
#356=DIRECTION('',(0.,1.,0.));
#357=DIRECTION('',(1.,0.,0.));
#358=DIRECTION('',(0.,0.,-1.));
#359=DIRECTION('',(0.927183854566787,0.374606593415912,0.));
#360=DIRECTION('',(0.374606593415912,-0.927183854566787,0.));
#361=DIRECTION('',(1.,0.,0.));
#362=DIRECTION('',(0.,0.,-1.));
#363=CARTESIAN_POINT('',(0.,0.,0.));
#364=CARTESIAN_POINT('',(0.,0.,0.));
#365=CARTESIAN_POINT('',(21.5,0.,0.));
#366=CARTESIAN_POINT('',(-47.9999901529026,-20.,-12.));
#367=CARTESIAN_POINT('',(0.,0.,0.));
#368=CARTESIAN_POINT('',(21.5,0.,0.));
#369=CARTESIAN_POINT('',(-47.9999901529026,-20.,-12.));
#370=CARTESIAN_POINT('',(-48.9999901529026,-45.,-43.));
#371=CARTESIAN_POINT('',(-48.9999901529026,-45.,-43.));
#372=CARTESIAN_POINT('',(-48.9999901529026,-20.,-43.));
#373=CARTESIAN_POINT('',(80.,-45.,-43.));
#374=CARTESIAN_POINT('',(-57.2993345070237,-45.,-43.));
#375=CARTESIAN_POINT('',(-38.0321051889679,-92.688065986877,-43.));
#376=CARTESIAN_POINT('',(-67.3999901529026,-20.,-43.));
#377=CARTESIAN_POINT('',(80.,-20.,-43.));
#378=CARTESIAN_POINT('',(80.,-45.,-43.));
#379=CARTESIAN_POINT('',(80.,-20.,-33.));
#380=CARTESIAN_POINT('',(-48.9999901529026,-20.,-33.));
#381=CARTESIAN_POINT('',(-47.9999901529026,-20.,-33.));
#382=CARTESIAN_POINT('',(-48.9999901529026,-20.,-43.));
#383=CARTESIAN_POINT('',(-67.3999901529026,-20.,-50.));
#384=CARTESIAN_POINT('',(-67.3999901529026,-20.,0.));
#385=CARTESIAN_POINT('',(80.,-20.,0.));
#386=CARTESIAN_POINT('',(-47.9999901529026,-20.,0.));
#387=CARTESIAN_POINT('',(-47.9999901529026,-20.,-50.));
#388=CARTESIAN_POINT('',(80.,-20.,-43.));
#389=CARTESIAN_POINT('',(80.,-45.,-33.));
#390=CARTESIAN_POINT('',(31.6227864487811,-45.,-33.));
#391=CARTESIAN_POINT('',(-48.9999901529026,-45.,-33.));
#392=CARTESIAN_POINT('',(31.6227864487812,-45.,-50.));
#393=CARTESIAN_POINT('',(31.6227864487812,-45.,0.));
#394=CARTESIAN_POINT('',(80.,-45.,0.));
#395=CARTESIAN_POINT('',(-57.2993345070237,-45.,0.));
#396=CARTESIAN_POINT('',(-57.2993345070237,-45.,-50.));
#397=CARTESIAN_POINT('',(-48.9999901529026,-45.,0.));
#398=CARTESIAN_POINT('',(80.,-45.,0.));
#399=CARTESIAN_POINT('',(9.84709736684408E-006,-6.02940792093966E-022,-33.));
#400=CARTESIAN_POINT('',(55.0000098470974,1.07802627983108E-013,-33.));
#401=CARTESIAN_POINT('',(55.0000098470974,1.07802627983108E-013,-50.));
#402=CARTESIAN_POINT('',(55.0000098470974,1.07802627983108E-013,8.));
#403=CARTESIAN_POINT('',(9.84709736684408E-006,-6.02940792093966E-022,8.));
#404=CARTESIAN_POINT('',(54.0832789790572,-10.,8.));
#405=CARTESIAN_POINT('',(54.0832789790572,-10.,-50.));
#406=CARTESIAN_POINT('',(54.0832789790572,-10.,0.));
#407=CARTESIAN_POINT('',(9.84709736684408E-006,-6.02940792093966E-022,0.));
#408=CARTESIAN_POINT('',(9.84709736684408E-006,-6.02940792093966E-022,-50.));
#409=CARTESIAN_POINT('',(-48.9999901529026,5.00000000000002,-33.));
#410=CARTESIAN_POINT('',(-47.9999901529026,-20.,-33.));
#411=CARTESIAN_POINT('',(-47.9999901529026,3.5527136788005E-015,-33.));
#412=CARTESIAN_POINT('',(80.,-3.620748295448E-032,-33.));
#413=CARTESIAN_POINT('',(80.,-20.,-33.));
#414=CARTESIAN_POINT('',(-47.9999901529026,3.5527136788005E-015,-50.));
#415=CARTESIAN_POINT('',(-47.9999901529026,3.5527136788005E-015,8.));
#416=CARTESIAN_POINT('',(80.,0.,8.));
#417=CARTESIAN_POINT('',(80.,-3.620748295448E-032,-33.));
#418=CARTESIAN_POINT('',(-47.9999901529026,0.,8.));
#419=CARTESIAN_POINT('',(-47.9999901529026,-10.,8.));
#420=CARTESIAN_POINT('',(80.,-10.,8.));
#421=CARTESIAN_POINT('',(80.,0.,8.));
#422=CARTESIAN_POINT('',(-47.9999901529026,-10.,8.));
#423=CARTESIAN_POINT('',(-47.9999901529026,-10.,0.));
#424=CARTESIAN_POINT('',(80.,-10.,0.));
#425=CARTESIAN_POINT('',(80.,-10.,8.));
#426=CARTESIAN_POINT('',(-50.1886266720004,-62.5996194809506,0.));
#427=CARTESIAN_POINT('',(-47.9999901529026,-10.,0.));
#428=CARTESIAN_POINT('',(80.,-10.,0.));
#429=CARTESIAN_POINT('',(-47.9999901529026,-20.,-50.));
#430=CARTESIAN_POINT('',(-57.2993345070237,-45.,-50.));
#431=CARTESIAN_POINT('',(-48.9999901529026,5.00000000000002,-33.));
#432=MECHANICAL_DESIGN_GEOMETRIC_PRESENTATION_REPRESENTATION('',(#257,#258,
#259,#260,#261,#262,#263),#433);
#433=(
GEOMETRIC_REPRESENTATION_CONTEXT(3)
GLOBAL_UNCERTAINTY_ASSIGNED_CONTEXT((#434))
GLOBAL_UNIT_ASSIGNED_CONTEXT((#440,#436,#435))
REPRESENTATION_CONTEXT('1560777745259','TOP_LEVEL_ASSEMBLY_PART')
);
#434=UNCERTAINTY_MEASURE_WITH_UNIT(LENGTH_MEASURE(2.E-005),#440,
'DISTANCE_ACCURACY_VALUE','Maximum Tolerance applied to model');
#435=(
NAMED_UNIT(*)
SI_UNIT($,.STERADIAN.)
SOLID_ANGLE_UNIT()
);
#436=(
CONVERSION_BASED_UNIT('DEGREE',#438)
NAMED_UNIT(#437)
PLANE_ANGLE_UNIT()
);
#437=DIMENSIONAL_EXPONENTS(0.,0.,0.,0.,0.,0.,0.);
#438=PLANE_ANGLE_MEASURE_WITH_UNIT(PLANE_ANGLE_MEASURE(0.0174532925),#439);
#439=(
NAMED_UNIT(*)
PLANE_ANGLE_UNIT()
SI_UNIT($,.RADIAN.)
);
#440=(
LENGTH_UNIT()
NAMED_UNIT(*)
SI_UNIT(.MILLI.,.METRE.)
);
ENDSEC;
END-ISO-10303-21;
