ISO-10303-21;
HEADER;
/* Generated by software containing ST-Developer
 * from STEP Tools, Inc. (www.steptools.com) 
 */
/* OPTION: using custom schema-name function */

FILE_DESCRIPTION(
/* description */ (''),
/* implementation_level */ '2;1');

FILE_NAME(
/* name */ 'TOOLCOMP_1.STP',
/* time_stamp */ '2023-09-05T10:47:58+02:00',
/* author */ (''),
/* organization */ ('SMS'),
/* preprocessor_version */ 'ST-DEVELOPER v16.7',
/* originating_system */ 'SIEMENS PLM Software NX 12.0',
/* authorisation */ '');

FILE_SCHEMA (('AUTOMOTIVE_DESIGN { 1 0 10303 214 3 1 1 1 }'));
ENDSEC;

DATA;
#10=CONTEXT_DEPENDENT_SHAPE_REPRESENTATION(#12,#30);
#11=NEXT_ASSEMBLY_USAGE_OCCURRENCE('1001',' ',
'NOCUT_COMP20230905104516',#32,#31,$);
#12=(
REPRESENTATION_RELATIONSHIP(' ',' ',#45,#46)
REPRESENTATION_RELATIONSHIP_WITH_TRANSFORMATION(#13)
SHAPE_REPRESENTATION_RELATIONSHIP()
);
#13=ITEM_DEFINED_TRANSFORMATION(' ',' ',#285,#325);
#14=CONSTRUCTIVE_GEOMETRY_REPRESENTATION_RELATIONSHIP(
'supplemental geometry','',#45,#16);
#15=CONSTRUCTIVE_GEOMETRY_REPRESENTATION_RELATIONSHIP(
'supplemental geometry','',#46,#17);
#16=CONSTRUCTIVE_GEOMETRY_REPRESENTATION('supplemental geometry',(#306,
#307),#471);
#17=CONSTRUCTIVE_GEOMETRY_REPRESENTATION('supplemental geometry',(#286,
#287,#288),#470);
#18=GEOMETRICALLY_BOUNDED_WIREFRAME_SHAPE_REPRESENTATION(
'NOCUT_COMP20230905104516-None',(#47),#471);
#19=GEOMETRICALLY_BOUNDED_WIREFRAME_SHAPE_REPRESENTATION(
'TOOLCOMP_1-None',(#48),#470);
#20=SHAPE_REPRESENTATION_RELATIONSHIP('None',
'relationship between NOCUT_COMP20230905104516-None and NOCUT_COMP2023
0905104516-None',#45,#24);
#21=SHAPE_REPRESENTATION_RELATIONSHIP('None',
'relationship between NOCUT_COMP20230905104516-None and NOCUT_COMP2023
0905104516-None',#45,#18);
#22=SHAPE_REPRESENTATION_RELATIONSHIP('None',
'relationship between TOOLCOMP_1-None and TOOLCOMP_1-None',#46,#25);
#23=SHAPE_REPRESENTATION_RELATIONSHIP('None',
'relationship between TOOLCOMP_1-None and TOOLCOMP_1-None',#46,#19);
#24=ADVANCED_BREP_SHAPE_REPRESENTATION('NOCUT_COMP20230905104516-None',
(#60),#471);
#25=ADVANCED_BREP_SHAPE_REPRESENTATION('TOOLCOMP_1-None',(#59),#470);
#26=SHAPE_DEFINITION_REPRESENTATION(#28,#45);
#27=SHAPE_DEFINITION_REPRESENTATION(#29,#46);
#28=PRODUCT_DEFINITION_SHAPE('','',#31);
#29=PRODUCT_DEFINITION_SHAPE('','',#32);
#30=PRODUCT_DEFINITION_SHAPE(' ','NAUO PRDDFN',#11);
#31=PRODUCT_DEFINITION(' ','',#35,#33);
#32=PRODUCT_DEFINITION(' ','',#36,#34);
#33=PRODUCT_DEFINITION_CONTEXT('part definition',#44,'design');
#34=PRODUCT_DEFINITION_CONTEXT('part definition',#44,'design');
#35=PRODUCT_DEFINITION_FORMATION_WITH_SPECIFIED_SOURCE(' ',' ',#39,
 .NOT_KNOWN.);
#36=PRODUCT_DEFINITION_FORMATION_WITH_SPECIFIED_SOURCE(' ',' ',#40,
 .NOT_KNOWN.);
#37=PRODUCT_RELATED_PRODUCT_CATEGORY('part','',(#39));
#38=PRODUCT_RELATED_PRODUCT_CATEGORY('part','',(#40));
#39=PRODUCT('NOCUT_COMP20230905104516','NOCUT_COMP20230905104516',' ',(#41));
#40=PRODUCT('TOOLCOMP_1','TOOLCOMP_1',' ',(#42));
#41=PRODUCT_CONTEXT(' ',#44,'mechanical');
#42=PRODUCT_CONTEXT(' ',#44,'mechanical');
#43=APPLICATION_PROTOCOL_DEFINITION('international standard',
'automotive_design',2010,#44);
#44=APPLICATION_CONTEXT(
'core data for automotive mechanical design processes');
#45=SHAPE_REPRESENTATION('NOCUT_COMP20230905104516-None',(#285),#471);
#46=SHAPE_REPRESENTATION('TOOLCOMP_1-None',(#285,#325),#470);
#47=GEOMETRIC_CURVE_SET('None',(#439));
#48=GEOMETRIC_CURVE_SET('None',(#409,#410));
#49=SURFACE_STYLE_USAGE(.BOTH.,#51);
#50=SURFACE_STYLE_USAGE(.BOTH.,#52);
#51=SURFACE_SIDE_STYLE('',(#53));
#52=SURFACE_SIDE_STYLE('',(#54));
#53=SURFACE_STYLE_FILL_AREA(#55);
#54=SURFACE_STYLE_FILL_AREA(#56);
#55=FILL_AREA_STYLE('',(#57));
#56=FILL_AREA_STYLE('',(#58));
#57=FILL_AREA_STYLE_COLOUR('',#284);
#58=FILL_AREA_STYLE_COLOUR('',#284);
#59=MANIFOLD_SOLID_BREP('NOCUT',#61);
#60=MANIFOLD_SOLID_BREP('NOCUT',#62);
#61=CLOSED_SHELL('',(#77,#78,#79,#80,#81,#82,#83,#84,#85));
#62=CLOSED_SHELL('',(#86,#87,#88,#89,#90,#91,#92,#93,#94));
#63=TOROIDAL_SURFACE('',#300,37.,1.);
#64=TOROIDAL_SURFACE('',#319,37.,1.);
#65=CONICAL_SURFACE('',#298,37.5,2.86813194068667);
#66=CONICAL_SURFACE('',#304,28.,45.);
#67=CONICAL_SURFACE('',#317,37.5,2.86813194068667);
#68=CONICAL_SURFACE('',#323,28.,45.);
#69=FACE_OUTER_BOUND('',#137,.T.);
#70=FACE_OUTER_BOUND('',#146,.T.);
#71=FACE_OUTER_BOUND('',#153,.T.);
#72=FACE_OUTER_BOUND('',#162,.T.);
#73=CYLINDRICAL_SURFACE('',#295,50.);
#74=CYLINDRICAL_SURFACE('',#302,36.);
#75=CYLINDRICAL_SURFACE('',#314,50.);
#76=CYLINDRICAL_SURFACE('',#321,36.);
#77=ADVANCED_FACE('CU_FL_N2_SU_5',(#103,#104),#95,.T.);
#78=ADVANCED_FACE('CU_FL_N2_SU_1',(#105,#106),#96,.T.);
#79=ADVANCED_FACE('CU_FL_N2_SU_3',(#107,#108),#73,.T.);
#80=ADVANCED_FACE('CU_CO_N1_SU_3',(#69),#97,.F.);
#81=ADVANCED_FACE('CU_CO_N1_SU_1',(#109,#110),#65,.T.);
#82=ADVANCED_FACE('CN_RED_SU_1',(#111,#112),#63,.F.);
#83=ADVANCED_FACE('CN_RED_SU_2',(#113,#114),#74,.T.);
#84=ADVANCED_FACE('CHF_CYL_N2_SU_1',(#115,#116),#66,.T.);
#85=ADVANCED_FACE('CN_RED_SU_3',(#70),#98,.T.);
#86=ADVANCED_FACE('CU_FL_N2_SU_5',(#117,#118),#99,.T.);
#87=ADVANCED_FACE('CU_FL_N2_SU_1',(#119,#120),#100,.T.);
#88=ADVANCED_FACE('CU_FL_N2_SU_3',(#121,#122),#75,.T.);
#89=ADVANCED_FACE('CU_CO_N1_SU_3',(#71),#101,.F.);
#90=ADVANCED_FACE('CU_CO_N1_SU_1',(#123,#124),#67,.T.);
#91=ADVANCED_FACE('CN_RED_SU_1',(#125,#126),#64,.F.);
#92=ADVANCED_FACE('CN_RED_SU_2',(#127,#128),#76,.T.);
#93=ADVANCED_FACE('CHF_CYL_N2_SU_1',(#129,#130),#68,.T.);
#94=ADVANCED_FACE('CN_RED_SU_3',(#72),#102,.T.);
#95=PLANE('',#291);
#96=PLANE('',#294);
#97=PLANE('',#297);
#98=PLANE('',#305);
#99=PLANE('',#310);
#100=PLANE('',#313);
#101=PLANE('',#316);
#102=PLANE('',#324);
#103=FACE_BOUND('',#131,.T.);
#104=FACE_BOUND('',#132,.T.);
#105=FACE_BOUND('',#133,.T.);
#106=FACE_BOUND('',#134,.T.);
#107=FACE_BOUND('',#135,.T.);
#108=FACE_BOUND('',#136,.T.);
#109=FACE_BOUND('',#138,.T.);
#110=FACE_BOUND('',#139,.T.);
#111=FACE_BOUND('',#140,.T.);
#112=FACE_BOUND('',#141,.T.);
#113=FACE_BOUND('',#142,.T.);
#114=FACE_BOUND('',#143,.T.);
#115=FACE_BOUND('',#144,.T.);
#116=FACE_BOUND('',#145,.T.);
#117=FACE_BOUND('',#147,.T.);
#118=FACE_BOUND('',#148,.T.);
#119=FACE_BOUND('',#149,.T.);
#120=FACE_BOUND('',#150,.T.);
#121=FACE_BOUND('',#151,.T.);
#122=FACE_BOUND('',#152,.T.);
#123=FACE_BOUND('',#154,.T.);
#124=FACE_BOUND('',#155,.T.);
#125=FACE_BOUND('',#156,.T.);
#126=FACE_BOUND('',#157,.T.);
#127=FACE_BOUND('',#158,.T.);
#128=FACE_BOUND('',#159,.T.);
#129=FACE_BOUND('',#160,.T.);
#130=FACE_BOUND('',#161,.T.);
#131=EDGE_LOOP('',(#163));
#132=EDGE_LOOP('',(#164));
#133=EDGE_LOOP('',(#165));
#134=EDGE_LOOP('',(#166));
#135=EDGE_LOOP('',(#167));
#136=EDGE_LOOP('',(#168));
#137=EDGE_LOOP('',(#169));
#138=EDGE_LOOP('',(#170));
#139=EDGE_LOOP('',(#171));
#140=EDGE_LOOP('',(#172));
#141=EDGE_LOOP('',(#173));
#142=EDGE_LOOP('',(#174));
#143=EDGE_LOOP('',(#175));
#144=EDGE_LOOP('',(#176));
#145=EDGE_LOOP('',(#177));
#146=EDGE_LOOP('',(#178));
#147=EDGE_LOOP('',(#179));
#148=EDGE_LOOP('',(#180));
#149=EDGE_LOOP('',(#181));
#150=EDGE_LOOP('',(#182));
#151=EDGE_LOOP('',(#183));
#152=EDGE_LOOP('',(#184));
#153=EDGE_LOOP('',(#185));
#154=EDGE_LOOP('',(#186));
#155=EDGE_LOOP('',(#187));
#156=EDGE_LOOP('',(#188));
#157=EDGE_LOOP('',(#189));
#158=EDGE_LOOP('',(#190));
#159=EDGE_LOOP('',(#191));
#160=EDGE_LOOP('',(#192));
#161=EDGE_LOOP('',(#193));
#162=EDGE_LOOP('',(#194));
#163=ORIENTED_EDGE('',*,*,#211,.F.);
#164=ORIENTED_EDGE('',*,*,#212,.F.);
#165=ORIENTED_EDGE('',*,*,#213,.F.);
#166=ORIENTED_EDGE('',*,*,#214,.T.);
#167=ORIENTED_EDGE('',*,*,#212,.T.);
#168=ORIENTED_EDGE('',*,*,#214,.F.);
#169=ORIENTED_EDGE('',*,*,#215,.F.);
#170=ORIENTED_EDGE('',*,*,#213,.T.);
#171=ORIENTED_EDGE('',*,*,#215,.T.);
#172=ORIENTED_EDGE('',*,*,#211,.T.);
#173=ORIENTED_EDGE('',*,*,#216,.F.);
#174=ORIENTED_EDGE('',*,*,#217,.F.);
#175=ORIENTED_EDGE('',*,*,#216,.T.);
#176=ORIENTED_EDGE('',*,*,#218,.T.);
#177=ORIENTED_EDGE('',*,*,#217,.T.);
#178=ORIENTED_EDGE('',*,*,#218,.F.);
#179=ORIENTED_EDGE('',*,*,#219,.F.);
#180=ORIENTED_EDGE('',*,*,#220,.F.);
#181=ORIENTED_EDGE('',*,*,#221,.F.);
#182=ORIENTED_EDGE('',*,*,#222,.T.);
#183=ORIENTED_EDGE('',*,*,#220,.T.);
#184=ORIENTED_EDGE('',*,*,#222,.F.);
#185=ORIENTED_EDGE('',*,*,#223,.F.);
#186=ORIENTED_EDGE('',*,*,#221,.T.);
#187=ORIENTED_EDGE('',*,*,#223,.T.);
#188=ORIENTED_EDGE('',*,*,#219,.T.);
#189=ORIENTED_EDGE('',*,*,#224,.F.);
#190=ORIENTED_EDGE('',*,*,#225,.F.);
#191=ORIENTED_EDGE('',*,*,#224,.T.);
#192=ORIENTED_EDGE('',*,*,#226,.T.);
#193=ORIENTED_EDGE('',*,*,#225,.T.);
#194=ORIENTED_EDGE('',*,*,#226,.F.);
#195=VERTEX_POINT('',#415);
#196=VERTEX_POINT('',#417);
#197=VERTEX_POINT('',#420);
#198=VERTEX_POINT('',#422);
#199=VERTEX_POINT('',#426);
#200=VERTEX_POINT('',#430);
#201=VERTEX_POINT('',#433);
#202=VERTEX_POINT('',#436);
#203=VERTEX_POINT('',#443);
#204=VERTEX_POINT('',#445);
#205=VERTEX_POINT('',#448);
#206=VERTEX_POINT('',#450);
#207=VERTEX_POINT('',#454);
#208=VERTEX_POINT('',#458);
#209=VERTEX_POINT('',#461);
#210=VERTEX_POINT('',#464);
#211=EDGE_CURVE('',#195,#195,#227,.T.);
#212=EDGE_CURVE('',#196,#196,#228,.T.);
#213=EDGE_CURVE('',#197,#197,#229,.T.);
#214=EDGE_CURVE('',#198,#198,#230,.T.);
#215=EDGE_CURVE('',#199,#199,#231,.T.);
#216=EDGE_CURVE('',#200,#200,#232,.T.);
#217=EDGE_CURVE('',#201,#201,#233,.T.);
#218=EDGE_CURVE('',#202,#202,#234,.T.);
#219=EDGE_CURVE('',#203,#203,#235,.T.);
#220=EDGE_CURVE('',#204,#204,#236,.T.);
#221=EDGE_CURVE('',#205,#205,#237,.T.);
#222=EDGE_CURVE('',#206,#206,#238,.T.);
#223=EDGE_CURVE('',#207,#207,#239,.T.);
#224=EDGE_CURVE('',#208,#208,#240,.T.);
#225=EDGE_CURVE('',#209,#209,#241,.T.);
#226=EDGE_CURVE('',#210,#210,#242,.T.);
#227=CIRCLE('',#289,36.6877501000801);
#228=CIRCLE('',#290,50.);
#229=CIRCLE('',#292,38.001002004008);
#230=CIRCLE('',#293,50.);
#231=CIRCLE('',#296,35.4959919839679);
#232=CIRCLE('',#299,36.);
#233=CIRCLE('',#301,36.);
#234=CIRCLE('',#303,28.);
#235=CIRCLE('',#308,36.6877501000801);
#236=CIRCLE('',#309,50.);
#237=CIRCLE('',#311,38.001002004008);
#238=CIRCLE('',#312,50.);
#239=CIRCLE('',#315,35.4959919839679);
#240=CIRCLE('',#318,36.);
#241=CIRCLE('',#320,36.);
#242=CIRCLE('',#322,28.);
#243=CURVE_STYLE('',#248,POSITIVE_LENGTH_MEASURE(0.13),#282);
#244=CURVE_STYLE('',#249,POSITIVE_LENGTH_MEASURE(0.18),#283);
#245=CURVE_STYLE('',#250,POSITIVE_LENGTH_MEASURE(0.18),#282);
#246=CURVE_STYLE('',#251,POSITIVE_LENGTH_MEASURE(0.13),#280);
#247=CURVE_STYLE('',#252,POSITIVE_LENGTH_MEASURE(0.18),#281);
#248=DRAUGHTING_PRE_DEFINED_CURVE_FONT('continuous');
#249=DRAUGHTING_PRE_DEFINED_CURVE_FONT('continuous');
#250=DRAUGHTING_PRE_DEFINED_CURVE_FONT('continuous');
#251=DRAUGHTING_PRE_DEFINED_CURVE_FONT('continuous');
#252=DRAUGHTING_PRE_DEFINED_CURVE_FONT('continuous');
#253=PRESENTATION_LAYER_ASSIGNMENT('1','Layer 1',(#409,#410,#286,#287,#288,
#59,#439,#306,#307,#60));
#254=STYLED_ITEM('',(#264),#409);
#255=STYLED_ITEM('',(#265),#410);
#256=STYLED_ITEM('',(#266),#286);
#257=STYLED_ITEM('',(#267),#287);
#258=STYLED_ITEM('',(#268),#288);
#259=STYLED_ITEM('',(#269),#59);
#260=STYLED_ITEM('',(#270),#439);
#261=STYLED_ITEM('',(#271),#306);
#262=STYLED_ITEM('',(#272),#307);
#263=STYLED_ITEM('',(#273),#60);
#264=PRESENTATION_STYLE_ASSIGNMENT((#274));
#265=PRESENTATION_STYLE_ASSIGNMENT((#275));
#266=PRESENTATION_STYLE_ASSIGNMENT((#243));
#267=PRESENTATION_STYLE_ASSIGNMENT((#244));
#268=PRESENTATION_STYLE_ASSIGNMENT((#245));
#269=PRESENTATION_STYLE_ASSIGNMENT((#49));
#270=PRESENTATION_STYLE_ASSIGNMENT((#276));
#271=PRESENTATION_STYLE_ASSIGNMENT((#246));
#272=PRESENTATION_STYLE_ASSIGNMENT((#247));
#273=PRESENTATION_STYLE_ASSIGNMENT((#50));
#274=POINT_STYLE('',#277,POSITIVE_LENGTH_MEASURE(3.),#280);
#275=POINT_STYLE('',#278,POSITIVE_LENGTH_MEASURE(3.),#281);
#276=POINT_STYLE('',#279,POSITIVE_LENGTH_MEASURE(3.),#281);
#277=PRE_DEFINED_POINT_MARKER_SYMBOL('plus');
#278=PRE_DEFINED_POINT_MARKER_SYMBOL('plus');
#279=PRE_DEFINED_POINT_MARKER_SYMBOL('plus');
#280=COLOUR_RGB('Silver Gray',0.6,0.6,0.6);
#281=COLOUR_RGB('Medium Maroon',0.6,0.4,0.4);
#282=COLOUR_RGB('Pale Sky',0.882337682154574,0.960769054703594,1.);
#283=COLOUR_RGB('Strong Emerald',0.,0.803921568627451,0.525490196078431);
#284=COLOUR_RGB('TLS_NOCUT',0.498023956664378,0.498023956664378,0.498023956664378);
#285=AXIS2_PLACEMENT_3D('',#408,#326,#327);
#286=AXIS2_PLACEMENT_3D('PCS',#411,#328,#329);
#287=AXIS2_PLACEMENT_3D('CSW',#412,#330,#331);
#288=AXIS2_PLACEMENT_3D('MCS',#413,#332,#333);
#289=AXIS2_PLACEMENT_3D('',#414,#334,#335);
#290=AXIS2_PLACEMENT_3D('',#416,#336,#337);
#291=AXIS2_PLACEMENT_3D('',#418,#338,#339);
#292=AXIS2_PLACEMENT_3D('',#419,#340,#341);
#293=AXIS2_PLACEMENT_3D('',#421,#342,#343);
#294=AXIS2_PLACEMENT_3D('',#423,#344,#345);
#295=AXIS2_PLACEMENT_3D('',#424,#346,#347);
#296=AXIS2_PLACEMENT_3D('',#425,#348,#349);
#297=AXIS2_PLACEMENT_3D('',#427,#350,#351);
#298=AXIS2_PLACEMENT_3D('',#428,#352,#353);
#299=AXIS2_PLACEMENT_3D('',#429,#354,#355);
#300=AXIS2_PLACEMENT_3D('',#431,#356,#357);
#301=AXIS2_PLACEMENT_3D('',#432,#358,#359);
#302=AXIS2_PLACEMENT_3D('',#434,#360,#361);
#303=AXIS2_PLACEMENT_3D('',#435,#362,#363);
#304=AXIS2_PLACEMENT_3D('',#437,#364,#365);
#305=AXIS2_PLACEMENT_3D('',#438,#366,#367);
#306=AXIS2_PLACEMENT_3D('PCS',#440,#368,#369);
#307=AXIS2_PLACEMENT_3D('MCS',#441,#370,#371);
#308=AXIS2_PLACEMENT_3D('',#442,#372,#373);
#309=AXIS2_PLACEMENT_3D('',#444,#374,#375);
#310=AXIS2_PLACEMENT_3D('',#446,#376,#377);
#311=AXIS2_PLACEMENT_3D('',#447,#378,#379);
#312=AXIS2_PLACEMENT_3D('',#449,#380,#381);
#313=AXIS2_PLACEMENT_3D('',#451,#382,#383);
#314=AXIS2_PLACEMENT_3D('',#452,#384,#385);
#315=AXIS2_PLACEMENT_3D('',#453,#386,#387);
#316=AXIS2_PLACEMENT_3D('',#455,#388,#389);
#317=AXIS2_PLACEMENT_3D('',#456,#390,#391);
#318=AXIS2_PLACEMENT_3D('',#457,#392,#393);
#319=AXIS2_PLACEMENT_3D('',#459,#394,#395);
#320=AXIS2_PLACEMENT_3D('',#460,#396,#397);
#321=AXIS2_PLACEMENT_3D('',#462,#398,#399);
#322=AXIS2_PLACEMENT_3D('',#463,#400,#401);
#323=AXIS2_PLACEMENT_3D('',#465,#402,#403);
#324=AXIS2_PLACEMENT_3D('',#466,#404,#405);
#325=AXIS2_PLACEMENT_3D('',#467,#406,#407);
#326=DIRECTION('',(0.,0.,1.));
#327=DIRECTION('',(1.,0.,0.));
#328=DIRECTION('',(0.,0.,1.));
#329=DIRECTION('',(1.,0.,0.));
#330=DIRECTION('',(0.,0.,1.));
#331=DIRECTION('',(1.,0.,0.));
#332=DIRECTION('',(0.,0.,1.));
#333=DIRECTION('',(1.,0.,0.));
#334=DIRECTION('',(0.,0.,-1.));
#335=DIRECTION('',(1.,0.,0.));
#336=DIRECTION('',(0.,0.,1.));
#337=DIRECTION('',(1.,0.,0.));
#338=DIRECTION('',(0.,0.,-1.));
#339=DIRECTION('',(-1.,0.,0.));
#340=DIRECTION('',(0.,0.,1.));
#341=DIRECTION('',(1.,0.,0.));
#342=DIRECTION('',(0.,0.,1.));
#343=DIRECTION('',(1.,0.,0.));
#344=DIRECTION('',(0.,0.,1.));
#345=DIRECTION('',(1.,0.,0.));
#346=DIRECTION('',(0.,0.,1.));
#347=DIRECTION('',(1.,0.,0.));
#348=DIRECTION('',(0.,0.,-1.));
#349=DIRECTION('',(-1.,0.,0.));
#350=DIRECTION('',(0.,0.,-1.));
#351=DIRECTION('',(-1.,0.,0.));
#352=DIRECTION('',(0.,0.,-1.));
#353=DIRECTION('',(-1.,0.,4.7526561849124E-16));
#354=DIRECTION('',(0.,0.,-1.));
#355=DIRECTION('',(-1.,0.,0.));
#356=DIRECTION('',(0.,0.,-1.));
#357=DIRECTION('',(-1.,0.,0.));
#358=DIRECTION('',(0.,0.,-1.));
#359=DIRECTION('',(1.,0.,0.));
#360=DIRECTION('',(0.,0.,-1.));
#361=DIRECTION('',(-1.,0.,0.));
#362=DIRECTION('',(0.,0.,1.));
#363=DIRECTION('',(-1.,0.,0.));
#364=DIRECTION('',(0.,0.,1.));
#365=DIRECTION('',(1.,0.,2.69995871747363E-17));
#366=DIRECTION('',(0.,0.,-1.));
#367=DIRECTION('',(-1.,0.,0.));
#368=DIRECTION('',(0.,0.,1.));
#369=DIRECTION('',(1.,0.,0.));
#370=DIRECTION('',(0.,0.,1.));
#371=DIRECTION('',(1.,0.,0.));
#372=DIRECTION('',(0.,0.,-1.));
#373=DIRECTION('',(1.,0.,0.));
#374=DIRECTION('',(0.,0.,1.));
#375=DIRECTION('',(1.,0.,0.));
#376=DIRECTION('',(0.,0.,-1.));
#377=DIRECTION('',(-1.,0.,0.));
#378=DIRECTION('',(0.,0.,1.));
#379=DIRECTION('',(1.,0.,0.));
#380=DIRECTION('',(0.,0.,1.));
#381=DIRECTION('',(1.,0.,0.));
#382=DIRECTION('',(0.,0.,1.));
#383=DIRECTION('',(1.,0.,0.));
#384=DIRECTION('',(0.,0.,1.));
#385=DIRECTION('',(1.,0.,0.));
#386=DIRECTION('',(0.,0.,-1.));
#387=DIRECTION('',(-1.,0.,0.));
#388=DIRECTION('',(0.,0.,-1.));
#389=DIRECTION('',(-1.,0.,0.));
#390=DIRECTION('',(0.,0.,-1.));
#391=DIRECTION('',(-1.,0.,4.7526561849124E-16));
#392=DIRECTION('',(0.,0.,-1.));
#393=DIRECTION('',(-1.,0.,0.));
#394=DIRECTION('',(0.,0.,-1.));
#395=DIRECTION('',(-1.,0.,0.));
#396=DIRECTION('',(0.,0.,-1.));
#397=DIRECTION('',(1.,0.,0.));
#398=DIRECTION('',(0.,0.,-1.));
#399=DIRECTION('',(-1.,0.,0.));
#400=DIRECTION('',(0.,0.,1.));
#401=DIRECTION('',(-1.,0.,0.));
#402=DIRECTION('',(0.,0.,1.));
#403=DIRECTION('',(1.,0.,2.69995871747363E-17));
#404=DIRECTION('',(0.,0.,-1.));
#405=DIRECTION('',(-1.,0.,0.));
#406=DIRECTION('',(0.,0.,1.));
#407=DIRECTION('',(1.,0.,0.));
#408=CARTESIAN_POINT('',(0.,0.,0.));
#409=CARTESIAN_POINT('',(0.,0.,0.));
#410=CARTESIAN_POINT('',(0.,0.,0.));
#411=CARTESIAN_POINT('',(0.,0.,0.));
#412=CARTESIAN_POINT('',(0.,0.,-100.));
#413=CARTESIAN_POINT('',(0.,0.,0.));
#414=CARTESIAN_POINT('',(0.,0.,-29.));
#415=CARTESIAN_POINT('',(36.6877501000801,0.,-29.));
#416=CARTESIAN_POINT('',(0.,0.,-29.));
#417=CARTESIAN_POINT('',(50.,0.,-29.));
#418=CARTESIAN_POINT('',(-50.,0.,-29.));
#419=CARTESIAN_POINT('',(0.,0.,0.));
#420=CARTESIAN_POINT('',(38.001002004008,0.,0.));
#421=CARTESIAN_POINT('',(0.,0.,0.));
#422=CARTESIAN_POINT('',(50.,0.,0.));
#423=CARTESIAN_POINT('',(0.,0.,0.));
#424=CARTESIAN_POINT('',(0.,0.,20.9080749503476));
#425=CARTESIAN_POINT('',(0.,0.,50.));
#426=CARTESIAN_POINT('',(-35.4959919839679,0.,50.));
#427=CARTESIAN_POINT('',(0.,0.,50.));
#428=CARTESIAN_POINT('',(0.,0.,9.99999999999997));
#429=CARTESIAN_POINT('',(0.,0.,-29.95));
#430=CARTESIAN_POINT('',(-36.,0.,-29.95));
#431=CARTESIAN_POINT('',(0.,0.,-29.95));
#432=CARTESIAN_POINT('',(0.,0.,-92.));
#433=CARTESIAN_POINT('',(36.,0.,-92.));
#434=CARTESIAN_POINT('',(0.,0.,20.9080749503476));
#435=CARTESIAN_POINT('',(0.,0.,-100.));
#436=CARTESIAN_POINT('',(-28.,0.,-100.));
#437=CARTESIAN_POINT('',(0.,0.,-100.));
#438=CARTESIAN_POINT('',(0.,0.,-100.));
#439=CARTESIAN_POINT('',(0.,0.,0.));
#440=CARTESIAN_POINT('',(0.,0.,0.));
#441=CARTESIAN_POINT('',(0.,0.,0.));
#442=CARTESIAN_POINT('',(0.,0.,-29.));
#443=CARTESIAN_POINT('',(36.6877501000801,0.,-29.));
#444=CARTESIAN_POINT('',(0.,0.,-29.));
#445=CARTESIAN_POINT('',(50.,0.,-29.));
#446=CARTESIAN_POINT('',(-50.,0.,-29.));
#447=CARTESIAN_POINT('',(0.,0.,0.));
#448=CARTESIAN_POINT('',(38.001002004008,0.,0.));
#449=CARTESIAN_POINT('',(0.,0.,0.));
#450=CARTESIAN_POINT('',(50.,0.,0.));
#451=CARTESIAN_POINT('',(0.,0.,0.));
#452=CARTESIAN_POINT('',(0.,0.,20.9080749503476));
#453=CARTESIAN_POINT('',(0.,0.,50.));
#454=CARTESIAN_POINT('',(-35.4959919839679,0.,50.));
#455=CARTESIAN_POINT('',(0.,0.,50.));
#456=CARTESIAN_POINT('',(0.,0.,9.99999999999997));
#457=CARTESIAN_POINT('',(0.,0.,-29.95));
#458=CARTESIAN_POINT('',(-36.,0.,-29.95));
#459=CARTESIAN_POINT('',(0.,0.,-29.95));
#460=CARTESIAN_POINT('',(0.,0.,-92.));
#461=CARTESIAN_POINT('',(36.,0.,-92.));
#462=CARTESIAN_POINT('',(0.,0.,20.9080749503476));
#463=CARTESIAN_POINT('',(0.,0.,-100.));
#464=CARTESIAN_POINT('',(-28.,0.,-100.));
#465=CARTESIAN_POINT('',(0.,0.,-100.));
#466=CARTESIAN_POINT('',(0.,0.,-100.));
#467=CARTESIAN_POINT('',(0.,0.,0.));
#468=MECHANICAL_DESIGN_GEOMETRIC_PRESENTATION_REPRESENTATION('',(#254,#255,
#256,#257,#258,#259),#470);
#469=MECHANICAL_DESIGN_GEOMETRIC_PRESENTATION_REPRESENTATION('',(#260,#261,
#262,#263),#471);
#470=(
GEOMETRIC_REPRESENTATION_CONTEXT(3)
GLOBAL_UNCERTAINTY_ASSIGNED_CONTEXT((#472))
GLOBAL_UNIT_ASSIGNED_CONTEXT((#479,#475,#474))
REPRESENTATION_CONTEXT('TOOLCOMP_1','TOP_LEVEL_ASSEMBLY_PART')
);
#471=(
GEOMETRIC_REPRESENTATION_CONTEXT(3)
GLOBAL_UNCERTAINTY_ASSIGNED_CONTEXT((#473))
GLOBAL_UNIT_ASSIGNED_CONTEXT((#479,#475,#474))
REPRESENTATION_CONTEXT('NOCUT_COMP20230905104516','COMPONENT_PART')
);
#472=UNCERTAINTY_MEASURE_WITH_UNIT(LENGTH_MEASURE(2.E-5),#479,
'DISTANCE_ACCURACY_VALUE','Maximum Tolerance applied to model');
#473=UNCERTAINTY_MEASURE_WITH_UNIT(LENGTH_MEASURE(2.E-5),#479,
'DISTANCE_ACCURACY_VALUE','Maximum Tolerance applied to model');
#474=(
NAMED_UNIT(*)
SI_UNIT($,.STERADIAN.)
SOLID_ANGLE_UNIT()
);
#475=(
CONVERSION_BASED_UNIT('DEGREE',#477)
NAMED_UNIT(#476)
PLANE_ANGLE_UNIT()
);
#476=DIMENSIONAL_EXPONENTS(0.,0.,0.,0.,0.,0.,0.);
#477=PLANE_ANGLE_MEASURE_WITH_UNIT(PLANE_ANGLE_MEASURE(0.0174532925),#478);
#478=(
NAMED_UNIT(*)
PLANE_ANGLE_UNIT()
SI_UNIT($,.RADIAN.)
);
#479=(
LENGTH_UNIT()
NAMED_UNIT(*)
SI_UNIT(.MILLI.,.METRE.)
);
ENDSEC;
END-ISO-10303-21;
