ISO-10303-21;
HEADER;
/* Generated by software containing ST-Developer
 * from STEP Tools, Inc. (www.steptools.com) 
 */
/* OPTION: using custom schema-name function */

FILE_DESCRIPTION(
/* description */ (''),
/* implementation_level */ '2;1');

FILE_NAME(
/* name */ 'TOOL.STP',
/* time_stamp */ '2023-02-10T09:37:45+01:00',
/* author */ (''),
/* organization */ ('SMS'),
/* preprocessor_version */ 'ST-DEVELOPER v16.7',
/* originating_system */ 'SIEMENS PLM Software NX 12.0',
/* authorisation */ '');

FILE_SCHEMA (('AUTOMOTIVE_DESIGN { 1 0 10303 214 3 1 1 1 }'));
ENDSEC;

DATA;
#10=CONSTRUCTIVE_GEOMETRY_REPRESENTATION_RELATIONSHIP(
'supplemental geometry','',#26,#11);
#11=CONSTRUCTIVE_GEOMETRY_REPRESENTATION('supplemental geometry',(#370,
#371,#372),#650);
#12=GEOMETRICALLY_BOUNDED_WIREFRAME_SHAPE_REPRESENTATION('Tool-None',(#27),
#650);
#13=SHAPE_REPRESENTATION_RELATIONSHIP('None',
'relationship between Tool-None and Tool-None',#26,#15);
#14=SHAPE_REPRESENTATION_RELATIONSHIP('None',
'relationship between Tool-None and Tool-None',#26,#12);
#15=ADVANCED_BREP_SHAPE_REPRESENTATION('Tool-None',(#38,#39),#650);
#16=SHAPE_DEFINITION_REPRESENTATION(#17,#26);
#17=PRODUCT_DEFINITION_SHAPE('','',#18);
#18=PRODUCT_DEFINITION(' ','',#20,#19);
#19=PRODUCT_DEFINITION_CONTEXT('part definition',#25,'design');
#20=PRODUCT_DEFINITION_FORMATION_WITH_SPECIFIED_SOURCE(' ',' ',#22,
 .NOT_KNOWN.);
#21=PRODUCT_RELATED_PRODUCT_CATEGORY('part','',(#22));
#22=PRODUCT('Tool','Tool',' ',(#23));
#23=PRODUCT_CONTEXT(' ',#25,'mechanical');
#24=APPLICATION_PROTOCOL_DEFINITION('international standard',
'automotive_design',2010,#25);
#25=APPLICATION_CONTEXT(
'core data for automotive mechanical design processes');
#26=SHAPE_REPRESENTATION('Tool-None',(#369),#650);
#27=GEOMETRIC_CURVE_SET('None',(#517,#518,#519,#333));
#28=SURFACE_STYLE_USAGE(.BOTH.,#30);
#29=SURFACE_STYLE_USAGE(.BOTH.,#31);
#30=SURFACE_SIDE_STYLE('',(#32));
#31=SURFACE_SIDE_STYLE('',(#33));
#32=SURFACE_STYLE_FILL_AREA(#34);
#33=SURFACE_STYLE_FILL_AREA(#35);
#34=FILL_AREA_STYLE('',(#36));
#35=FILL_AREA_STYLE('',(#37));
#36=FILL_AREA_STYLE_COLOUR('',#367);
#37=FILL_AREA_STYLE_COLOUR('',#368);
#38=MANIFOLD_SOLID_BREP('NOCUT',#40);
#39=MANIFOLD_SOLID_BREP('CUT',#41);
#40=CLOSED_SHELL('',(#98,#99,#100,#101,#102,#103,#104,#105,#106,#107,#108,
#109,#110,#111,#112,#113));
#41=CLOSED_SHELL('',(#114,#115,#116,#117,#118,#119));
#42=PLANE('',#392);
#43=PLANE('',#394);
#44=PLANE('',#395);
#45=PLANE('',#396);
#46=PLANE('',#397);
#47=PLANE('',#398);
#48=PLANE('',#399);
#49=PLANE('',#400);
#50=PLANE('',#401);
#51=PLANE('',#402);
#52=PLANE('',#404);
#53=PLANE('',#410);
#54=FACE_OUTER_BOUND('',#156,.T.);
#55=FACE_OUTER_BOUND('',#159,.T.);
#56=FACE_OUTER_BOUND('',#160,.T.);
#57=FACE_OUTER_BOUND('',#161,.T.);
#58=FACE_OUTER_BOUND('',#162,.T.);
#59=FACE_OUTER_BOUND('',#163,.T.);
#60=FACE_OUTER_BOUND('',#164,.T.);
#61=FACE_OUTER_BOUND('',#165,.T.);
#62=FACE_OUTER_BOUND('',#166,.T.);
#63=FACE_OUTER_BOUND('',#167,.T.);
#64=FACE_OUTER_BOUND('',#168,.T.);
#65=FACE_OUTER_BOUND('',#173,.T.);
#66=TOROIDAL_SURFACE('',#391,1.59999999999999,0.2);
#67=CYLINDRICAL_SURFACE('',#384,1.344);
#68=CYLINDRICAL_SURFACE('',#387,1.39999999999999);
#69=CYLINDRICAL_SURFACE('',#408,2.04990657733653);
#70=ELLIPSE('',#380,1.90070302782944,1.344);
#71=ELLIPSE('',#381,1.90070302782944,1.344);
#72=ELLIPSE('',#382,1.90070302782944,1.344);
#73=ELLIPSE('',#383,1.90070302782944,1.344);
#74=LINE('',#586,#86);
#75=LINE('',#590,#87);
#76=LINE('',#591,#88);
#77=LINE('',#595,#89);
#78=LINE('',#596,#90);
#79=LINE('',#600,#91);
#80=LINE('',#601,#92);
#81=LINE('',#605,#93);
#82=LINE('',#620,#94);
#83=LINE('',#623,#95);
#84=LINE('',#626,#96);
#85=LINE('',#629,#97);
#86=VECTOR('',#436,1.);
#87=VECTOR('',#439,1.);
#88=VECTOR('',#440,1.);
#89=VECTOR('',#443,1.);
#90=VECTOR('',#444,1.);
#91=VECTOR('',#447,1.);
#92=VECTOR('',#448,1.);
#93=VECTOR('',#451,1.);
#94=VECTOR('',#472,1.);
#95=VECTOR('',#477,1.);
#96=VECTOR('',#482,1.);
#97=VECTOR('',#487,1.);
#98=ADVANCED_FACE('',(#126,#127),#120,.T.);
#99=ADVANCED_FACE('',(#128,#129),#67,.T.);
#100=ADVANCED_FACE('',(#130,#131),#68,.T.);
#101=ADVANCED_FACE('',(#132,#133),#121,.T.);
#102=ADVANCED_FACE('',(#134,#135),#66,.F.);
#103=ADVANCED_FACE('',(#54),#42,.F.);
#104=ADVANCED_FACE('',(#136,#137),#122,.T.);
#105=ADVANCED_FACE('',(#55),#43,.T.);
#106=ADVANCED_FACE('',(#56),#44,.T.);
#107=ADVANCED_FACE('',(#57),#45,.T.);
#108=ADVANCED_FACE('',(#58),#46,.T.);
#109=ADVANCED_FACE('',(#59),#47,.T.);
#110=ADVANCED_FACE('',(#60),#48,.T.);
#111=ADVANCED_FACE('',(#61),#49,.T.);
#112=ADVANCED_FACE('',(#62),#50,.T.);
#113=ADVANCED_FACE('',(#63),#51,.T.);
#114=ADVANCED_FACE('',(#64),#52,.T.);
#115=ADVANCED_FACE('',(#138,#139),#123,.T.);
#116=ADVANCED_FACE('',(#140,#141),#69,.T.);
#117=ADVANCED_FACE('',(#65),#53,.F.);
#118=ADVANCED_FACE('',(#142,#143),#124,.T.);
#119=ADVANCED_FACE('',(#144,#145),#125,.T.);
#120=CONICAL_SURFACE('',#378,0.643999999999999,45.);
#121=CONICAL_SURFACE('',#390,1.39999999999999,29.9999999999996);
#122=CONICAL_SURFACE('',#393,2.6,45.0000000000001);
#123=CONICAL_SURFACE('',#406,1.50202519197992,8.);
#124=CONICAL_SURFACE('',#412,2.12990657733651,45.);
#125=CONICAL_SURFACE('',#413,0.818070680373635,23.1934221662394);
#126=FACE_BOUND('',#146,.T.);
#127=FACE_BOUND('',#147,.T.);
#128=FACE_BOUND('',#148,.T.);
#129=FACE_BOUND('',#149,.T.);
#130=FACE_BOUND('',#150,.T.);
#131=FACE_BOUND('',#151,.T.);
#132=FACE_BOUND('',#152,.T.);
#133=FACE_BOUND('',#153,.T.);
#134=FACE_BOUND('',#154,.T.);
#135=FACE_BOUND('',#155,.T.);
#136=FACE_BOUND('',#157,.T.);
#137=FACE_BOUND('',#158,.T.);
#138=FACE_BOUND('',#169,.T.);
#139=FACE_BOUND('',#170,.T.);
#140=FACE_BOUND('',#171,.T.);
#141=FACE_BOUND('',#172,.T.);
#142=FACE_BOUND('',#174,.T.);
#143=FACE_BOUND('',#175,.T.);
#144=FACE_BOUND('',#176,.T.);
#145=FACE_BOUND('',#177,.T.);
#146=EDGE_LOOP('',(#178));
#147=EDGE_LOOP('',(#179,#180,#181,#182,#183,#184,#185,#186));
#148=EDGE_LOOP('',(#187));
#149=EDGE_LOOP('',(#188,#189,#190,#191,#192,#193,#194,#195,#196,#197,#198,
#199,#200,#201,#202,#203));
#150=EDGE_LOOP('',(#204));
#151=EDGE_LOOP('',(#205));
#152=EDGE_LOOP('',(#206));
#153=EDGE_LOOP('',(#207));
#154=EDGE_LOOP('',(#208));
#155=EDGE_LOOP('',(#209));
#156=EDGE_LOOP('',(#210));
#157=EDGE_LOOP('',(#211));
#158=EDGE_LOOP('',(#212));
#159=EDGE_LOOP('',(#213,#214));
#160=EDGE_LOOP('',(#215,#216,#217,#218));
#161=EDGE_LOOP('',(#219,#220));
#162=EDGE_LOOP('',(#221,#222,#223,#224));
#163=EDGE_LOOP('',(#225,#226));
#164=EDGE_LOOP('',(#227,#228,#229,#230));
#165=EDGE_LOOP('',(#231,#232,#233,#234));
#166=EDGE_LOOP('',(#235,#236));
#167=EDGE_LOOP('',(#237));
#168=EDGE_LOOP('',(#238));
#169=EDGE_LOOP('',(#239));
#170=EDGE_LOOP('',(#240));
#171=EDGE_LOOP('',(#241));
#172=EDGE_LOOP('',(#242));
#173=EDGE_LOOP('',(#243));
#174=EDGE_LOOP('',(#244));
#175=EDGE_LOOP('',(#245));
#176=EDGE_LOOP('',(#246));
#177=EDGE_LOOP('',(#247));
#178=ORIENTED_EDGE('',*,*,#275,.F.);
#179=ORIENTED_EDGE('',*,*,#276,.T.);
#180=ORIENTED_EDGE('',*,*,#277,.T.);
#181=ORIENTED_EDGE('',*,*,#278,.T.);
#182=ORIENTED_EDGE('',*,*,#279,.T.);
#183=ORIENTED_EDGE('',*,*,#280,.T.);
#184=ORIENTED_EDGE('',*,*,#281,.T.);
#185=ORIENTED_EDGE('',*,*,#282,.T.);
#186=ORIENTED_EDGE('',*,*,#283,.T.);
#187=ORIENTED_EDGE('',*,*,#284,.F.);
#188=ORIENTED_EDGE('',*,*,#285,.F.);
#189=ORIENTED_EDGE('',*,*,#286,.F.);
#190=ORIENTED_EDGE('',*,*,#287,.F.);
#191=ORIENTED_EDGE('',*,*,#276,.F.);
#192=ORIENTED_EDGE('',*,*,#288,.F.);
#193=ORIENTED_EDGE('',*,*,#289,.F.);
#194=ORIENTED_EDGE('',*,*,#290,.F.);
#195=ORIENTED_EDGE('',*,*,#282,.F.);
#196=ORIENTED_EDGE('',*,*,#291,.F.);
#197=ORIENTED_EDGE('',*,*,#292,.F.);
#198=ORIENTED_EDGE('',*,*,#293,.F.);
#199=ORIENTED_EDGE('',*,*,#280,.F.);
#200=ORIENTED_EDGE('',*,*,#294,.F.);
#201=ORIENTED_EDGE('',*,*,#295,.F.);
#202=ORIENTED_EDGE('',*,*,#296,.F.);
#203=ORIENTED_EDGE('',*,*,#278,.F.);
#204=ORIENTED_EDGE('',*,*,#297,.T.);
#205=ORIENTED_EDGE('',*,*,#298,.T.);
#206=ORIENTED_EDGE('',*,*,#299,.T.);
#207=ORIENTED_EDGE('',*,*,#300,.F.);
#208=ORIENTED_EDGE('',*,*,#297,.F.);
#209=ORIENTED_EDGE('',*,*,#299,.F.);
#210=ORIENTED_EDGE('',*,*,#275,.T.);
#211=ORIENTED_EDGE('',*,*,#284,.T.);
#212=ORIENTED_EDGE('',*,*,#298,.F.);
#213=ORIENTED_EDGE('',*,*,#292,.T.);
#214=ORIENTED_EDGE('',*,*,#301,.T.);
#215=ORIENTED_EDGE('',*,*,#291,.T.);
#216=ORIENTED_EDGE('',*,*,#281,.F.);
#217=ORIENTED_EDGE('',*,*,#293,.T.);
#218=ORIENTED_EDGE('',*,*,#301,.F.);
#219=ORIENTED_EDGE('',*,*,#289,.T.);
#220=ORIENTED_EDGE('',*,*,#302,.T.);
#221=ORIENTED_EDGE('',*,*,#288,.T.);
#222=ORIENTED_EDGE('',*,*,#283,.F.);
#223=ORIENTED_EDGE('',*,*,#290,.T.);
#224=ORIENTED_EDGE('',*,*,#302,.F.);
#225=ORIENTED_EDGE('',*,*,#295,.T.);
#226=ORIENTED_EDGE('',*,*,#303,.T.);
#227=ORIENTED_EDGE('',*,*,#294,.T.);
#228=ORIENTED_EDGE('',*,*,#279,.F.);
#229=ORIENTED_EDGE('',*,*,#296,.T.);
#230=ORIENTED_EDGE('',*,*,#303,.F.);
#231=ORIENTED_EDGE('',*,*,#285,.T.);
#232=ORIENTED_EDGE('',*,*,#277,.F.);
#233=ORIENTED_EDGE('',*,*,#287,.T.);
#234=ORIENTED_EDGE('',*,*,#304,.F.);
#235=ORIENTED_EDGE('',*,*,#286,.T.);
#236=ORIENTED_EDGE('',*,*,#304,.T.);
#237=ORIENTED_EDGE('',*,*,#300,.T.);
#238=ORIENTED_EDGE('',*,*,#305,.T.);
#239=ORIENTED_EDGE('',*,*,#305,.F.);
#240=ORIENTED_EDGE('',*,*,#306,.T.);
#241=ORIENTED_EDGE('',*,*,#306,.F.);
#242=ORIENTED_EDGE('',*,*,#307,.T.);
#243=ORIENTED_EDGE('',*,*,#308,.T.);
#244=ORIENTED_EDGE('',*,*,#308,.F.);
#245=ORIENTED_EDGE('',*,*,#309,.F.);
#246=ORIENTED_EDGE('',*,*,#309,.T.);
#247=ORIENTED_EDGE('',*,*,#307,.F.);
#248=VERTEX_POINT('',#546);
#249=VERTEX_POINT('',#548);
#250=VERTEX_POINT('',#549);
#251=VERTEX_POINT('',#556);
#252=VERTEX_POINT('',#558);
#253=VERTEX_POINT('',#565);
#254=VERTEX_POINT('',#567);
#255=VERTEX_POINT('',#574);
#256=VERTEX_POINT('',#576);
#257=VERTEX_POINT('',#585);
#258=VERTEX_POINT('',#587);
#259=VERTEX_POINT('',#589);
#260=VERTEX_POINT('',#592);
#261=VERTEX_POINT('',#594);
#262=VERTEX_POINT('',#597);
#263=VERTEX_POINT('',#599);
#264=VERTEX_POINT('',#602);
#265=VERTEX_POINT('',#604);
#266=VERTEX_POINT('',#608);
#267=VERTEX_POINT('',#610);
#268=VERTEX_POINT('',#613);
#269=VERTEX_POINT('',#615);
#270=VERTEX_POINT('',#634);
#271=VERTEX_POINT('',#637);
#272=VERTEX_POINT('',#640);
#273=VERTEX_POINT('',#643);
#274=VERTEX_POINT('',#646);
#275=EDGE_CURVE('',#248,#248,#310,.T.);
#276=EDGE_CURVE('',#249,#250,#311,.T.);
#277=EDGE_CURVE('',#250,#251,#334,.T.);
#278=EDGE_CURVE('',#251,#252,#312,.T.);
#279=EDGE_CURVE('',#252,#253,#335,.T.);
#280=EDGE_CURVE('',#253,#254,#313,.T.);
#281=EDGE_CURVE('',#254,#255,#336,.T.);
#282=EDGE_CURVE('',#255,#256,#314,.T.);
#283=EDGE_CURVE('',#256,#249,#337,.T.);
#284=EDGE_CURVE('',#257,#257,#315,.T.);
#285=EDGE_CURVE('',#258,#251,#74,.T.);
#286=EDGE_CURVE('',#259,#258,#70,.T.);
#287=EDGE_CURVE('',#250,#259,#75,.T.);
#288=EDGE_CURVE('',#260,#249,#76,.T.);
#289=EDGE_CURVE('',#261,#260,#71,.T.);
#290=EDGE_CURVE('',#256,#261,#77,.T.);
#291=EDGE_CURVE('',#262,#255,#78,.T.);
#292=EDGE_CURVE('',#263,#262,#72,.T.);
#293=EDGE_CURVE('',#254,#263,#79,.T.);
#294=EDGE_CURVE('',#264,#253,#80,.T.);
#295=EDGE_CURVE('',#265,#264,#73,.T.);
#296=EDGE_CURVE('',#252,#265,#81,.T.);
#297=EDGE_CURVE('',#266,#266,#316,.T.);
#298=EDGE_CURVE('',#267,#267,#317,.T.);
#299=EDGE_CURVE('',#268,#268,#318,.T.);
#300=EDGE_CURVE('',#269,#269,#319,.T.);
#301=EDGE_CURVE('',#262,#263,#82,.T.);
#302=EDGE_CURVE('',#260,#261,#83,.T.);
#303=EDGE_CURVE('',#264,#265,#84,.T.);
#304=EDGE_CURVE('',#258,#259,#85,.T.);
#305=EDGE_CURVE('',#270,#270,#320,.T.);
#306=EDGE_CURVE('',#271,#271,#321,.T.);
#307=EDGE_CURVE('',#272,#272,#322,.T.);
#308=EDGE_CURVE('',#273,#273,#323,.T.);
#309=EDGE_CURVE('',#274,#274,#324,.T.);
#310=CIRCLE('',#373,0.643999999999999);
#311=CIRCLE('',#374,1.344);
#312=CIRCLE('',#375,1.344);
#313=CIRCLE('',#376,1.344);
#314=CIRCLE('',#377,1.344);
#315=CIRCLE('',#379,1.344);
#316=CIRCLE('',#385,1.39999999999999);
#317=CIRCLE('',#386,1.4);
#318=CIRCLE('',#388,1.42679491924311);
#319=CIRCLE('',#389,1.50202519197992);
#320=CIRCLE('',#403,1.50202519197992);
#321=CIRCLE('',#405,2.04990657733653);
#322=CIRCLE('',#407,2.04990657733653);
#323=CIRCLE('',#409,1.35499999999998);
#324=CIRCLE('',#411,1.83992807798743);
#325=CURVE_STYLE('',#329,POSITIVE_LENGTH_MEASURE(0.18),#339);
#326=CURVE_STYLE('',#330,POSITIVE_LENGTH_MEASURE(0.13),#366);
#327=CURVE_STYLE('',#331,POSITIVE_LENGTH_MEASURE(0.18),#365);
#328=CURVE_STYLE('',#332,POSITIVE_LENGTH_MEASURE(0.18),#365);
#329=DRAUGHTING_PRE_DEFINED_CURVE_FONT('continuous');
#330=DRAUGHTING_PRE_DEFINED_CURVE_FONT('continuous');
#331=DRAUGHTING_PRE_DEFINED_CURVE_FONT('continuous');
#332=DRAUGHTING_PRE_DEFINED_CURVE_FONT('continuous');
#333=B_SPLINE_CURVE_WITH_KNOTS('CUTTING PART LINE',3,(#520,#521,#522,#523,
#524,#525,#526,#527,#528,#529,#530,#531,#532,#533,#534,#535,#536,#537,#538,
#539,#540,#541),.UNSPECIFIED.,.T.,.F.,(4,3,3,3,3,3,3,4),(0.,0.143993869633488,
0.198934037036761,0.641520505731866,0.691082874743649,0.716167354050728,
0.735669021752161,1.),.UNSPECIFIED.);
#334=B_SPLINE_CURVE_WITH_KNOTS('',3,(#550,#551,#552,#553,#554,#555),
 .UNSPECIFIED.,.F.,.F.,(4,2,4),(0.,0.5,1.),.UNSPECIFIED.);
#335=B_SPLINE_CURVE_WITH_KNOTS('',3,(#559,#560,#561,#562,#563,#564),
 .UNSPECIFIED.,.F.,.F.,(4,2,4),(0.,0.5,1.),.UNSPECIFIED.);
#336=B_SPLINE_CURVE_WITH_KNOTS('',3,(#568,#569,#570,#571,#572,#573),
 .UNSPECIFIED.,.F.,.F.,(4,2,4),(0.,0.5,1.),.UNSPECIFIED.);
#337=B_SPLINE_CURVE_WITH_KNOTS('',3,(#577,#578,#579,#580,#581,#582),
 .UNSPECIFIED.,.F.,.F.,(4,2,4),(0.,0.5,1.),.UNSPECIFIED.);
#338=DRAUGHTING_PRE_DEFINED_COLOUR('white');
#339=DRAUGHTING_PRE_DEFINED_COLOUR('blue');
#340=PRESENTATION_LAYER_ASSIGNMENT('1','Layer 1',(#517,#518,#519,#333,#370,
#371,#372,#38,#39));
#341=STYLED_ITEM('',(#350),#517);
#342=STYLED_ITEM('',(#351),#518);
#343=STYLED_ITEM('',(#352),#519);
#344=STYLED_ITEM('',(#353),#333);
#345=STYLED_ITEM('',(#354),#370);
#346=STYLED_ITEM('',(#355),#371);
#347=STYLED_ITEM('',(#356),#372);
#348=STYLED_ITEM('',(#357),#38);
#349=STYLED_ITEM('',(#358),#39);
#350=PRESENTATION_STYLE_ASSIGNMENT((#359));
#351=PRESENTATION_STYLE_ASSIGNMENT((#360));
#352=PRESENTATION_STYLE_ASSIGNMENT((#361));
#353=PRESENTATION_STYLE_ASSIGNMENT((#325));
#354=PRESENTATION_STYLE_ASSIGNMENT((#326));
#355=PRESENTATION_STYLE_ASSIGNMENT((#327));
#356=PRESENTATION_STYLE_ASSIGNMENT((#328));
#357=PRESENTATION_STYLE_ASSIGNMENT((#28));
#358=PRESENTATION_STYLE_ASSIGNMENT((#29));
#359=POINT_STYLE('',#362,POSITIVE_LENGTH_MEASURE(3.),#365);
#360=POINT_STYLE('',#363,POSITIVE_LENGTH_MEASURE(3.),#338);
#361=POINT_STYLE('',#364,POSITIVE_LENGTH_MEASURE(3.),#365);
#362=PRE_DEFINED_POINT_MARKER_SYMBOL('plus');
#363=PRE_DEFINED_POINT_MARKER_SYMBOL('plus');
#364=PRE_DEFINED_POINT_MARKER_SYMBOL('plus');
#365=COLOUR_RGB('Medium Maroon',0.6,0.4,0.4);
#366=COLOUR_RGB('Silver Gray',0.6,0.6,0.6);
#367=COLOUR_RGB('TLS_NOCUT',0.498023956664378,0.498023956664378,0.498023956664378);
#368=COLOUR_RGB('TLS_CUT',0.8,0.8,0.8);
#369=AXIS2_PLACEMENT_3D('',#516,#414,#415);
#370=AXIS2_PLACEMENT_3D('PCS',#542,#416,#417);
#371=AXIS2_PLACEMENT_3D('MCS',#543,#418,#419);
#372=AXIS2_PLACEMENT_3D('CIP',#544,#420,#421);
#373=AXIS2_PLACEMENT_3D('',#545,#422,#423);
#374=AXIS2_PLACEMENT_3D('',#547,#424,#425);
#375=AXIS2_PLACEMENT_3D('',#557,#426,#427);
#376=AXIS2_PLACEMENT_3D('',#566,#428,#429);
#377=AXIS2_PLACEMENT_3D('',#575,#430,#431);
#378=AXIS2_PLACEMENT_3D('',#583,#432,#433);
#379=AXIS2_PLACEMENT_3D('',#584,#434,#435);
#380=AXIS2_PLACEMENT_3D('',#588,#437,#438);
#381=AXIS2_PLACEMENT_3D('',#593,#441,#442);
#382=AXIS2_PLACEMENT_3D('',#598,#445,#446);
#383=AXIS2_PLACEMENT_3D('',#603,#449,#450);
#384=AXIS2_PLACEMENT_3D('',#606,#452,#453);
#385=AXIS2_PLACEMENT_3D('',#607,#454,#455);
#386=AXIS2_PLACEMENT_3D('',#609,#456,#457);
#387=AXIS2_PLACEMENT_3D('',#611,#458,#459);
#388=AXIS2_PLACEMENT_3D('',#612,#460,#461);
#389=AXIS2_PLACEMENT_3D('',#614,#462,#463);
#390=AXIS2_PLACEMENT_3D('',#616,#464,#465);
#391=AXIS2_PLACEMENT_3D('',#617,#466,#467);
#392=AXIS2_PLACEMENT_3D('',#618,#468,#469);
#393=AXIS2_PLACEMENT_3D('',#619,#470,#471);
#394=AXIS2_PLACEMENT_3D('',#621,#473,#474);
#395=AXIS2_PLACEMENT_3D('',#622,#475,#476);
#396=AXIS2_PLACEMENT_3D('',#624,#478,#479);
#397=AXIS2_PLACEMENT_3D('',#625,#480,#481);
#398=AXIS2_PLACEMENT_3D('',#627,#483,#484);
#399=AXIS2_PLACEMENT_3D('',#628,#485,#486);
#400=AXIS2_PLACEMENT_3D('',#630,#488,#489);
#401=AXIS2_PLACEMENT_3D('',#631,#490,#491);
#402=AXIS2_PLACEMENT_3D('',#632,#492,#493);
#403=AXIS2_PLACEMENT_3D('',#633,#494,#495);
#404=AXIS2_PLACEMENT_3D('',#635,#496,#497);
#405=AXIS2_PLACEMENT_3D('',#636,#498,#499);
#406=AXIS2_PLACEMENT_3D('',#638,#500,#501);
#407=AXIS2_PLACEMENT_3D('',#639,#502,#503);
#408=AXIS2_PLACEMENT_3D('',#641,#504,#505);
#409=AXIS2_PLACEMENT_3D('',#642,#506,#507);
#410=AXIS2_PLACEMENT_3D('',#644,#508,#509);
#411=AXIS2_PLACEMENT_3D('',#645,#510,#511);
#412=AXIS2_PLACEMENT_3D('',#647,#512,#513);
#413=AXIS2_PLACEMENT_3D('',#648,#514,#515);
#414=DIRECTION('',(0.,0.,1.));
#415=DIRECTION('',(1.,0.,0.));
#416=DIRECTION('',(0.,0.,1.));
#417=DIRECTION('',(1.,0.,0.));
#418=DIRECTION('',(0.,0.,1.));
#419=DIRECTION('',(1.,0.,0.));
#420=DIRECTION('',(0.,0.,1.));
#421=DIRECTION('',(1.,0.,0.));
#422=DIRECTION('',(0.,0.,1.));
#423=DIRECTION('',(1.,0.,0.));
#424=DIRECTION('',(0.,0.,1.));
#425=DIRECTION('',(-1.,0.,0.));
#426=DIRECTION('',(0.,0.,1.));
#427=DIRECTION('',(-1.,0.,0.));
#428=DIRECTION('',(0.,0.,1.));
#429=DIRECTION('',(-1.,0.,0.));
#430=DIRECTION('',(0.,0.,1.));
#431=DIRECTION('',(-1.,0.,0.));
#432=DIRECTION('',(0.,0.,-1.));
#433=DIRECTION('',(-1.,0.,0.));
#434=DIRECTION('',(0.,0.,-1.));
#435=DIRECTION('',(1.,0.,0.));
#436=DIRECTION('',(0.,0.,1.));
#437=DIRECTION('',(0.707106781186547,0.,0.707106781186548));
#438=DIRECTION('',(-0.707106781186548,0.,0.707106781186547));
#439=DIRECTION('',(0.,0.,-1.));
#440=DIRECTION('',(0.,0.,1.));
#441=DIRECTION('',(-2.64204134232936E-15,-0.707106781186547,0.707106781186548));
#442=DIRECTION('',(2.64204134232937E-15,0.707106781186548,0.707106781186547));
#443=DIRECTION('',(0.,0.,-1.));
#444=DIRECTION('',(0.,0.,1.));
#445=DIRECTION('',(-0.707106781186547,1.65668806430732E-15,0.707106781186548));
#446=DIRECTION('',(0.707106781186548,-1.65668806430732E-15,0.707106781186547));
#447=DIRECTION('',(0.,0.,-1.));
#448=DIRECTION('',(0.,0.,1.));
#449=DIRECTION('',(8.28344032153662E-16,0.707106781186547,0.707106781186548));
#450=DIRECTION('',(-8.28344032153662E-16,-0.707106781186548,0.707106781186547));
#451=DIRECTION('',(0.,0.,-1.));
#452=DIRECTION('',(0.,0.,1.));
#453=DIRECTION('',(1.,0.,0.));
#454=DIRECTION('',(-8.64953328958859E-16,0.,1.));
#455=DIRECTION('',(-1.,0.,0.));
#456=DIRECTION('',(0.,0.,-1.));
#457=DIRECTION('',(-1.,0.,0.));
#458=DIRECTION('',(8.64953328958859E-16,0.,-1.));
#459=DIRECTION('',(-1.,0.,0.));
#460=DIRECTION('',(8.64953328958859E-16,0.,-1.));
#461=DIRECTION('',(-1.,0.,0.));
#462=DIRECTION('',(0.,0.,-1.));
#463=DIRECTION('',(-1.,0.,0.));
#464=DIRECTION('',(8.64953328958859E-16,0.,-1.));
#465=DIRECTION('',(-1.,0.,-7.07377192072452E-16));
#466=DIRECTION('',(8.64953328958859E-16,0.,-1.));
#467=DIRECTION('',(-1.,0.,0.));
#468=DIRECTION('',(9.52470168031811E-16,0.,-1.));
#469=DIRECTION('',(-1.,0.,-9.52470168031811E-16));
#470=DIRECTION('',(0.,0.,-1.));
#471=DIRECTION('',(-1.,0.,1.38417991300762E-17));
#472=DIRECTION('',(2.34291072916505E-15,1.,0.));
#473=DIRECTION('',(-0.707106781186547,1.65668806430732E-15,0.707106781186548));
#474=DIRECTION('',(-0.707106781186548,1.65666091955785E-15,-0.707106781186547));
#475=DIRECTION('',(-1.,2.34291072916505E-15,0.));
#476=DIRECTION('',(0.,0.,-1.));
#477=DIRECTION('',(-1.,3.7364106986726E-15,0.));
#478=DIRECTION('',(-2.64204134232936E-15,-0.707106781186547,0.707106781186548));
#479=DIRECTION('',(-2.64198385391268E-15,-0.707106781186548,-0.707106781186547));
#480=DIRECTION('',(-3.7364106986726E-15,-1.,0.));
#481=DIRECTION('',(0.,0.,-1.));
#482=DIRECTION('',(1.,-1.17145536458252E-15,0.));
#483=DIRECTION('',(8.28344032153662E-16,0.707106781186547,0.707106781186548));
#484=DIRECTION('',(8.28330459778925E-16,0.707106781186548,-0.707106781186547));
#485=DIRECTION('',(1.17145536458252E-15,1.,0.));
#486=DIRECTION('',(0.,0.,-1.));
#487=DIRECTION('',(0.,-1.,0.));
#488=DIRECTION('',(1.,0.,0.));
#489=DIRECTION('',(0.,0.,-1.));
#490=DIRECTION('',(0.707106781186547,0.,0.707106781186548));
#491=DIRECTION('',(0.707106781186548,0.,-0.707106781186547));
#492=DIRECTION('',(0.,0.,-1.));
#493=DIRECTION('',(-1.,0.,0.));
#494=DIRECTION('',(0.,0.,1.));
#495=DIRECTION('',(1.,0.,0.));
#496=DIRECTION('',(0.,0.,1.));
#497=DIRECTION('',(1.,0.,0.));
#498=DIRECTION('',(0.,0.,1.));
#499=DIRECTION('',(-1.,0.,0.));
#500=DIRECTION('',(0.,0.,-1.));
#501=DIRECTION('',(-1.,0.,5.3735775948006E-16));
#502=DIRECTION('',(0.,0.,1.));
#503=DIRECTION('',(1.,0.,0.));
#504=DIRECTION('',(0.,0.,1.));
#505=DIRECTION('',(1.,0.,0.));
#506=DIRECTION('',(8.77400487833488E-17,0.,-1.));
#507=DIRECTION('',(1.,0.,0.));
#508=DIRECTION('',(-8.77400487833488E-17,0.,1.));
#509=DIRECTION('',(1.,0.,8.32667268468867E-17));
#510=DIRECTION('',(0.,0.,1.));
#511=DIRECTION('',(-1.,0.,0.));
#512=DIRECTION('',(-2.86689881162502E-16,0.,1.));
#513=DIRECTION('',(1.,0.,3.46207305977238E-16));
#514=DIRECTION('',(0.,0.,1.));
#515=DIRECTION('',(1.,0.,1.29311400827691E-16));
#516=CARTESIAN_POINT('',(0.,0.,0.));
#517=CARTESIAN_POINT('',(0.,0.,-20.));
#518=CARTESIAN_POINT('CRP',(-2.04990657733653,0.,-63.));
#519=CARTESIAN_POINT('CIP_DCSYS',(0.,0.,-63.));
#520=CARTESIAN_POINT('',(-2.04990657733653,0.,-54.8983786208243));
#521=CARTESIAN_POINT('',(-1.86727944888433,0.,-53.5989190805496));
#522=CARTESIAN_POINT('',(-1.68465232043213,0.,-52.2994595402748));
#523=CARTESIAN_POINT('',(-1.50202519197992,0.,-51.));
#524=CARTESIAN_POINT('',(-1.00135012798662,0.,-51.));
#525=CARTESIAN_POINT('',(-0.500675063993308,0.,-51.));
#526=CARTESIAN_POINT('',(0.,0.,-51.));
#527=CARTESIAN_POINT('',(0.,0.,-55.0333333333333));
#528=CARTESIAN_POINT('',(0.,0.,-59.0666666666667));
#529=CARTESIAN_POINT('',(0.,0.,-63.1));
#530=CARTESIAN_POINT('',(-0.451666666666654,0.,-63.1));
#531=CARTESIAN_POINT('',(-0.903333333333308,0.,-63.1));
#532=CARTESIAN_POINT('',(-1.35499999999996,0.,-63.1));
#533=CARTESIAN_POINT('',(-1.51664269266244,0.,-62.9383573073375));
#534=CARTESIAN_POINT('',(-1.67828538532493,0.,-62.776714614675));
#535=CARTESIAN_POINT('',(-1.83992807798742,0.,-62.6150719220126));
#536=CARTESIAN_POINT('',(-1.90992091110379,0.,-62.451714614675));
#537=CARTESIAN_POINT('',(-1.97991374422016,0.,-62.2883573073375));
#538=CARTESIAN_POINT('',(-2.04990657733653,0.,-62.125));
#539=CARTESIAN_POINT('',(-2.04990657733653,0.,-59.7161262069415));
#540=CARTESIAN_POINT('',(-2.04990657733653,0.,-57.3072524138829));
#541=CARTESIAN_POINT('',(-2.04990657733653,0.,-54.8983786208243));
#542=CARTESIAN_POINT('',(0.,0.,0.));
#543=CARTESIAN_POINT('',(0.,0.,-20.));
#544=CARTESIAN_POINT('',(0.,0.,-63.));
#545=CARTESIAN_POINT('',(0.,0.,0.));
#546=CARTESIAN_POINT('',(0.643999999999999,0.,0.));
#547=CARTESIAN_POINT('',(0.,0.,-0.699999999999999));
#548=CARTESIAN_POINT('',(0.838949342928842,-1.05,-0.700000000000059));
#549=CARTESIAN_POINT('',(1.05,-0.838949342928402,-0.699999999999999));
#550=CARTESIAN_POINT('',(1.05,-0.838949342928402,-0.699999999999999));
#551=CARTESIAN_POINT('',(1.05,-0.584299333252684,-0.541042813769229));
#552=CARTESIAN_POINT('',(1.05,-0.299191960703363,-0.405901424268301));
#553=CARTESIAN_POINT('',(1.05,0.299883454907452,-0.406098689580324));
#554=CARTESIAN_POINT('',(1.05,0.586632995678942,-0.54249952847096));
#555=CARTESIAN_POINT('',(1.05,0.838949342928402,-0.699999999999999));
#556=CARTESIAN_POINT('',(1.05,0.838949342928402,-0.699999999999999));
#557=CARTESIAN_POINT('',(0.,0.,-0.699999999999999));
#558=CARTESIAN_POINT('',(0.838949342928403,1.05,-0.699999999999999));
#559=CARTESIAN_POINT('',(0.838949342928403,1.05,-0.699999999999999));
#560=CARTESIAN_POINT('',(0.584299333252685,1.05,-0.541042813769229));
#561=CARTESIAN_POINT('',(0.299191960703364,1.05,-0.405901424268301));
#562=CARTESIAN_POINT('',(-0.299883454907451,1.05,-0.406098689580324));
#563=CARTESIAN_POINT('',(-0.586632995678942,1.05,-0.54249952847096));
#564=CARTESIAN_POINT('',(-0.838949342928402,1.05,-0.699999999999999));
#565=CARTESIAN_POINT('',(-0.838949342928401,1.05,-0.699999999999999));
#566=CARTESIAN_POINT('',(0.,0.,-0.699999999999999));
#567=CARTESIAN_POINT('',(-1.05,0.838949342928404,-0.699999999999999));
#568=CARTESIAN_POINT('',(-1.05,0.838949342928405,-0.699999999999999));
#569=CARTESIAN_POINT('',(-1.05,0.58663299567889,-0.542499528470925));
#570=CARTESIAN_POINT('',(-1.05,0.299883454907322,-0.406098689580268));
#571=CARTESIAN_POINT('',(-1.05,-0.299191960703618,-0.405901424268357));
#572=CARTESIAN_POINT('',(-1.05,-0.584299333252977,-0.541042813769376));
#573=CARTESIAN_POINT('',(-1.05,-0.838949342928731,-0.700000000000206));
#574=CARTESIAN_POINT('',(-1.05,-0.838949342928843,-0.700000000000059));
#575=CARTESIAN_POINT('',(0.,0.,-0.699999999999999));
#576=CARTESIAN_POINT('',(-0.838949342928406,-1.05,-0.699999999999999));
#577=CARTESIAN_POINT('',(-0.838949342928406,-1.05,-0.699999999999999));
#578=CARTESIAN_POINT('',(-0.586632995678892,-1.05,-0.542499528470925));
#579=CARTESIAN_POINT('',(-0.299883454907323,-1.05,-0.406098689580268));
#580=CARTESIAN_POINT('',(0.299191960703617,-1.05,-0.405901424268357));
#581=CARTESIAN_POINT('',(0.584299333252976,-1.05,-0.541042813769376));
#582=CARTESIAN_POINT('',(0.83894934292873,-1.05,-0.700000000000206));
#583=CARTESIAN_POINT('',(0.,0.,0.));
#584=CARTESIAN_POINT('',(0.,0.,-5.5));
#585=CARTESIAN_POINT('',(1.344,0.,-5.5));
#586=CARTESIAN_POINT('',(1.05,0.838949342928402,20.9080749503476));
#587=CARTESIAN_POINT('',(1.05,0.838949342928403,-5.));
#588=CARTESIAN_POINT('',(0.,0.,-3.95));
#589=CARTESIAN_POINT('',(1.05,-0.838949342928403,-5.));
#590=CARTESIAN_POINT('',(1.05,-0.838949342928402,20.9080749503476));
#591=CARTESIAN_POINT('',(0.838949342928398,-1.05,20.9080749503476));
#592=CARTESIAN_POINT('',(0.8389493429284,-1.05,-5.));
#593=CARTESIAN_POINT('',(0.,0.,-3.95));
#594=CARTESIAN_POINT('',(-0.838949342928407,-1.05,-5.));
#595=CARTESIAN_POINT('',(-0.838949342928406,-1.05,20.9080749503476));
#596=CARTESIAN_POINT('',(-1.05,-0.838949342928399,20.9080749503476));
#597=CARTESIAN_POINT('',(-1.05,-0.838949342928401,-5.));
#598=CARTESIAN_POINT('',(0.,0.,-3.95));
#599=CARTESIAN_POINT('',(-1.05,0.838949342928406,-5.));
#600=CARTESIAN_POINT('',(-1.05,0.838949342928404,20.9080749503476));
#601=CARTESIAN_POINT('',(-0.838949342928401,1.05,20.9080749503476));
#602=CARTESIAN_POINT('',(-0.838949342928402,1.05,-5.));
#603=CARTESIAN_POINT('',(0.,0.,-3.95));
#604=CARTESIAN_POINT('',(0.838949342928405,1.05,-5.));
#605=CARTESIAN_POINT('',(0.838949342928403,1.05,20.9080749503476));
#606=CARTESIAN_POINT('',(0.,0.,20.9080749503476));
#607=CARTESIAN_POINT('',(5.1298694703954E-15,0.,-50.7696973453526));
#608=CARTESIAN_POINT('',(-1.39999999999999,0.,-50.7696973453526));
#609=CARTESIAN_POINT('',(0.,0.,-5.556));
#610=CARTESIAN_POINT('',(-1.4,0.,-5.556));
#611=CARTESIAN_POINT('',(5.10702591327572E-15,0.,-50.7432871838388));
#612=CARTESIAN_POINT('',(5.21636480329129E-15,0.,-50.8696973453526));
#613=CARTESIAN_POINT('',(-1.42679491924311,0.,-50.8696973453526));
#614=CARTESIAN_POINT('',(4.27329094254613E-15,0.,-51.));
#615=CARTESIAN_POINT('',(-1.50202519197992,0.,-51.));
#616=CARTESIAN_POINT('',(5.17622217959243E-15,0.,-50.8232871838388));
#617=CARTESIAN_POINT('',(5.12986947039541E-15,0.,-50.7696973453526));
#618=CARTESIAN_POINT('',(1.6,0.,7.61976134425451E-16));
#619=CARTESIAN_POINT('',(0.,0.,-6.756));
#620=CARTESIAN_POINT('',(-1.04999999999999,3.15,-5.));
#621=CARTESIAN_POINT('',(-1.04999999999999,3.15,-5.));
#622=CARTESIAN_POINT('',(-1.04999999999999,3.15,10.));
#623=CARTESIAN_POINT('',(-3.15,-1.04999999999999,-5.));
#624=CARTESIAN_POINT('',(-3.15,-1.04999999999999,-5.));
#625=CARTESIAN_POINT('',(-3.15,-1.04999999999999,10.));
#626=CARTESIAN_POINT('',(3.15,1.05,-5.));
#627=CARTESIAN_POINT('',(3.15,1.05,-5.));
#628=CARTESIAN_POINT('',(3.15,1.05,10.));
#629=CARTESIAN_POINT('',(1.05,-3.15,-5.));
#630=CARTESIAN_POINT('',(1.05,-3.15,10.));
#631=CARTESIAN_POINT('',(1.05,-3.15,-5.));
#632=CARTESIAN_POINT('',(0.,0.,-51.));
#633=CARTESIAN_POINT('',(0.,0.,-51.));
#634=CARTESIAN_POINT('',(1.50202519197992,0.,-51.));
#635=CARTESIAN_POINT('',(0.,0.,-51.));
#636=CARTESIAN_POINT('',(0.,0.,-54.8983786208243));
#637=CARTESIAN_POINT('',(-2.04990657733653,0.,-54.8983786208243));
#638=CARTESIAN_POINT('',(0.,0.,-51.));
#639=CARTESIAN_POINT('',(0.,0.,-62.125));
#640=CARTESIAN_POINT('',(2.04990657733653,0.,-62.125));
#641=CARTESIAN_POINT('',(0.,0.,20.9080749503476));
#642=CARTESIAN_POINT('',(1.83910574339538E-14,0.,-63.1));
#643=CARTESIAN_POINT('',(1.355,0.,-63.1));
#644=CARTESIAN_POINT('',(10.5,0.,-63.1));
#645=CARTESIAN_POINT('',(1.82907915053706E-14,0.,-62.6150719220126));
#646=CARTESIAN_POINT('',(-1.83992807798741,0.,-62.6150719220126));
#647=CARTESIAN_POINT('',(1.82076576038526E-14,0.,-62.3250934226635));
#648=CARTESIAN_POINT('',(0.,0.,-65.));
#649=MECHANICAL_DESIGN_GEOMETRIC_PRESENTATION_REPRESENTATION('',(#341,#342,
#343,#344,#345,#346,#347,#348,#349),#650);
#650=(
GEOMETRIC_REPRESENTATION_CONTEXT(3)
GLOBAL_UNCERTAINTY_ASSIGNED_CONTEXT((#651))
GLOBAL_UNIT_ASSIGNED_CONTEXT((#657,#653,#652))
REPRESENTATION_CONTEXT('TOOL','TOP_LEVEL_ASSEMBLY_PART')
);
#651=UNCERTAINTY_MEASURE_WITH_UNIT(LENGTH_MEASURE(0.0508),#657,
'DISTANCE_ACCURACY_VALUE','Maximum Tolerance applied to model');
#652=(
NAMED_UNIT(*)
SI_UNIT($,.STERADIAN.)
SOLID_ANGLE_UNIT()
);
#653=(
CONVERSION_BASED_UNIT('DEGREE',#655)
NAMED_UNIT(#654)
PLANE_ANGLE_UNIT()
);
#654=DIMENSIONAL_EXPONENTS(0.,0.,0.,0.,0.,0.,0.);
#655=PLANE_ANGLE_MEASURE_WITH_UNIT(PLANE_ANGLE_MEASURE(0.0174532925),#656);
#656=(
NAMED_UNIT(*)
PLANE_ANGLE_UNIT()
SI_UNIT($,.RADIAN.)
);
#657=(
LENGTH_UNIT()
NAMED_UNIT(*)
SI_UNIT(.MILLI.,.METRE.)
);
ENDSEC;
END-ISO-10303-21;
