ISO-10303-21;
HEADER;
/* Generated by software containing ST-Developer
 * from STEP Tools, Inc. (www.steptools.com) 
 */
/* OPTION: using custom schema-name function */

FILE_DESCRIPTION(
/* description */ (''),
/* implementation_level */ '2;1');

FILE_NAME(
/* name */ 'tool.stp',
/* time_stamp */ '2022-05-06T16:24:09+02:00',
/* author */ (''),
/* organization */ ('SMS'),
/* preprocessor_version */ 'ST-DEVELOPER v16.7',
/* originating_system */ 'SIEMENS PLM Software NX 12.0',
/* authorisation */ '');

FILE_SCHEMA (('AUTOMOTIVE_DESIGN { 1 0 10303 214 3 1 1 1 }'));
ENDSEC;

DATA;
#10=CONSTRUCTIVE_GEOMETRY_REPRESENTATION_RELATIONSHIP(
'supplemental geometry','',#26,#11);
#11=CONSTRUCTIVE_GEOMETRY_REPRESENTATION('supplemental geometry',(#348,
#349,#350),#607);
#12=GEOMETRICALLY_BOUNDED_WIREFRAME_SHAPE_REPRESENTATION('Tool-None',(#27),
#607);
#13=SHAPE_REPRESENTATION_RELATIONSHIP('None',
'relationship between Tool-None and Tool-None',#26,#15);
#14=SHAPE_REPRESENTATION_RELATIONSHIP('None',
'relationship between Tool-None and Tool-None',#26,#12);
#15=ADVANCED_BREP_SHAPE_REPRESENTATION('Tool-None',(#38,#39),#607);
#16=SHAPE_DEFINITION_REPRESENTATION(#17,#26);
#17=PRODUCT_DEFINITION_SHAPE('','',#18);
#18=PRODUCT_DEFINITION(' ','',#20,#19);
#19=PRODUCT_DEFINITION_CONTEXT('part definition',#25,'design');
#20=PRODUCT_DEFINITION_FORMATION_WITH_SPECIFIED_SOURCE(' ',' ',#22,
 .NOT_KNOWN.);
#21=PRODUCT_RELATED_PRODUCT_CATEGORY('part','',(#22));
#22=PRODUCT('Tool','Tool',' ',(#23));
#23=PRODUCT_CONTEXT(' ',#25,'mechanical');
#24=APPLICATION_PROTOCOL_DEFINITION('international standard',
'automotive_design',2010,#25);
#25=APPLICATION_CONTEXT(
'core data for automotive mechanical design processes');
#26=SHAPE_REPRESENTATION('Tool-None',(#347),#607);
#27=GEOMETRIC_CURVE_SET('None',(#483,#484,#485,#311));
#28=SURFACE_STYLE_USAGE(.BOTH.,#30);
#29=SURFACE_STYLE_USAGE(.BOTH.,#31);
#30=SURFACE_SIDE_STYLE('',(#32));
#31=SURFACE_SIDE_STYLE('',(#33));
#32=SURFACE_STYLE_FILL_AREA(#34);
#33=SURFACE_STYLE_FILL_AREA(#35);
#34=FILL_AREA_STYLE('',(#36));
#35=FILL_AREA_STYLE('',(#37));
#36=FILL_AREA_STYLE_COLOUR('',#345);
#37=FILL_AREA_STYLE_COLOUR('',#346);
#38=MANIFOLD_SOLID_BREP('NOCUT',#40);
#39=MANIFOLD_SOLID_BREP('CUT',#41);
#40=CLOSED_SHELL('',(#99,#100,#101,#102,#103,#104,#105,#106,#107,#108,#109,
#110,#111,#112,#113));
#41=CLOSED_SHELL('',(#114,#115,#116,#117,#118));
#42=CONICAL_SURFACE('',#371,1.776,45.);
#43=CONICAL_SURFACE('',#377,4.3,45.);
#44=CONICAL_SURFACE('',#384,2.95147650344913,13.7263903816168);
#45=CONICAL_SURFACE('',#386,4.25526041406748,45.);
#46=LINE('',#522,#58);
#47=LINE('',#524,#59);
#48=LINE('',#533,#60);
#49=LINE('',#538,#61);
#50=LINE('',#540,#62);
#51=LINE('',#549,#63);
#52=LINE('',#554,#64);
#53=LINE('',#556,#65);
#54=LINE('',#565,#66);
#55=LINE('',#583,#67);
#56=LINE('',#585,#68);
#57=LINE('',#586,#69);
#58=VECTOR('',#412,1.);
#59=VECTOR('',#415,1.);
#60=VECTOR('',#416,1.);
#61=VECTOR('',#421,1.);
#62=VECTOR('',#424,1.);
#63=VECTOR('',#425,1.);
#64=VECTOR('',#430,1.);
#65=VECTOR('',#433,1.);
#66=VECTOR('',#434,1.);
#67=VECTOR('',#449,1.);
#68=VECTOR('',#452,1.);
#69=VECTOR('',#453,1.);
#70=ELLIPSE('',#358,4.20869956162233,2.976);
#71=ELLIPSE('',#361,4.20869956162233,2.976);
#72=ELLIPSE('',#364,4.20869956162233,2.976);
#73=ELLIPSE('',#372,4.20869956162233,2.976);
#74=PLANE('',#357);
#75=PLANE('',#359);
#76=PLANE('',#360);
#77=PLANE('',#362);
#78=PLANE('',#363);
#79=PLANE('',#365);
#80=PLANE('',#366);
#81=PLANE('',#373);
#82=PLANE('',#374);
#83=PLANE('',#378);
#84=PLANE('',#382);
#85=PLANE('',#387);
#86=FACE_OUTER_BOUND('',#142,.T.);
#87=FACE_OUTER_BOUND('',#143,.T.);
#88=FACE_OUTER_BOUND('',#144,.T.);
#89=FACE_OUTER_BOUND('',#145,.T.);
#90=FACE_OUTER_BOUND('',#146,.T.);
#91=FACE_OUTER_BOUND('',#147,.T.);
#92=FACE_OUTER_BOUND('',#148,.T.);
#93=FACE_OUTER_BOUND('',#151,.T.);
#94=FACE_OUTER_BOUND('',#152,.T.);
#95=FACE_OUTER_BOUND('',#157,.T.);
#96=FACE_OUTER_BOUND('',#160,.T.);
#97=FACE_OUTER_BOUND('',#165,.T.);
#98=TOROIDAL_SURFACE('',#355,4.2,1.1);
#99=ADVANCED_FACE('',(#122,#123),#119,.T.);
#100=ADVANCED_FACE('',(#124,#125),#98,.F.);
#101=ADVANCED_FACE('',(#86),#74,.F.);
#102=ADVANCED_FACE('',(#87),#75,.T.);
#103=ADVANCED_FACE('',(#88),#76,.T.);
#104=ADVANCED_FACE('',(#89),#77,.T.);
#105=ADVANCED_FACE('',(#90),#78,.T.);
#106=ADVANCED_FACE('',(#91),#79,.T.);
#107=ADVANCED_FACE('',(#92),#80,.T.);
#108=ADVANCED_FACE('',(#126,#127),#42,.T.);
#109=ADVANCED_FACE('',(#93),#81,.T.);
#110=ADVANCED_FACE('',(#94),#82,.T.);
#111=ADVANCED_FACE('',(#128,#129),#120,.T.);
#112=ADVANCED_FACE('',(#130,#131),#43,.T.);
#113=ADVANCED_FACE('',(#95),#83,.T.);
#114=ADVANCED_FACE('FACE1',(#132,#133),#121,.T.);
#115=ADVANCED_FACE('',(#96),#84,.F.);
#116=ADVANCED_FACE('',(#134,#135),#44,.T.);
#117=ADVANCED_FACE('',(#136,#137),#45,.T.);
#118=ADVANCED_FACE('',(#97),#85,.F.);
#119=CYLINDRICAL_SURFACE('',#353,3.1);
#120=CYLINDRICAL_SURFACE('',#376,2.976);
#121=CYLINDRICAL_SURFACE('',#381,4.2552604140675);
#122=FACE_BOUND('',#138,.T.);
#123=FACE_BOUND('',#139,.T.);
#124=FACE_BOUND('',#140,.T.);
#125=FACE_BOUND('',#141,.T.);
#126=FACE_BOUND('',#149,.T.);
#127=FACE_BOUND('',#150,.T.);
#128=FACE_BOUND('',#153,.T.);
#129=FACE_BOUND('',#154,.T.);
#130=FACE_BOUND('',#155,.T.);
#131=FACE_BOUND('',#156,.T.);
#132=FACE_BOUND('',#158,.T.);
#133=FACE_BOUND('',#159,.T.);
#134=FACE_BOUND('',#161,.T.);
#135=FACE_BOUND('',#162,.T.);
#136=FACE_BOUND('',#163,.T.);
#137=FACE_BOUND('',#164,.T.);
#138=EDGE_LOOP('',(#166));
#139=EDGE_LOOP('',(#167));
#140=EDGE_LOOP('',(#168));
#141=EDGE_LOOP('',(#169));
#142=EDGE_LOOP('',(#170));
#143=EDGE_LOOP('',(#171,#172));
#144=EDGE_LOOP('',(#173,#174,#175,#176));
#145=EDGE_LOOP('',(#177,#178));
#146=EDGE_LOOP('',(#179,#180,#181,#182));
#147=EDGE_LOOP('',(#183,#184));
#148=EDGE_LOOP('',(#185,#186,#187,#188));
#149=EDGE_LOOP('',(#189));
#150=EDGE_LOOP('',(#190,#191,#192,#193,#194,#195,#196,#197));
#151=EDGE_LOOP('',(#198,#199));
#152=EDGE_LOOP('',(#200,#201,#202,#203));
#153=EDGE_LOOP('',(#204));
#154=EDGE_LOOP('',(#205,#206,#207,#208,#209,#210,#211,#212,#213,#214,#215,
#216,#217,#218,#219,#220));
#155=EDGE_LOOP('',(#221));
#156=EDGE_LOOP('',(#222));
#157=EDGE_LOOP('',(#223));
#158=EDGE_LOOP('',(#224));
#159=EDGE_LOOP('',(#225));
#160=EDGE_LOOP('',(#226));
#161=EDGE_LOOP('',(#227));
#162=EDGE_LOOP('',(#228));
#163=EDGE_LOOP('',(#229));
#164=EDGE_LOOP('',(#230));
#165=EDGE_LOOP('',(#231));
#166=ORIENTED_EDGE('',*,*,#257,.T.);
#167=ORIENTED_EDGE('',*,*,#258,.T.);
#168=ORIENTED_EDGE('',*,*,#257,.F.);
#169=ORIENTED_EDGE('',*,*,#259,.F.);
#170=ORIENTED_EDGE('',*,*,#260,.T.);
#171=ORIENTED_EDGE('',*,*,#261,.T.);
#172=ORIENTED_EDGE('',*,*,#262,.T.);
#173=ORIENTED_EDGE('',*,*,#263,.T.);
#174=ORIENTED_EDGE('',*,*,#264,.F.);
#175=ORIENTED_EDGE('',*,*,#265,.T.);
#176=ORIENTED_EDGE('',*,*,#262,.F.);
#177=ORIENTED_EDGE('',*,*,#266,.T.);
#178=ORIENTED_EDGE('',*,*,#267,.T.);
#179=ORIENTED_EDGE('',*,*,#268,.T.);
#180=ORIENTED_EDGE('',*,*,#269,.F.);
#181=ORIENTED_EDGE('',*,*,#270,.T.);
#182=ORIENTED_EDGE('',*,*,#267,.F.);
#183=ORIENTED_EDGE('',*,*,#271,.T.);
#184=ORIENTED_EDGE('',*,*,#272,.T.);
#185=ORIENTED_EDGE('',*,*,#273,.T.);
#186=ORIENTED_EDGE('',*,*,#274,.F.);
#187=ORIENTED_EDGE('',*,*,#275,.T.);
#188=ORIENTED_EDGE('',*,*,#272,.F.);
#189=ORIENTED_EDGE('',*,*,#260,.F.);
#190=ORIENTED_EDGE('',*,*,#276,.T.);
#191=ORIENTED_EDGE('',*,*,#277,.T.);
#192=ORIENTED_EDGE('',*,*,#278,.T.);
#193=ORIENTED_EDGE('',*,*,#264,.T.);
#194=ORIENTED_EDGE('',*,*,#279,.T.);
#195=ORIENTED_EDGE('',*,*,#269,.T.);
#196=ORIENTED_EDGE('',*,*,#280,.T.);
#197=ORIENTED_EDGE('',*,*,#274,.T.);
#198=ORIENTED_EDGE('',*,*,#281,.T.);
#199=ORIENTED_EDGE('',*,*,#282,.T.);
#200=ORIENTED_EDGE('',*,*,#283,.T.);
#201=ORIENTED_EDGE('',*,*,#277,.F.);
#202=ORIENTED_EDGE('',*,*,#284,.T.);
#203=ORIENTED_EDGE('',*,*,#282,.F.);
#204=ORIENTED_EDGE('',*,*,#285,.F.);
#205=ORIENTED_EDGE('',*,*,#283,.F.);
#206=ORIENTED_EDGE('',*,*,#281,.F.);
#207=ORIENTED_EDGE('',*,*,#284,.F.);
#208=ORIENTED_EDGE('',*,*,#276,.F.);
#209=ORIENTED_EDGE('',*,*,#273,.F.);
#210=ORIENTED_EDGE('',*,*,#271,.F.);
#211=ORIENTED_EDGE('',*,*,#275,.F.);
#212=ORIENTED_EDGE('',*,*,#280,.F.);
#213=ORIENTED_EDGE('',*,*,#268,.F.);
#214=ORIENTED_EDGE('',*,*,#266,.F.);
#215=ORIENTED_EDGE('',*,*,#270,.F.);
#216=ORIENTED_EDGE('',*,*,#279,.F.);
#217=ORIENTED_EDGE('',*,*,#263,.F.);
#218=ORIENTED_EDGE('',*,*,#261,.F.);
#219=ORIENTED_EDGE('',*,*,#265,.F.);
#220=ORIENTED_EDGE('',*,*,#278,.F.);
#221=ORIENTED_EDGE('',*,*,#285,.T.);
#222=ORIENTED_EDGE('',*,*,#258,.F.);
#223=ORIENTED_EDGE('',*,*,#259,.T.);
#224=ORIENTED_EDGE('',*,*,#286,.T.);
#225=ORIENTED_EDGE('',*,*,#287,.F.);
#226=ORIENTED_EDGE('',*,*,#287,.T.);
#227=ORIENTED_EDGE('',*,*,#288,.T.);
#228=ORIENTED_EDGE('',*,*,#286,.F.);
#229=ORIENTED_EDGE('',*,*,#289,.F.);
#230=ORIENTED_EDGE('',*,*,#288,.F.);
#231=ORIENTED_EDGE('',*,*,#289,.T.);
#232=VERTEX_POINT('',#509);
#233=VERTEX_POINT('',#511);
#234=VERTEX_POINT('',#514);
#235=VERTEX_POINT('',#517);
#236=VERTEX_POINT('',#520);
#237=VERTEX_POINT('',#521);
#238=VERTEX_POINT('',#525);
#239=VERTEX_POINT('',#532);
#240=VERTEX_POINT('',#536);
#241=VERTEX_POINT('',#537);
#242=VERTEX_POINT('',#541);
#243=VERTEX_POINT('',#548);
#244=VERTEX_POINT('',#552);
#245=VERTEX_POINT('',#553);
#246=VERTEX_POINT('',#557);
#247=VERTEX_POINT('',#564);
#248=VERTEX_POINT('',#568);
#249=VERTEX_POINT('',#575);
#250=VERTEX_POINT('',#581);
#251=VERTEX_POINT('',#582);
#252=VERTEX_POINT('',#589);
#253=VERTEX_POINT('',#594);
#254=VERTEX_POINT('',#596);
#255=VERTEX_POINT('',#600);
#256=VERTEX_POINT('',#603);
#257=EDGE_CURVE('',#232,#232,#290,.T.);
#258=EDGE_CURVE('',#233,#233,#291,.T.);
#259=EDGE_CURVE('',#234,#234,#292,.T.);
#260=EDGE_CURVE('',#235,#235,#293,.T.);
#261=EDGE_CURVE('',#236,#237,#70,.T.);
#262=EDGE_CURVE('',#237,#236,#46,.T.);
#263=EDGE_CURVE('',#237,#238,#47,.T.);
#264=EDGE_CURVE('',#239,#238,#312,.T.);
#265=EDGE_CURVE('',#239,#236,#48,.T.);
#266=EDGE_CURVE('',#240,#241,#71,.T.);
#267=EDGE_CURVE('',#241,#240,#49,.T.);
#268=EDGE_CURVE('',#241,#242,#50,.T.);
#269=EDGE_CURVE('',#243,#242,#313,.T.);
#270=EDGE_CURVE('',#243,#240,#51,.T.);
#271=EDGE_CURVE('',#244,#245,#72,.T.);
#272=EDGE_CURVE('',#245,#244,#52,.T.);
#273=EDGE_CURVE('',#245,#246,#53,.T.);
#274=EDGE_CURVE('',#247,#246,#314,.T.);
#275=EDGE_CURVE('',#247,#244,#54,.T.);
#276=EDGE_CURVE('',#246,#248,#294,.T.);
#277=EDGE_CURVE('',#248,#249,#315,.T.);
#278=EDGE_CURVE('',#249,#239,#295,.T.);
#279=EDGE_CURVE('',#238,#243,#296,.T.);
#280=EDGE_CURVE('',#242,#247,#297,.T.);
#281=EDGE_CURVE('',#250,#251,#73,.T.);
#282=EDGE_CURVE('',#251,#250,#55,.T.);
#283=EDGE_CURVE('',#251,#249,#56,.T.);
#284=EDGE_CURVE('',#248,#250,#57,.T.);
#285=EDGE_CURVE('',#252,#252,#298,.T.);
#286=EDGE_CURVE('',#253,#253,#299,.T.);
#287=EDGE_CURVE('',#254,#254,#300,.T.);
#288=EDGE_CURVE('',#255,#255,#301,.T.);
#289=EDGE_CURVE('',#256,#256,#302,.T.);
#290=CIRCLE('',#351,3.1);
#291=CIRCLE('',#352,3.1);
#292=CIRCLE('',#354,3.15649999999999);
#293=CIRCLE('',#356,1.776);
#294=CIRCLE('',#367,2.976);
#295=CIRCLE('',#368,2.976);
#296=CIRCLE('',#369,2.976);
#297=CIRCLE('',#370,2.976);
#298=CIRCLE('',#375,2.976);
#299=CIRCLE('',#379,4.2552604140675);
#300=CIRCLE('',#380,4.2552604140675);
#301=CIRCLE('',#383,3.54504307279455);
#302=CIRCLE('',#385,2.91499999999998);
#303=CURVE_STYLE('',#307,POSITIVE_LENGTH_MEASURE(0.18),#317);
#304=CURVE_STYLE('',#308,POSITIVE_LENGTH_MEASURE(0.13),#344);
#305=CURVE_STYLE('',#309,POSITIVE_LENGTH_MEASURE(0.18),#343);
#306=CURVE_STYLE('',#310,POSITIVE_LENGTH_MEASURE(0.18),#343);
#307=DRAUGHTING_PRE_DEFINED_CURVE_FONT('continuous');
#308=DRAUGHTING_PRE_DEFINED_CURVE_FONT('continuous');
#309=DRAUGHTING_PRE_DEFINED_CURVE_FONT('continuous');
#310=DRAUGHTING_PRE_DEFINED_CURVE_FONT('continuous');
#311=B_SPLINE_CURVE_WITH_KNOTS('CUTTING PART LINE',3,(#486,#487,#488,#489,
#490,#491,#492,#493,#494,#495,#496,#497,#498,#499,#500,#501,#502,#503,#504),
 .UNSPECIFIED.,.T.,.F.,(4,3,3,3,3,3,4),(0.,0.0663756374980182,0.480796427377516,
0.577690294516117,0.911557456399053,0.979711245600714,1.),.UNSPECIFIED.);
#312=B_SPLINE_CURVE_WITH_KNOTS('',3,(#526,#527,#528,#529,#530,#531),
 .UNSPECIFIED.,.F.,.F.,(4,2,4),(0.,0.5,1.),.UNSPECIFIED.);
#313=B_SPLINE_CURVE_WITH_KNOTS('',3,(#542,#543,#544,#545,#546,#547),
 .UNSPECIFIED.,.F.,.F.,(4,2,4),(0.,0.5,1.),.UNSPECIFIED.);
#314=B_SPLINE_CURVE_WITH_KNOTS('',3,(#558,#559,#560,#561,#562,#563),
 .UNSPECIFIED.,.F.,.F.,(4,2,4),(0.,0.5,1.),.UNSPECIFIED.);
#315=B_SPLINE_CURVE_WITH_KNOTS('',3,(#569,#570,#571,#572,#573,#574),
 .UNSPECIFIED.,.F.,.F.,(4,2,4),(0.,0.5,1.),.UNSPECIFIED.);
#316=DRAUGHTING_PRE_DEFINED_COLOUR('white');
#317=DRAUGHTING_PRE_DEFINED_COLOUR('blue');
#318=PRESENTATION_LAYER_ASSIGNMENT('1','Layer 1',(#483,#484,#485,#311,#348,
#349,#350,#38,#39));
#319=STYLED_ITEM('',(#328),#483);
#320=STYLED_ITEM('',(#329),#484);
#321=STYLED_ITEM('',(#330),#485);
#322=STYLED_ITEM('',(#331),#311);
#323=STYLED_ITEM('',(#332),#348);
#324=STYLED_ITEM('',(#333),#349);
#325=STYLED_ITEM('',(#334),#350);
#326=STYLED_ITEM('',(#335),#38);
#327=STYLED_ITEM('',(#336),#39);
#328=PRESENTATION_STYLE_ASSIGNMENT((#337));
#329=PRESENTATION_STYLE_ASSIGNMENT((#338));
#330=PRESENTATION_STYLE_ASSIGNMENT((#339));
#331=PRESENTATION_STYLE_ASSIGNMENT((#303));
#332=PRESENTATION_STYLE_ASSIGNMENT((#304));
#333=PRESENTATION_STYLE_ASSIGNMENT((#305));
#334=PRESENTATION_STYLE_ASSIGNMENT((#306));
#335=PRESENTATION_STYLE_ASSIGNMENT((#28));
#336=PRESENTATION_STYLE_ASSIGNMENT((#29));
#337=POINT_STYLE('',#340,POSITIVE_LENGTH_MEASURE(3.),#343);
#338=POINT_STYLE('',#341,POSITIVE_LENGTH_MEASURE(3.),#316);
#339=POINT_STYLE('',#342,POSITIVE_LENGTH_MEASURE(3.),#343);
#340=PRE_DEFINED_POINT_MARKER_SYMBOL('plus');
#341=PRE_DEFINED_POINT_MARKER_SYMBOL('plus');
#342=PRE_DEFINED_POINT_MARKER_SYMBOL('plus');
#343=COLOUR_RGB('Medium Maroon',0.6,0.4,0.4);
#344=COLOUR_RGB('Silver Gray',0.6,0.6,0.6);
#345=COLOUR_RGB('TLS_NOCUT',0.498023956664378,0.498023956664378,0.498023956664378);
#346=COLOUR_RGB('TLS_CUT',0.8,0.8,0.8);
#347=AXIS2_PLACEMENT_3D('',#482,#388,#389);
#348=AXIS2_PLACEMENT_3D('PCS',#505,#390,#391);
#349=AXIS2_PLACEMENT_3D('MCS',#506,#392,#393);
#350=AXIS2_PLACEMENT_3D('CIP',#507,#394,#395);
#351=AXIS2_PLACEMENT_3D('',#508,#396,#397);
#352=AXIS2_PLACEMENT_3D('',#510,#398,#399);
#353=AXIS2_PLACEMENT_3D('',#512,#400,#401);
#354=AXIS2_PLACEMENT_3D('',#513,#402,#403);
#355=AXIS2_PLACEMENT_3D('',#515,#404,#405);
#356=AXIS2_PLACEMENT_3D('',#516,#406,#407);
#357=AXIS2_PLACEMENT_3D('',#518,#408,#409);
#358=AXIS2_PLACEMENT_3D('',#519,#410,#411);
#359=AXIS2_PLACEMENT_3D('',#523,#413,#414);
#360=AXIS2_PLACEMENT_3D('',#534,#417,#418);
#361=AXIS2_PLACEMENT_3D('',#535,#419,#420);
#362=AXIS2_PLACEMENT_3D('',#539,#422,#423);
#363=AXIS2_PLACEMENT_3D('',#550,#426,#427);
#364=AXIS2_PLACEMENT_3D('',#551,#428,#429);
#365=AXIS2_PLACEMENT_3D('',#555,#431,#432);
#366=AXIS2_PLACEMENT_3D('',#566,#435,#436);
#367=AXIS2_PLACEMENT_3D('',#567,#437,#438);
#368=AXIS2_PLACEMENT_3D('',#576,#439,#440);
#369=AXIS2_PLACEMENT_3D('',#577,#441,#442);
#370=AXIS2_PLACEMENT_3D('',#578,#443,#444);
#371=AXIS2_PLACEMENT_3D('',#579,#445,#446);
#372=AXIS2_PLACEMENT_3D('',#580,#447,#448);
#373=AXIS2_PLACEMENT_3D('',#584,#450,#451);
#374=AXIS2_PLACEMENT_3D('',#587,#454,#455);
#375=AXIS2_PLACEMENT_3D('',#588,#456,#457);
#376=AXIS2_PLACEMENT_3D('',#590,#458,#459);
#377=AXIS2_PLACEMENT_3D('',#591,#460,#461);
#378=AXIS2_PLACEMENT_3D('',#592,#462,#463);
#379=AXIS2_PLACEMENT_3D('',#593,#464,#465);
#380=AXIS2_PLACEMENT_3D('',#595,#466,#467);
#381=AXIS2_PLACEMENT_3D('',#597,#468,#469);
#382=AXIS2_PLACEMENT_3D('',#598,#470,#471);
#383=AXIS2_PLACEMENT_3D('',#599,#472,#473);
#384=AXIS2_PLACEMENT_3D('',#601,#474,#475);
#385=AXIS2_PLACEMENT_3D('',#602,#476,#477);
#386=AXIS2_PLACEMENT_3D('',#604,#478,#479);
#387=AXIS2_PLACEMENT_3D('',#605,#480,#481);
#388=DIRECTION('',(0.,0.,1.));
#389=DIRECTION('',(1.,0.,0.));
#390=DIRECTION('',(0.,0.,1.));
#391=DIRECTION('',(1.,0.,0.));
#392=DIRECTION('',(0.,0.,1.));
#393=DIRECTION('',(1.,0.,0.));
#394=DIRECTION('',(0.,0.,1.));
#395=DIRECTION('',(1.,0.,0.));
#396=DIRECTION('',(0.,0.,1.));
#397=DIRECTION('',(-1.,0.,0.));
#398=DIRECTION('',(0.,0.,-1.));
#399=DIRECTION('',(-1.,0.,0.));
#400=DIRECTION('',(0.,0.,-1.));
#401=DIRECTION('',(-1.,0.,0.));
#402=DIRECTION('',(0.,0.,-1.));
#403=DIRECTION('',(-1.,0.,0.));
#404=DIRECTION('',(0.,0.,-1.));
#405=DIRECTION('',(-1.,0.,0.));
#406=DIRECTION('',(0.,0.,1.));
#407=DIRECTION('',(1.,0.,0.));
#408=DIRECTION('',(1.20812096875163E-16,0.,-1.));
#409=DIRECTION('',(-1.,0.,-1.20812096875163E-16));
#410=DIRECTION('',(8.28344032153662E-16,0.707106781186547,0.707106781186548));
#411=DIRECTION('',(-8.28344032153662E-16,-0.707106781186548,0.707106781186547));
#412=DIRECTION('',(1.,-1.17145536458252E-15,0.));
#413=DIRECTION('',(8.28344032153662E-16,0.707106781186547,0.707106781186548));
#414=DIRECTION('',(8.28330459778925E-16,0.707106781186548,-0.707106781186547));
#415=DIRECTION('',(0.,0.,1.));
#416=DIRECTION('',(0.,0.,-1.));
#417=DIRECTION('',(1.17145536458252E-15,1.,0.));
#418=DIRECTION('',(0.,0.,-1.));
#419=DIRECTION('',(-0.707106781186547,1.65668806430732E-15,0.707106781186548));
#420=DIRECTION('',(0.707106781186548,-1.65668806430732E-15,0.707106781186547));
#421=DIRECTION('',(2.34291072916505E-15,1.,0.));
#422=DIRECTION('',(-0.707106781186547,1.65668806430732E-15,0.707106781186548));
#423=DIRECTION('',(-0.707106781186548,1.65666091955785E-15,-0.707106781186547));
#424=DIRECTION('',(0.,0.,1.));
#425=DIRECTION('',(0.,0.,-1.));
#426=DIRECTION('',(-1.,2.34291072916505E-15,0.));
#427=DIRECTION('',(0.,0.,-1.));
#428=DIRECTION('',(-2.64204134232936E-15,-0.707106781186547,0.707106781186548));
#429=DIRECTION('',(2.64204134232936E-15,0.707106781186548,0.707106781186547));
#430=DIRECTION('',(-1.,3.7364106986726E-15,0.));
#431=DIRECTION('',(-2.64204134232936E-15,-0.707106781186547,0.707106781186548));
#432=DIRECTION('',(-2.64198385391268E-15,-0.707106781186548,-0.707106781186547));
#433=DIRECTION('',(0.,0.,1.));
#434=DIRECTION('',(0.,0.,-1.));
#435=DIRECTION('',(-3.7364106986726E-15,-1.,0.));
#436=DIRECTION('',(0.,0.,-1.));
#437=DIRECTION('',(0.,0.,1.));
#438=DIRECTION('',(-1.,0.,0.));
#439=DIRECTION('',(0.,0.,1.));
#440=DIRECTION('',(-1.,0.,0.));
#441=DIRECTION('',(0.,0.,1.));
#442=DIRECTION('',(-1.,0.,0.));
#443=DIRECTION('',(0.,0.,1.));
#444=DIRECTION('',(-1.,0.,0.));
#445=DIRECTION('',(0.,0.,-1.));
#446=DIRECTION('',(-1.,0.,0.));
#447=DIRECTION('',(0.707106781186547,0.,0.707106781186548));
#448=DIRECTION('',(-0.707106781186548,0.,0.707106781186547));
#449=DIRECTION('',(0.,-1.,0.));
#450=DIRECTION('',(0.707106781186547,0.,0.707106781186548));
#451=DIRECTION('',(0.707106781186548,0.,-0.707106781186547));
#452=DIRECTION('',(0.,0.,1.));
#453=DIRECTION('',(0.,0.,-1.));
#454=DIRECTION('',(1.,0.,0.));
#455=DIRECTION('',(0.,0.,-1.));
#456=DIRECTION('',(0.,0.,-1.));
#457=DIRECTION('',(1.,0.,0.));
#458=DIRECTION('',(0.,0.,1.));
#459=DIRECTION('',(1.,0.,0.));
#460=DIRECTION('',(0.,0.,-1.));
#461=DIRECTION('',(-1.,0.,9.67285817531627E-17));
#462=DIRECTION('',(0.,0.,-1.));
#463=DIRECTION('',(-1.,0.,0.));
#464=DIRECTION('',(0.,0.,1.));
#465=DIRECTION('',(1.,0.,0.));
#466=DIRECTION('',(0.,0.,1.));
#467=DIRECTION('',(1.,0.,0.));
#468=DIRECTION('',(0.,0.,1.));
#469=DIRECTION('',(1.,0.,0.));
#470=DIRECTION('',(0.,0.,-1.));
#471=DIRECTION('',(-1.,0.,0.));
#472=DIRECTION('',(0.,0.,1.));
#473=DIRECTION('',(-1.,0.,0.));
#474=DIRECTION('',(0.,0.,1.));
#475=DIRECTION('',(1.,0.,-2.24547660348304E-16));
#476=DIRECTION('',(9.06853497640132E-17,0.,-1.));
#477=DIRECTION('',(1.,0.,0.));
#478=DIRECTION('',(-3.52223116190274E-16,0.,1.));
#479=DIRECTION('',(1.,0.,3.31655626329724E-16));
#480=DIRECTION('',(-9.06853497640132E-17,0.,1.));
#481=DIRECTION('',(1.,0.,9.71445146547012E-17));
#482=CARTESIAN_POINT('',(0.,0.,0.));
#483=CARTESIAN_POINT('',(0.,0.,-23.));
#484=CARTESIAN_POINT('CRP',(-4.0802604140675,0.,-70.));
#485=CARTESIAN_POINT('CIP_DCSYS',(0.,0.,-70.));
#486=CARTESIAN_POINT('',(-2.91499999999996,0.,-70.2));
#487=CARTESIAN_POINT('',(-1.94333333333331,0.,-70.2));
#488=CARTESIAN_POINT('',(-0.971666666666654,0.,-70.2));
#489=CARTESIAN_POINT('',(0.,0.,-70.2));
#490=CARTESIAN_POINT('',(0.,0.,-64.1333333333333));
#491=CARTESIAN_POINT('',(0.,0.,-58.0666666666667));
#492=CARTESIAN_POINT('',(0.,0.,-52.));
#493=CARTESIAN_POINT('',(-1.4184201380225,0.,-52.));
#494=CARTESIAN_POINT('',(-2.836840276045,0.,-52.));
#495=CARTESIAN_POINT('',(-4.2552604140675,0.,-52.));
#496=CARTESIAN_POINT('',(-4.2552604140675,0.,-56.8874497408027));
#497=CARTESIAN_POINT('',(-4.2552604140675,0.,-61.7748994816053));
#498=CARTESIAN_POINT('',(-4.2552604140675,0.,-66.662349222408));
#499=CARTESIAN_POINT('',(-4.01852130030985,0.,-67.6315517906738));
#500=CARTESIAN_POINT('',(-3.7817821865522,0.,-68.6007543589396));
#501=CARTESIAN_POINT('',(-3.54504307279454,0.,-69.5699569272054));
#502=CARTESIAN_POINT('',(-3.33502871519634,0.,-69.7799712848036));
#503=CARTESIAN_POINT('',(-3.12501435759815,0.,-69.9899856424018));
#504=CARTESIAN_POINT('',(-2.91499999999996,0.,-70.2));
#505=CARTESIAN_POINT('',(0.,0.,0.));
#506=CARTESIAN_POINT('',(0.,0.,-23.));
#507=CARTESIAN_POINT('',(0.,0.,-70.));
#508=CARTESIAN_POINT('',(5.32907051820075E-15,0.,-51.6519946121107));
#509=CARTESIAN_POINT('',(-3.09999999999999,0.,-51.6519946121107));
#510=CARTESIAN_POINT('',(0.,0.,-8.812));
#511=CARTESIAN_POINT('',(-3.1,0.,-8.812));
#512=CARTESIAN_POINT('',(5.32907051820075E-15,0.,-51.4621391293724));
#513=CARTESIAN_POINT('',(5.32907051820075E-15,0.,-52.));
#514=CARTESIAN_POINT('',(-3.15649999999999,0.,-52.));
#515=CARTESIAN_POINT('',(5.32907051820075E-15,0.,-51.6519946121107));
#516=CARTESIAN_POINT('',(0.,0.,0.));
#517=CARTESIAN_POINT('',(1.776,0.,0.));
#518=CARTESIAN_POINT('',(3.3,0.,1.9933995984402E-16));
#519=CARTESIAN_POINT('',(0.,0.,-5.5));
#520=CARTESIAN_POINT('',(1.61448939296609,2.5,-8.));
#521=CARTESIAN_POINT('',(-1.61448939296608,2.5,-8.));
#522=CARTESIAN_POINT('',(7.5,2.49999999999999,-8.));
#523=CARTESIAN_POINT('',(7.5,2.49999999999999,-8.));
#524=CARTESIAN_POINT('',(-1.61448939296608,2.5,20.9080749503476));
#525=CARTESIAN_POINT('',(-1.61448939296608,2.5,-1.2));
#526=CARTESIAN_POINT('',(1.61448939296609,2.5,-1.2));
#527=CARTESIAN_POINT('',(1.11477845115344,2.5,-0.928905236859675));
#528=CARTESIAN_POINT('',(0.564584531265369,2.5,-0.724001827911762));
#529=CARTESIAN_POINT('',(-0.564568343035229,2.5,-0.723998172114445));
#530=CARTESIAN_POINT('',(-1.11439824619394,2.5,-0.928698974469128));
#531=CARTESIAN_POINT('',(-1.61448939296608,2.5,-1.2));
#532=CARTESIAN_POINT('',(1.61448939296609,2.5,-1.2));
#533=CARTESIAN_POINT('',(1.61448939296609,2.5,20.9080749503476));
#534=CARTESIAN_POINT('',(7.5,2.49999999999999,10.));
#535=CARTESIAN_POINT('',(0.,0.,-5.5));
#536=CARTESIAN_POINT('',(-2.5,1.61448939296609,-8.));
#537=CARTESIAN_POINT('',(-2.5,-1.61448939296608,-8.));
#538=CARTESIAN_POINT('',(-2.49999999999998,7.50000000000001,-8.));
#539=CARTESIAN_POINT('',(-2.49999999999998,7.50000000000001,-8.));
#540=CARTESIAN_POINT('',(-2.5,-1.61448939296608,20.9080749503476));
#541=CARTESIAN_POINT('',(-2.5,-1.61448939296608,-1.2));
#542=CARTESIAN_POINT('',(-2.5,1.61448939296609,-1.2));
#543=CARTESIAN_POINT('',(-2.5,1.11439824619395,-0.928698974469128));
#544=CARTESIAN_POINT('',(-2.5,0.564568343035237,-0.723998172114445));
#545=CARTESIAN_POINT('',(-2.5,-0.564584531265362,-0.724001827911762));
#546=CARTESIAN_POINT('',(-2.5,-1.11477845115344,-0.928905236859675));
#547=CARTESIAN_POINT('',(-2.5,-1.61448939296608,-1.2));
#548=CARTESIAN_POINT('',(-2.5,1.61448939296609,-1.2));
#549=CARTESIAN_POINT('',(-2.5,1.61448939296609,20.9080749503476));
#550=CARTESIAN_POINT('',(-2.49999999999998,7.50000000000001,10.));
#551=CARTESIAN_POINT('',(0.,0.,-5.5));
#552=CARTESIAN_POINT('',(-1.61448939296609,-2.49999999999999,-8.));
#553=CARTESIAN_POINT('',(1.61448939296608,-2.50000000000001,-8.));
#554=CARTESIAN_POINT('',(-7.50000000000001,-2.49999999999997,-8.));
#555=CARTESIAN_POINT('',(-7.50000000000001,-2.49999999999997,-8.));
#556=CARTESIAN_POINT('',(1.61448939296608,-2.50000000000001,20.9080749503476));
#557=CARTESIAN_POINT('',(1.61448939296608,-2.50000000000001,-1.2));
#558=CARTESIAN_POINT('',(-1.6144893929661,-2.49999999999999,-1.2));
#559=CARTESIAN_POINT('',(-1.11439824619395,-2.5,-0.928698974469128));
#560=CARTESIAN_POINT('',(-0.56456834303524,-2.5,-0.723998172114445));
#561=CARTESIAN_POINT('',(0.564584531265357,-2.5,-0.724001827911762));
#562=CARTESIAN_POINT('',(1.11477845115343,-2.5,-0.928905236859675));
#563=CARTESIAN_POINT('',(1.61448939296608,-2.50000000000001,-1.2));
#564=CARTESIAN_POINT('',(-1.6144893929661,-2.49999999999999,-1.2));
#565=CARTESIAN_POINT('',(-1.6144893929661,-2.49999999999999,20.9080749503476));
#566=CARTESIAN_POINT('',(-7.50000000000001,-2.49999999999997,10.));
#567=CARTESIAN_POINT('',(0.,0.,-1.2));
#568=CARTESIAN_POINT('',(2.5,-1.61448939296609,-1.2));
#569=CARTESIAN_POINT('',(2.5,-1.61448939296609,-1.2));
#570=CARTESIAN_POINT('',(2.5,-1.11477845115344,-0.928905236859674));
#571=CARTESIAN_POINT('',(2.5,-0.564584531265366,-0.724001827911762));
#572=CARTESIAN_POINT('',(2.5,0.564568343035231,-0.723998172114445));
#573=CARTESIAN_POINT('',(2.5,1.11439824619394,-0.928698974469128));
#574=CARTESIAN_POINT('',(2.5,1.61448939296609,-1.2));
#575=CARTESIAN_POINT('',(2.5,1.61448939296609,-1.2));
#576=CARTESIAN_POINT('',(0.,0.,-1.2));
#577=CARTESIAN_POINT('',(0.,0.,-1.2));
#578=CARTESIAN_POINT('',(0.,0.,-1.2));
#579=CARTESIAN_POINT('',(0.,0.,0.));
#580=CARTESIAN_POINT('',(0.,0.,-5.5));
#581=CARTESIAN_POINT('',(2.5,-1.61448939296608,-8.));
#582=CARTESIAN_POINT('',(2.5,1.61448939296608,-8.));
#583=CARTESIAN_POINT('',(2.5,-7.5,-8.));
#584=CARTESIAN_POINT('',(2.5,-7.5,-8.));
#585=CARTESIAN_POINT('',(2.5,1.61448939296609,20.9080749503476));
#586=CARTESIAN_POINT('',(2.5,-1.61448939296609,20.9080749503476));
#587=CARTESIAN_POINT('',(2.5,-7.5,10.));
#588=CARTESIAN_POINT('',(0.,0.,-8.688));
#589=CARTESIAN_POINT('',(2.976,0.,-8.688));
#590=CARTESIAN_POINT('',(0.,0.,20.9080749503476));
#591=CARTESIAN_POINT('',(0.,0.,-10.012));
#592=CARTESIAN_POINT('',(0.,0.,-52.));
#593=CARTESIAN_POINT('',(0.,0.,-66.662349222408));
#594=CARTESIAN_POINT('',(4.2552604140675,0.,-66.662349222408));
#595=CARTESIAN_POINT('',(0.,0.,-52.));
#596=CARTESIAN_POINT('',(4.2552604140675,0.,-52.));
#597=CARTESIAN_POINT('',(0.,0.,-68.8597395859325));
#598=CARTESIAN_POINT('',(4.2552604140675,0.,-52.));
#599=CARTESIAN_POINT('',(2.02341694083683E-14,0.,-69.5699569272054));
#600=CARTESIAN_POINT('',(-3.54504307279453,0.,-69.5699569272054));
#601=CARTESIAN_POINT('',(0.,0.,-72.));
#602=CARTESIAN_POINT('',(2.05174103016852E-14,0.,-70.2));
#603=CARTESIAN_POINT('',(2.915,0.,-70.2));
#604=CARTESIAN_POINT('',(1.99840144432528E-14,0.,-68.8597395859325));
#605=CARTESIAN_POINT('',(10.5,0.,-70.2));
#606=MECHANICAL_DESIGN_GEOMETRIC_PRESENTATION_REPRESENTATION('',(#319,#320,
#321,#322,#323,#324,#325,#326,#327),#607);
#607=(
GEOMETRIC_REPRESENTATION_CONTEXT(3)
GLOBAL_UNCERTAINTY_ASSIGNED_CONTEXT((#608))
GLOBAL_UNIT_ASSIGNED_CONTEXT((#614,#610,#609))
REPRESENTATION_CONTEXT('tool','TOP_LEVEL_ASSEMBLY_PART')
);
#608=UNCERTAINTY_MEASURE_WITH_UNIT(LENGTH_MEASURE(0.0508),#614,
'DISTANCE_ACCURACY_VALUE','Maximum Tolerance applied to model');
#609=(
NAMED_UNIT(*)
SI_UNIT($,.STERADIAN.)
SOLID_ANGLE_UNIT()
);
#610=(
CONVERSION_BASED_UNIT('DEGREE',#612)
NAMED_UNIT(#611)
PLANE_ANGLE_UNIT()
);
#611=DIMENSIONAL_EXPONENTS(0.,0.,0.,0.,0.,0.,0.);
#612=PLANE_ANGLE_MEASURE_WITH_UNIT(PLANE_ANGLE_MEASURE(0.0174532925),#613);
#613=(
NAMED_UNIT(*)
PLANE_ANGLE_UNIT()
SI_UNIT($,.RADIAN.)
);
#614=(
LENGTH_UNIT()
NAMED_UNIT(*)
SI_UNIT(.MILLI.,.METRE.)
);
ENDSEC;
END-ISO-10303-21;
