ISO-10303-21;
HEADER;
/* Generated by software containing ST-Developer
 * from STEP Tools, Inc. (www.steptools.com) 
 */
/* OPTION: using custom schema-name function */

FILE_DESCRIPTION(
/* description */ (''),
/* implementation_level */ '2;1');

FILE_NAME(
/* name */ '1555306818948.stp',
/* time_stamp */ '2019-04-15T07:40:33+02:00',
/* author */ (''),
/* organization */ ('SMS'),
/* preprocessor_version */ 'ST-DEVELOPER v15',
/* originating_system */ 'SIEMENS PLM Software NX 8.5',
/* authorisation */ '');

FILE_SCHEMA (('AUTOMOTIVE_DESIGN { 1 0 10303 214 3 1 1 1 }'));
ENDSEC;

DATA;
#10=CONSTRUCTIVE_GEOMETRY_REPRESENTATION_RELATIONSHIP(
'supplemental geometry','',#26,#11);
#11=CONSTRUCTIVE_GEOMETRY_REPRESENTATION('supplemental geometry',(#199,
#200,#201),#330);
#12=GEOMETRICALLY_BOUNDED_WIREFRAME_SHAPE_REPRESENTATION(
'202305184mod000_00-None',(#27),#330);
#13=SHAPE_REPRESENTATION_RELATIONSHIP('None',
'relationship between 202305184mod000_00-None and 202305184mod000_00-N
one',#26,#15);
#14=SHAPE_REPRESENTATION_RELATIONSHIP('None',
'relationship between 202305184mod000_00-None and 202305184mod000_00-N
one',#26,#12);
#15=ADVANCED_BREP_SHAPE_REPRESENTATION('202305184mod000_00-None',(#33),
#330);
#16=SHAPE_DEFINITION_REPRESENTATION(#17,#26);
#17=PRODUCT_DEFINITION_SHAPE('','',#18);
#18=PRODUCT_DEFINITION(' ','',#20,#19);
#19=PRODUCT_DEFINITION_CONTEXT('part definition',#25,'design');
#20=PRODUCT_DEFINITION_FORMATION_WITH_SPECIFIED_SOURCE(' ',' ',#22,
 .NOT_KNOWN.);
#21=PRODUCT_RELATED_PRODUCT_CATEGORY('part','',(#22));
#22=PRODUCT('202305184mod000_00','202305184mod000_00',' ',(#23));
#23=PRODUCT_CONTEXT(' ',#25,'mechanical');
#24=APPLICATION_PROTOCOL_DEFINITION('international standard',
'automotive_design',2010,#25);
#25=APPLICATION_CONTEXT(
'core data for automotive mechanical design processes');
#26=SHAPE_REPRESENTATION('202305184mod000_00-None',(#198),#330);
#27=GEOMETRIC_CURVE_SET('None',(#286,#287,#288));
#28=SURFACE_STYLE_USAGE(.BOTH.,#29);
#29=SURFACE_SIDE_STYLE('',(#30));
#30=SURFACE_STYLE_FILL_AREA(#31);
#31=FILL_AREA_STYLE('',(#32));
#32=FILL_AREA_STYLE_COLOUR('',#197);
#33=MANIFOLD_SOLID_BREP('NOCUT',#34);
#34=CLOSED_SHELL('',(#65,#66,#67,#68,#69,#70,#71,#72,#73,#74,#75,#76,#77));
#35=CYLINDRICAL_SURFACE('',#207,18.);
#36=CYLINDRICAL_SURFACE('',#211,44.441);
#37=CYLINDRICAL_SURFACE('',#220,55.);
#38=CONICAL_SURFACE('',#205,17.,45.);
#39=CONICAL_SURFACE('',#216,18.58675,30.0000000000001);
#40=CONICAL_SURFACE('',#224,55.,30.);
#41=CONICAL_SURFACE('',#225,55.,45.);
#42=CONICAL_SURFACE('',#226,45.0183502691896,30.);
#43=FACE_BOUND('',#86,.T.);
#44=FACE_BOUND('',#87,.T.);
#45=FACE_BOUND('',#88,.T.);
#46=FACE_BOUND('',#89,.T.);
#47=FACE_BOUND('',#90,.T.);
#48=FACE_BOUND('',#91,.T.);
#49=FACE_BOUND('',#92,.T.);
#50=FACE_BOUND('',#93,.T.);
#51=FACE_BOUND('',#94,.T.);
#52=FACE_BOUND('',#95,.T.);
#53=FACE_BOUND('',#96,.T.);
#54=FACE_BOUND('',#97,.T.);
#55=FACE_BOUND('',#99,.T.);
#56=FACE_BOUND('',#100,.T.);
#57=FACE_BOUND('',#101,.T.);
#58=FACE_BOUND('',#102,.T.);
#59=FACE_BOUND('',#103,.T.);
#60=FACE_BOUND('',#104,.T.);
#61=FACE_BOUND('',#105,.T.);
#62=FACE_BOUND('',#106,.T.);
#63=FACE_BOUND('',#107,.T.);
#64=FACE_BOUND('',#108,.T.);
#65=ADVANCED_FACE('',(#83),#78,.T.);
#66=ADVANCED_FACE('',(#43,#44),#38,.T.);
#67=ADVANCED_FACE('',(#45,#46),#35,.T.);
#68=ADVANCED_FACE('',(#47,#48),#79,.F.);
#69=ADVANCED_FACE('',(#49,#50),#36,.F.);
#70=ADVANCED_FACE('',(#51,#52),#80,.T.);
#71=ADVANCED_FACE('',(#53,#54),#39,.T.);
#72=ADVANCED_FACE('',(#84),#81,.T.);
#73=ADVANCED_FACE('',(#55,#56),#37,.T.);
#74=ADVANCED_FACE('',(#57,#58),#82,.T.);
#75=ADVANCED_FACE('',(#59,#60),#40,.T.);
#76=ADVANCED_FACE('',(#61,#62),#41,.T.);
#77=ADVANCED_FACE('',(#63,#64),#42,.F.);
#78=PLANE('',#203);
#79=PLANE('',#209);
#80=PLANE('',#214);
#81=PLANE('',#217);
#82=PLANE('',#223);
#83=FACE_OUTER_BOUND('',#85,.T.);
#84=FACE_OUTER_BOUND('',#98,.T.);
#85=EDGE_LOOP('',(#109));
#86=EDGE_LOOP('',(#110));
#87=EDGE_LOOP('',(#111));
#88=EDGE_LOOP('',(#112));
#89=EDGE_LOOP('',(#113));
#90=EDGE_LOOP('',(#114));
#91=EDGE_LOOP('',(#115));
#92=EDGE_LOOP('',(#116));
#93=EDGE_LOOP('',(#117));
#94=EDGE_LOOP('',(#118));
#95=EDGE_LOOP('',(#119));
#96=EDGE_LOOP('',(#120));
#97=EDGE_LOOP('',(#121));
#98=EDGE_LOOP('',(#122));
#99=EDGE_LOOP('',(#123));
#100=EDGE_LOOP('',(#124));
#101=EDGE_LOOP('',(#125));
#102=EDGE_LOOP('',(#126));
#103=EDGE_LOOP('',(#127));
#104=EDGE_LOOP('',(#128));
#105=EDGE_LOOP('',(#129));
#106=EDGE_LOOP('',(#130));
#107=EDGE_LOOP('',(#131));
#108=EDGE_LOOP('',(#132));
#109=ORIENTED_EDGE('',*,*,#145,.T.);
#110=ORIENTED_EDGE('',*,*,#146,.F.);
#111=ORIENTED_EDGE('',*,*,#145,.F.);
#112=ORIENTED_EDGE('',*,*,#147,.T.);
#113=ORIENTED_EDGE('',*,*,#146,.T.);
#114=ORIENTED_EDGE('',*,*,#148,.F.);
#115=ORIENTED_EDGE('',*,*,#147,.F.);
#116=ORIENTED_EDGE('',*,*,#149,.T.);
#117=ORIENTED_EDGE('',*,*,#148,.T.);
#118=ORIENTED_EDGE('',*,*,#150,.T.);
#119=ORIENTED_EDGE('',*,*,#151,.F.);
#120=ORIENTED_EDGE('',*,*,#152,.F.);
#121=ORIENTED_EDGE('',*,*,#151,.T.);
#122=ORIENTED_EDGE('',*,*,#152,.T.);
#123=ORIENTED_EDGE('',*,*,#153,.T.);
#124=ORIENTED_EDGE('',*,*,#154,.T.);
#125=ORIENTED_EDGE('',*,*,#155,.T.);
#126=ORIENTED_EDGE('',*,*,#156,.T.);
#127=ORIENTED_EDGE('',*,*,#150,.F.);
#128=ORIENTED_EDGE('',*,*,#154,.F.);
#129=ORIENTED_EDGE('',*,*,#156,.F.);
#130=ORIENTED_EDGE('',*,*,#153,.F.);
#131=ORIENTED_EDGE('',*,*,#149,.F.);
#132=ORIENTED_EDGE('',*,*,#155,.F.);
#133=VERTEX_POINT('',#293);
#134=VERTEX_POINT('',#296);
#135=VERTEX_POINT('',#299);
#136=VERTEX_POINT('',#302);
#137=VERTEX_POINT('',#305);
#138=VERTEX_POINT('',#308);
#139=VERTEX_POINT('',#310);
#140=VERTEX_POINT('',#313);
#141=VERTEX_POINT('',#317);
#142=VERTEX_POINT('',#319);
#143=VERTEX_POINT('',#322);
#144=VERTEX_POINT('',#324);
#145=EDGE_CURVE('',#133,#133,#157,.T.);
#146=EDGE_CURVE('',#134,#134,#158,.T.);
#147=EDGE_CURVE('',#135,#135,#159,.T.);
#148=EDGE_CURVE('',#136,#136,#160,.T.);
#149=EDGE_CURVE('',#137,#137,#161,.T.);
#150=EDGE_CURVE('',#138,#138,#162,.T.);
#151=EDGE_CURVE('',#139,#139,#163,.T.);
#152=EDGE_CURVE('',#140,#140,#164,.T.);
#153=EDGE_CURVE('',#141,#141,#165,.T.);
#154=EDGE_CURVE('',#142,#142,#166,.T.);
#155=EDGE_CURVE('',#143,#143,#167,.T.);
#156=EDGE_CURVE('',#144,#144,#168,.T.);
#157=CIRCLE('',#202,17.);
#158=CIRCLE('',#204,18.);
#159=CIRCLE('',#206,18.);
#160=CIRCLE('',#208,44.441);
#161=CIRCLE('',#210,44.441);
#162=CIRCLE('',#212,45.0118403430195);
#163=CIRCLE('',#213,18.58675);
#164=CIRCLE('',#215,15.7);
#165=CIRCLE('',#218,55.);
#166=CIRCLE('',#219,55.);
#167=CIRCLE('',#221,45.0183502691896);
#168=CIRCLE('',#222,54.5);
#169=CURVE_STYLE('',#172,POSITIVE_LENGTH_MEASURE(0.18),#196);
#170=CURVE_STYLE('',#173,POSITIVE_LENGTH_MEASURE(0.18),#196);
#171=CURVE_STYLE('',#174,POSITIVE_LENGTH_MEASURE(0.18),#196);
#172=DRAUGHTING_PRE_DEFINED_CURVE_FONT('continuous');
#173=DRAUGHTING_PRE_DEFINED_CURVE_FONT('continuous');
#174=DRAUGHTING_PRE_DEFINED_CURVE_FONT('continuous');
#175=PRESENTATION_LAYER_ASSIGNMENT('1','Layer 1',(#286,#287,#288,#199,#200,
#201,#33));
#176=STYLED_ITEM('',(#183),#286);
#177=STYLED_ITEM('',(#184),#287);
#178=STYLED_ITEM('',(#185),#288);
#179=STYLED_ITEM('',(#186),#199);
#180=STYLED_ITEM('',(#187),#200);
#181=STYLED_ITEM('',(#188),#201);
#182=STYLED_ITEM('',(#189),#33);
#183=PRESENTATION_STYLE_ASSIGNMENT((#190));
#184=PRESENTATION_STYLE_ASSIGNMENT((#191));
#185=PRESENTATION_STYLE_ASSIGNMENT((#192));
#186=PRESENTATION_STYLE_ASSIGNMENT((#169));
#187=PRESENTATION_STYLE_ASSIGNMENT((#170));
#188=PRESENTATION_STYLE_ASSIGNMENT((#171));
#189=PRESENTATION_STYLE_ASSIGNMENT((#28));
#190=POINT_STYLE('',#193,POSITIVE_LENGTH_MEASURE(3.),#196);
#191=POINT_STYLE('',#194,POSITIVE_LENGTH_MEASURE(3.),#196);
#192=POINT_STYLE('',#195,POSITIVE_LENGTH_MEASURE(3.),#196);
#193=PRE_DEFINED_POINT_MARKER_SYMBOL('plus');
#194=PRE_DEFINED_POINT_MARKER_SYMBOL('plus');
#195=PRE_DEFINED_POINT_MARKER_SYMBOL('plus');
#196=COLOUR_RGB('Medium Maroon',0.6,0.4,0.4);
#197=COLOUR_RGB('Medium Gray',0.501960784313725,0.501960784313725,0.501960784313725);
#198=AXIS2_PLACEMENT_3D('',#285,#227,#228);
#199=AXIS2_PLACEMENT_3D('MCS',#289,#229,#230);
#200=AXIS2_PLACEMENT_3D('PCS',#290,#231,#232);
#201=AXIS2_PLACEMENT_3D('CSW',#291,#233,#234);
#202=AXIS2_PLACEMENT_3D('',#292,#235,#236);
#203=AXIS2_PLACEMENT_3D('',#294,#237,#238);
#204=AXIS2_PLACEMENT_3D('',#295,#239,#240);
#205=AXIS2_PLACEMENT_3D('',#297,#241,#242);
#206=AXIS2_PLACEMENT_3D('',#298,#243,#244);
#207=AXIS2_PLACEMENT_3D('',#300,#245,#246);
#208=AXIS2_PLACEMENT_3D('',#301,#247,#248);
#209=AXIS2_PLACEMENT_3D('',#303,#249,#250);
#210=AXIS2_PLACEMENT_3D('',#304,#251,#252);
#211=AXIS2_PLACEMENT_3D('',#306,#253,#254);
#212=AXIS2_PLACEMENT_3D('',#307,#255,#256);
#213=AXIS2_PLACEMENT_3D('',#309,#257,#258);
#214=AXIS2_PLACEMENT_3D('',#311,#259,#260);
#215=AXIS2_PLACEMENT_3D('',#312,#261,#262);
#216=AXIS2_PLACEMENT_3D('',#314,#263,#264);
#217=AXIS2_PLACEMENT_3D('',#315,#265,#266);
#218=AXIS2_PLACEMENT_3D('',#316,#267,#268);
#219=AXIS2_PLACEMENT_3D('',#318,#269,#270);
#220=AXIS2_PLACEMENT_3D('',#320,#271,#272);
#221=AXIS2_PLACEMENT_3D('',#321,#273,#274);
#222=AXIS2_PLACEMENT_3D('',#323,#275,#276);
#223=AXIS2_PLACEMENT_3D('',#325,#277,#278);
#224=AXIS2_PLACEMENT_3D('',#326,#279,#280);
#225=AXIS2_PLACEMENT_3D('',#327,#281,#282);
#226=AXIS2_PLACEMENT_3D('',#328,#283,#284);
#227=DIRECTION('',(0.,0.,1.));
#228=DIRECTION('',(1.,0.,0.));
#229=DIRECTION('',(0.,0.,1.));
#230=DIRECTION('',(1.,0.,0.));
#231=DIRECTION('',(0.,0.,1.));
#232=DIRECTION('',(1.,0.,0.));
#233=DIRECTION('',(0.,0.,1.));
#234=DIRECTION('',(1.,0.,0.));
#235=DIRECTION('',(0.,0.,1.));
#236=DIRECTION('',(1.,0.,0.));
#237=DIRECTION('',(0.,0.,1.));
#238=DIRECTION('',(0.,1.,0.));
#239=DIRECTION('',(0.,0.,-1.));
#240=DIRECTION('',(1.,0.,0.));
#241=DIRECTION('',(0.,0.,-1.));
#242=DIRECTION('',(-1.,0.,1.19400829221609E-017));
#243=DIRECTION('',(0.,0.,1.));
#244=DIRECTION('',(1.,0.,0.));
#245=DIRECTION('',(0.,0.,1.));
#246=DIRECTION('',(1.,0.,0.));
#247=DIRECTION('',(0.,0.,-1.));
#248=DIRECTION('',(-1.,0.,0.));
#249=DIRECTION('',(0.,0.,-1.));
#250=DIRECTION('',(1.,0.,0.));
#251=DIRECTION('',(0.,0.,1.));
#252=DIRECTION('',(-1.,0.,0.));
#253=DIRECTION('',(0.,0.,-1.));
#254=DIRECTION('',(1.,0.,0.));
#255=DIRECTION('',(0.,0.,-1.));
#256=DIRECTION('',(1.,0.,0.));
#257=DIRECTION('',(0.,0.,-1.));
#258=DIRECTION('',(1.,0.,0.));
#259=DIRECTION('',(0.,0.,-1.));
#260=DIRECTION('',(1.,0.,0.));
#261=DIRECTION('',(0.,0.,-1.));
#262=DIRECTION('',(1.,0.,0.));
#263=DIRECTION('',(0.,0.,1.));
#264=DIRECTION('',(-1.,0.,4.65746794071826E-017));
#265=DIRECTION('',(0.,0.,-1.));
#266=DIRECTION('',(1.,0.,0.));
#267=DIRECTION('',(0.,0.,-1.));
#268=DIRECTION('',(-1.,0.,0.));
#269=DIRECTION('',(0.,0.,1.));
#270=DIRECTION('',(1.,0.,0.));
#271=DIRECTION('',(0.,0.,-1.));
#272=DIRECTION('',(1.,0.,0.));
#273=DIRECTION('',(0.,0.,-1.));
#274=DIRECTION('',(-1.,0.,0.));
#275=DIRECTION('',(0.,0.,1.));
#276=DIRECTION('',(-1.,0.,0.));
#277=DIRECTION('',(0.,0.,1.));
#278=DIRECTION('',(-1.,0.,0.));
#279=DIRECTION('',(0.,0.,1.));
#280=DIRECTION('',(-1.,0.,6.5839085475203E-017));
#281=DIRECTION('',(0.,0.,-1.));
#282=DIRECTION('',(1.,0.,-4.43957666837666E-017));
#283=DIRECTION('',(0.,0.,1.));
#284=DIRECTION('',(-1.,0.,1.39364632288598E-017));
#285=CARTESIAN_POINT('',(0.,0.,0.));
#286=CARTESIAN_POINT('MCS',(0.,0.,0.));
#287=CARTESIAN_POINT('PCS',(0.,0.,0.));
#288=CARTESIAN_POINT('CSW',(0.,0.,-60.));
#289=CARTESIAN_POINT('',(0.,0.,0.));
#290=CARTESIAN_POINT('',(0.,0.,0.));
#291=CARTESIAN_POINT('',(0.,0.,-60.));
#292=CARTESIAN_POINT('',(0.,0.,14.));
#293=CARTESIAN_POINT('',(17.,0.,14.));
#294=CARTESIAN_POINT('',(0.,0.,14.));
#295=CARTESIAN_POINT('',(0.,0.,13.));
#296=CARTESIAN_POINT('',(18.,0.,13.));
#297=CARTESIAN_POINT('',(0.,0.,14.));
#298=CARTESIAN_POINT('',(0.,0.,-6.93889390390723E-015));
#299=CARTESIAN_POINT('',(18.,0.,-6.93889390390723E-015));
#300=CARTESIAN_POINT('',(0.,0.,-1.));
#301=CARTESIAN_POINT('',(-3.46944695195362E-015,0.,-6.93889390390723E-015));
#302=CARTESIAN_POINT('',(-44.441,0.,-6.93889390390723E-015));
#303=CARTESIAN_POINT('',(-3.46944695195362E-015,0.,-6.93889390390723E-015));
#304=CARTESIAN_POINT('',(-3.46944695195362E-015,0.,9.));
#305=CARTESIAN_POINT('',(-44.441,0.,9.));
#306=CARTESIAN_POINT('',(-3.46944695195362E-015,0.,10.));
#307=CARTESIAN_POINT('',(0.,0.,-55.));
#308=CARTESIAN_POINT('',(45.0118403430195,0.,-55.));
#309=CARTESIAN_POINT('',(0.,0.,-55.0000023312506));
#310=CARTESIAN_POINT('',(18.58675,0.,-55.0000023312506));
#311=CARTESIAN_POINT('',(18.58675,0.,-55.));
#312=CARTESIAN_POINT('',(0.,0.,-60.));
#313=CARTESIAN_POINT('',(15.7,0.,-60.));
#314=CARTESIAN_POINT('',(0.,0.,-55.0000023312506));
#315=CARTESIAN_POINT('',(12.6,-2.41136175348918E-014,-60.));
#316=CARTESIAN_POINT('',(0.,0.,9.5));
#317=CARTESIAN_POINT('',(-55.,0.,9.5));
#318=CARTESIAN_POINT('',(0.,0.,-37.7));
#319=CARTESIAN_POINT('',(55.,0.,-37.7));
#320=CARTESIAN_POINT('',(0.,0.,10.));
#321=CARTESIAN_POINT('',(-3.46944695195362E-015,0.,10.));
#322=CARTESIAN_POINT('',(-45.0183502691896,0.,10.));
#323=CARTESIAN_POINT('',(0.,0.,10.));
#324=CARTESIAN_POINT('',(-54.5,0.,10.));
#325=CARTESIAN_POINT('',(0.,0.,10.));
#326=CARTESIAN_POINT('',(0.,0.,-37.7));
#327=CARTESIAN_POINT('',(0.,0.,9.5));
#328=CARTESIAN_POINT('',(-3.46944695195362E-015,0.,10.));
#329=MECHANICAL_DESIGN_GEOMETRIC_PRESENTATION_REPRESENTATION('',(#176,#177,
#178,#179,#180,#181,#182),#330);
#330=(
GEOMETRIC_REPRESENTATION_CONTEXT(3)
GLOBAL_UNCERTAINTY_ASSIGNED_CONTEXT((#331))
GLOBAL_UNIT_ASSIGNED_CONTEXT((#337,#333,#332))
REPRESENTATION_CONTEXT('1555306818948','TOP_LEVEL_ASSEMBLY_PART')
);
#331=UNCERTAINTY_MEASURE_WITH_UNIT(LENGTH_MEASURE(2.E-005),#337,
'DISTANCE_ACCURACY_VALUE','Maximum Tolerance applied to model');
#332=(
NAMED_UNIT(*)
SI_UNIT($,.STERADIAN.)
SOLID_ANGLE_UNIT()
);
#333=(
CONVERSION_BASED_UNIT('DEGREE',#335)
NAMED_UNIT(#334)
PLANE_ANGLE_UNIT()
);
#334=DIMENSIONAL_EXPONENTS(0.,0.,0.,0.,0.,0.,0.);
#335=PLANE_ANGLE_MEASURE_WITH_UNIT(PLANE_ANGLE_MEASURE(0.0174532925),#336);
#336=(
NAMED_UNIT(*)
PLANE_ANGLE_UNIT()
SI_UNIT($,.RADIAN.)
);
#337=(
LENGTH_UNIT()
NAMED_UNIT(*)
SI_UNIT(.MILLI.,.METRE.)
);
ENDSEC;
END-ISO-10303-21;
