ISO-10303-21;
HEADER;
/* Generated by software containing ST-Developer
 * from STEP Tools, Inc. (www.steptools.com) 
 */
/* OPTION: using custom schema-name function */

FILE_DESCRIPTION(
/* description */ (''),
/* implementation_level */ '2;1');

FILE_NAME(
/* name */ 'aaa318468_b.stp',
/* time_stamp */ '2021-06-18T12:44:10+02:00',
/* author */ (''),
/* organization */ ('SMS'),
/* preprocessor_version */ 'ST-DEVELOPER v16.7',
/* originating_system */ 'SIEMENS PLM Software NX 12.0',
/* authorisation */ '');

FILE_SCHEMA (('AUTOMOTIVE_DESIGN { 1 0 10303 214 3 1 1 1 }'));
ENDSEC;

DATA;
#10=CONSTRUCTIVE_GEOMETRY_REPRESENTATION_RELATIONSHIP(
'supplemental geometry','',#26,#11);
#11=CONSTRUCTIVE_GEOMETRY_REPRESENTATION('supplemental geometry',(#121,
#122),#187);
#12=GEOMETRICALLY_BOUNDED_WIREFRAME_SHAPE_REPRESENTATION(
'AAA318468_B-None',(#27),#187);
#13=SHAPE_REPRESENTATION_RELATIONSHIP('None',
'relationship between AAA318468_B-None and AAA318468_B-None',#26,#15);
#14=SHAPE_REPRESENTATION_RELATIONSHIP('None',
'relationship between AAA318468_B-None and AAA318468_B-None',#26,#12);
#15=ADVANCED_BREP_SHAPE_REPRESENTATION('AAA318468_B-None',(#33),#187);
#16=SHAPE_DEFINITION_REPRESENTATION(#17,#26);
#17=PRODUCT_DEFINITION_SHAPE('','',#18);
#18=PRODUCT_DEFINITION(' ','',#20,#19);
#19=PRODUCT_DEFINITION_CONTEXT('part definition',#25,'design');
#20=PRODUCT_DEFINITION_FORMATION_WITH_SPECIFIED_SOURCE(' ',' ',#22,
 .NOT_KNOWN.);
#21=PRODUCT_RELATED_PRODUCT_CATEGORY('part','',(#22));
#22=PRODUCT('AAA318468_B','AAA318468_B','',(#23));
#23=PRODUCT_CONTEXT(' ',#25,'mechanical');
#24=APPLICATION_PROTOCOL_DEFINITION('international standard',
'automotive_design',2010,#25);
#25=APPLICATION_CONTEXT(
'core data for automotive mechanical design processes');
#26=SHAPE_REPRESENTATION('AAA318468_B-None',(#119),#187);
#27=GEOMETRIC_CURVE_SET('None',(#164,#165,#96));
#28=SURFACE_STYLE_USAGE(.BOTH.,#29);
#29=SURFACE_SIDE_STYLE('',(#30));
#30=SURFACE_STYLE_FILL_AREA(#31);
#31=FILL_AREA_STYLE('',(#32));
#32=FILL_AREA_STYLE_COLOUR('',#118);
#33=MANIFOLD_SOLID_BREP('CUT',#34);
#34=CLOSED_SHELL('',(#47,#48,#49,#50,#51));
#35=PLANE('',#129);
#36=PLANE('',#130);
#37=PLANE('',#131);
#38=PLANE('',#132);
#39=FACE_OUTER_BOUND('',#59,.T.);
#40=FACE_OUTER_BOUND('',#60,.T.);
#41=FACE_OUTER_BOUND('',#61,.T.);
#42=FACE_OUTER_BOUND('',#62,.T.);
#43=LINE('',#180,#45);
#44=LINE('',#182,#46);
#45=VECTOR('',#153,1.);
#46=VECTOR('',#156,1.);
#47=ADVANCED_FACE('',(#55,#56),#52,.T.);
#48=ADVANCED_FACE('',(#39),#35,.T.);
#49=ADVANCED_FACE('',(#40),#36,.T.);
#50=ADVANCED_FACE('',(#41),#37,.T.);
#51=ADVANCED_FACE('',(#42),#38,.T.);
#52=CONICAL_SURFACE('',#128,10.0161382436116,7.00000000000001);
#53=ELLIPSE('',#125,9.62852538360566,8.31756913616385);
#54=ELLIPSE('',#127,9.62852538360566,8.31756913616385);
#55=FACE_BOUND('',#57,.T.);
#56=FACE_BOUND('',#58,.T.);
#57=EDGE_LOOP('',(#63));
#58=EDGE_LOOP('',(#64,#65,#66,#67));
#59=EDGE_LOOP('',(#68,#69));
#60=EDGE_LOOP('',(#70,#71));
#61=EDGE_LOOP('',(#72));
#62=EDGE_LOOP('',(#73,#74,#75,#76));
#63=ORIENTED_EDGE('',*,*,#82,.F.);
#64=ORIENTED_EDGE('',*,*,#83,.F.);
#65=ORIENTED_EDGE('',*,*,#84,.F.);
#66=ORIENTED_EDGE('',*,*,#85,.F.);
#67=ORIENTED_EDGE('',*,*,#86,.F.);
#68=ORIENTED_EDGE('',*,*,#84,.T.);
#69=ORIENTED_EDGE('',*,*,#87,.T.);
#70=ORIENTED_EDGE('',*,*,#86,.T.);
#71=ORIENTED_EDGE('',*,*,#88,.T.);
#72=ORIENTED_EDGE('',*,*,#82,.T.);
#73=ORIENTED_EDGE('',*,*,#87,.F.);
#74=ORIENTED_EDGE('',*,*,#83,.T.);
#75=ORIENTED_EDGE('',*,*,#88,.F.);
#76=ORIENTED_EDGE('',*,*,#85,.T.);
#77=VERTEX_POINT('',#170);
#78=VERTEX_POINT('',#172);
#79=VERTEX_POINT('',#173);
#80=VERTEX_POINT('',#175);
#81=VERTEX_POINT('',#177);
#82=EDGE_CURVE('',#77,#77,#97,.T.);
#83=EDGE_CURVE('',#78,#79,#98,.T.);
#84=EDGE_CURVE('',#80,#78,#53,.T.);
#85=EDGE_CURVE('',#81,#80,#99,.T.);
#86=EDGE_CURVE('',#79,#81,#54,.T.);
#87=EDGE_CURVE('',#78,#80,#43,.T.);
#88=EDGE_CURVE('',#81,#79,#44,.T.);
#89=CURVE_STYLE('',#93,POSITIVE_LENGTH_MEASURE(0.18),#92);
#90=CURVE_STYLE('',#94,POSITIVE_LENGTH_MEASURE(0.18),#117);
#91=CURVE_STYLE('',#95,POSITIVE_LENGTH_MEASURE(0.18),#117);
#92=DRAUGHTING_PRE_DEFINED_COLOUR('blue');
#93=DRAUGHTING_PRE_DEFINED_CURVE_FONT('continuous');
#94=DRAUGHTING_PRE_DEFINED_CURVE_FONT('continuous');
#95=DRAUGHTING_PRE_DEFINED_CURVE_FONT('continuous');
#96=CIRCLE('CUTTING EDGE LINE',#120,9.525);
#97=CIRCLE('',#123,9.525);
#98=CIRCLE('',#124,8.31434422949736);
#99=CIRCLE('',#126,8.31434422949736);
#100=PRESENTATION_LAYER_ASSIGNMENT('1','Layer 1',(#164,#165,#96,#121,#122,
#33));
#101=STYLED_ITEM('',(#107),#164);
#102=STYLED_ITEM('',(#108),#165);
#103=STYLED_ITEM('',(#109),#96);
#104=STYLED_ITEM('',(#110),#121);
#105=STYLED_ITEM('',(#111),#122);
#106=STYLED_ITEM('',(#112),#33);
#107=PRESENTATION_STYLE_ASSIGNMENT((#113));
#108=PRESENTATION_STYLE_ASSIGNMENT((#114));
#109=PRESENTATION_STYLE_ASSIGNMENT((#89));
#110=PRESENTATION_STYLE_ASSIGNMENT((#90));
#111=PRESENTATION_STYLE_ASSIGNMENT((#91));
#112=PRESENTATION_STYLE_ASSIGNMENT((#28));
#113=POINT_STYLE('',#115,POSITIVE_LENGTH_MEASURE(3.),#117);
#114=POINT_STYLE('',#116,POSITIVE_LENGTH_MEASURE(3.),#117);
#115=PRE_DEFINED_POINT_MARKER_SYMBOL('plus');
#116=PRE_DEFINED_POINT_MARKER_SYMBOL('plus');
#117=COLOUR_RGB('Medium Weak Red',0.6,0.4,0.4);
#118=COLOUR_RGB('Pale Gray',0.8,0.8,0.8);
#119=AXIS2_PLACEMENT_3D('',#163,#133,#134);
#120=AXIS2_PLACEMENT_3D('',#166,#135,#136);
#121=AXIS2_PLACEMENT_3D('MCS',#167,#137,#138);
#122=AXIS2_PLACEMENT_3D('PCS',#168,#139,#140);
#123=AXIS2_PLACEMENT_3D('',#169,#141,#142);
#124=AXIS2_PLACEMENT_3D('',#171,#143,#144);
#125=AXIS2_PLACEMENT_3D('',#174,#145,#146);
#126=AXIS2_PLACEMENT_3D('',#176,#147,#148);
#127=AXIS2_PLACEMENT_3D('',#178,#149,#150);
#128=AXIS2_PLACEMENT_3D('',#179,#151,#152);
#129=AXIS2_PLACEMENT_3D('',#181,#154,#155);
#130=AXIS2_PLACEMENT_3D('',#183,#157,#158);
#131=AXIS2_PLACEMENT_3D('',#184,#159,#160);
#132=AXIS2_PLACEMENT_3D('',#185,#161,#162);
#133=DIRECTION('',(0.,0.,1.));
#134=DIRECTION('',(1.,0.,0.));
#135=DIRECTION('',(0.,0.,-1.));
#136=DIRECTION('',(1.,0.,0.));
#137=DIRECTION('',(0.,0.,1.));
#138=DIRECTION('',(1.,0.,0.));
#139=DIRECTION('',(0.,0.,1.));
#140=DIRECTION('',(1.,0.,0.));
#141=DIRECTION('',(0.,0.,1.));
#142=DIRECTION('',(1.,0.,0.));
#143=DIRECTION('',(0.,0.,-1.));
#144=DIRECTION('',(-1.,0.,0.));
#145=DIRECTION('',(-0.5,0.,-0.866025403784438));
#146=DIRECTION('',(-0.866025403784438,0.,0.5));
#147=DIRECTION('',(0.,0.,-1.));
#148=DIRECTION('',(-1.,0.,0.));
#149=DIRECTION('',(0.5,0.,-0.866025403784438));
#150=DIRECTION('',(0.866025403784438,0.,0.5));
#151=DIRECTION('',(0.,0.,1.));
#152=DIRECTION('',(1.,0.,2.61252160135531E-17));
#153=DIRECTION('',(0.,-1.,0.));
#154=DIRECTION('',(-0.5,0.,-0.866025403784438));
#155=DIRECTION('',(-0.866025403784439,0.,0.5));
#156=DIRECTION('',(0.,1.,0.));
#157=DIRECTION('',(0.5,0.,-0.866025403784438));
#158=DIRECTION('',(-0.866025403784439,0.,-0.5));
#159=DIRECTION('',(0.,0.,1.));
#160=DIRECTION('',(1.,0.,0.));
#161=DIRECTION('',(0.,0.,-1.));
#162=DIRECTION('',(-1.,0.,0.));
#163=CARTESIAN_POINT('',(0.,0.,0.));
#164=CARTESIAN_POINT('MCS',(0.,0.,0.));
#165=CARTESIAN_POINT('PCS',(-9.525,-9.525,0.));
#166=CARTESIAN_POINT('',(0.,0.,0.));
#167=CARTESIAN_POINT('',(0.,0.,0.));
#168=CARTESIAN_POINT('',(-9.525,-9.525,0.));
#169=CARTESIAN_POINT('',(0.,0.,0.));
#170=CARTESIAN_POINT('',(9.525,0.,0.));
#171=CARTESIAN_POINT('',(0.,0.,-9.86));
#172=CARTESIAN_POINT('',(-0.249694414394186,8.31059400199507,-9.86));
#173=CARTESIAN_POINT('',(0.249694414394187,8.31059400199507,-9.86));
#174=CARTESIAN_POINT('',(-0.591117130684249,0.,-9.66287950284248));
#175=CARTESIAN_POINT('',(-0.249694414394186,-8.31059400199507,-9.86));
#176=CARTESIAN_POINT('',(0.,0.,-9.86));
#177=CARTESIAN_POINT('',(0.249694414394187,-8.31059400199507,-9.86));
#178=CARTESIAN_POINT('',(0.591117130684249,0.,-9.66287950284248));
#179=CARTESIAN_POINT('',(0.,0.,4.));
#180=CARTESIAN_POINT('',(-0.249694414394186,-15.,-9.86));
#181=CARTESIAN_POINT('',(0.,-15.,-10.0041611373656));
#182=CARTESIAN_POINT('',(0.249694414394187,-15.,-9.86));
#183=CARTESIAN_POINT('',(12.9903810567666,-15.,-2.50416113736563));
#184=CARTESIAN_POINT('',(0.,0.,0.));
#185=CARTESIAN_POINT('',(0.,0.,-9.86));
#186=MECHANICAL_DESIGN_GEOMETRIC_PRESENTATION_REPRESENTATION('',(#101,#102,
#103,#104,#105,#106),#187);
#187=(
GEOMETRIC_REPRESENTATION_CONTEXT(3)
GLOBAL_UNCERTAINTY_ASSIGNED_CONTEXT((#188))
GLOBAL_UNIT_ASSIGNED_CONTEXT((#194,#190,#189))
REPRESENTATION_CONTEXT('aaa318468_b','TOP_LEVEL_ASSEMBLY_PART')
);
#188=UNCERTAINTY_MEASURE_WITH_UNIT(LENGTH_MEASURE(2.E-5),#194,
'DISTANCE_ACCURACY_VALUE','Maximum Tolerance applied to model');
#189=(
NAMED_UNIT(*)
SI_UNIT($,.STERADIAN.)
SOLID_ANGLE_UNIT()
);
#190=(
CONVERSION_BASED_UNIT('DEGREE',#192)
NAMED_UNIT(#191)
PLANE_ANGLE_UNIT()
);
#191=DIMENSIONAL_EXPONENTS(0.,0.,0.,0.,0.,0.,0.);
#192=PLANE_ANGLE_MEASURE_WITH_UNIT(PLANE_ANGLE_MEASURE(0.0174532925),#193);
#193=(
NAMED_UNIT(*)
PLANE_ANGLE_UNIT()
SI_UNIT($,.RADIAN.)
);
#194=(
LENGTH_UNIT()
NAMED_UNIT(*)
SI_UNIT(.MILLI.,.METRE.)
);
ENDSEC;
END-ISO-10303-21;
