ISO-10303-21;
HEADER;
/* Generated by software containing ST-Developer
 * from STEP Tools, Inc. (www.steptools.com) 
 */
/* OPTION: using custom schema-name function */

FILE_DESCRIPTION(
/* description */ (''),
/* implementation_level */ '2;1');

FILE_NAME(
/* name */ 'aaa318392_b.stp',
/* time_stamp */ '2021-06-16T10:15:16+02:00',
/* author */ (''),
/* organization */ ('SMS'),
/* preprocessor_version */ 'ST-DEVELOPER v16.7',
/* originating_system */ 'SIEMENS PLM Software NX 12.0',
/* authorisation */ '');

FILE_SCHEMA (('AUTOMOTIVE_DESIGN { 1 0 10303 214 3 1 1 1 }'));
ENDSEC;

DATA;
#10=CONSTRUCTIVE_GEOMETRY_REPRESENTATION_RELATIONSHIP(
'supplemental geometry','',#26,#11);
#11=CONSTRUCTIVE_GEOMETRY_REPRESENTATION('supplemental geometry',(#126,
#127),#193);
#12=GEOMETRICALLY_BOUNDED_WIREFRAME_SHAPE_REPRESENTATION(
'AAA318392_B-None',(#27),#193);
#13=SHAPE_REPRESENTATION_RELATIONSHIP('None',
'relationship between AAA318392_B-None and AAA318392_B-None',#26,#15);
#14=SHAPE_REPRESENTATION_RELATIONSHIP('None',
'relationship between AAA318392_B-None and AAA318392_B-None',#26,#12);
#15=ADVANCED_BREP_SHAPE_REPRESENTATION('AAA318392_B-None',(#33),#193);
#16=SHAPE_DEFINITION_REPRESENTATION(#17,#26);
#17=PRODUCT_DEFINITION_SHAPE('','',#18);
#18=PRODUCT_DEFINITION(' ','',#20,#19);
#19=PRODUCT_DEFINITION_CONTEXT('part definition',#25,'design');
#20=PRODUCT_DEFINITION_FORMATION_WITH_SPECIFIED_SOURCE(' ',' ',#22,
 .NOT_KNOWN.);
#21=PRODUCT_RELATED_PRODUCT_CATEGORY('part','',(#22));
#22=PRODUCT('AAA318392_B','AAA318392_B','',(#23));
#23=PRODUCT_CONTEXT(' ',#25,'mechanical');
#24=APPLICATION_PROTOCOL_DEFINITION('international standard',
'automotive_design',2010,#25);
#25=APPLICATION_CONTEXT(
'core data for automotive mechanical design processes');
#26=SHAPE_REPRESENTATION('AAA318392_B-None',(#124),#193);
#27=GEOMETRIC_CURVE_SET('None',(#169,#170,#171,#95));
#28=SURFACE_STYLE_USAGE(.BOTH.,#29);
#29=SURFACE_SIDE_STYLE('',(#30));
#30=SURFACE_STYLE_FILL_AREA(#31);
#31=FILL_AREA_STYLE('',(#32));
#32=FILL_AREA_STYLE_COLOUR('',#100);
#33=MANIFOLD_SOLID_BREP('',#34);
#34=CLOSED_SHELL('',(#47,#48,#49,#50,#51));
#35=PLANE('',#134);
#36=PLANE('',#135);
#37=PLANE('',#136);
#38=PLANE('',#137);
#39=FACE_OUTER_BOUND('',#59,.T.);
#40=FACE_OUTER_BOUND('',#60,.T.);
#41=FACE_OUTER_BOUND('',#61,.T.);
#42=FACE_OUTER_BOUND('',#62,.T.);
#43=LINE('',#186,#45);
#44=LINE('',#188,#46);
#45=VECTOR('',#158,1.);
#46=VECTOR('',#161,1.);
#47=ADVANCED_FACE('',(#55,#56),#52,.T.);
#48=ADVANCED_FACE('',(#39),#35,.F.);
#49=ADVANCED_FACE('',(#40),#36,.T.);
#50=ADVANCED_FACE('',(#41),#37,.T.);
#51=ADVANCED_FACE('',(#42),#38,.T.);
#52=CONICAL_SURFACE('',#133,8.42863824361162,7.00000000000001);
#53=ELLIPSE('',#130,7.78617984878013,6.72606516768434);
#54=ELLIPSE('',#132,7.78617984878013,6.72606516768434);
#55=FACE_BOUND('',#57,.T.);
#56=FACE_BOUND('',#58,.T.);
#57=EDGE_LOOP('',(#63));
#58=EDGE_LOOP('',(#64,#65,#66,#67));
#59=EDGE_LOOP('',(#68,#69));
#60=EDGE_LOOP('',(#70,#71));
#61=EDGE_LOOP('',(#72));
#62=EDGE_LOOP('',(#73,#74,#75,#76));
#63=ORIENTED_EDGE('',*,*,#82,.F.);
#64=ORIENTED_EDGE('',*,*,#83,.F.);
#65=ORIENTED_EDGE('',*,*,#84,.T.);
#66=ORIENTED_EDGE('',*,*,#85,.F.);
#67=ORIENTED_EDGE('',*,*,#86,.F.);
#68=ORIENTED_EDGE('',*,*,#87,.F.);
#69=ORIENTED_EDGE('',*,*,#84,.F.);
#70=ORIENTED_EDGE('',*,*,#86,.T.);
#71=ORIENTED_EDGE('',*,*,#88,.T.);
#72=ORIENTED_EDGE('',*,*,#82,.T.);
#73=ORIENTED_EDGE('',*,*,#85,.T.);
#74=ORIENTED_EDGE('',*,*,#87,.T.);
#75=ORIENTED_EDGE('',*,*,#83,.T.);
#76=ORIENTED_EDGE('',*,*,#88,.F.);
#77=VERTEX_POINT('',#176);
#78=VERTEX_POINT('',#178);
#79=VERTEX_POINT('',#179);
#80=VERTEX_POINT('',#181);
#81=VERTEX_POINT('',#183);
#82=EDGE_CURVE('',#77,#77,#96,.T.);
#83=EDGE_CURVE('',#78,#79,#97,.T.);
#84=EDGE_CURVE('',#78,#80,#53,.T.);
#85=EDGE_CURVE('',#81,#80,#98,.T.);
#86=EDGE_CURVE('',#79,#81,#54,.T.);
#87=EDGE_CURVE('',#80,#78,#43,.T.);
#88=EDGE_CURVE('',#81,#79,#44,.T.);
#89=CURVE_STYLE('',#92,POSITIVE_LENGTH_MEASURE(0.18),#123);
#90=CURVE_STYLE('',#93,POSITIVE_LENGTH_MEASURE(0.18),#99);
#91=CURVE_STYLE('',#94,POSITIVE_LENGTH_MEASURE(0.18),#99);
#92=DRAUGHTING_PRE_DEFINED_CURVE_FONT('continuous');
#93=DRAUGHTING_PRE_DEFINED_CURVE_FONT('continuous');
#94=DRAUGHTING_PRE_DEFINED_CURVE_FONT('continuous');
#95=CIRCLE('CUTTING EDGE LINE',#125,7.9375);
#96=CIRCLE('',#128,7.9375);
#97=CIRCLE('',#129,6.72684422949736);
#98=CIRCLE('',#131,6.72684422949736);
#99=COLOUR_RGB('Medium Weak Red',0.6,0.4,0.4);
#100=COLOUR_RGB('Gray',0.40013733119707,0.40013733119707,0.40013733119707);
#101=PRESENTATION_LAYER_ASSIGNMENT('1','Layer 1',(#169,#170,#171,#95,#126,
#127,#33));
#102=STYLED_ITEM('',(#109),#169);
#103=STYLED_ITEM('',(#110),#170);
#104=STYLED_ITEM('',(#111),#171);
#105=STYLED_ITEM('',(#112),#95);
#106=STYLED_ITEM('',(#113),#126);
#107=STYLED_ITEM('',(#114),#127);
#108=STYLED_ITEM('',(#115),#33);
#109=PRESENTATION_STYLE_ASSIGNMENT((#116));
#110=PRESENTATION_STYLE_ASSIGNMENT((#117));
#111=PRESENTATION_STYLE_ASSIGNMENT((#118));
#112=PRESENTATION_STYLE_ASSIGNMENT((#89));
#113=PRESENTATION_STYLE_ASSIGNMENT((#90));
#114=PRESENTATION_STYLE_ASSIGNMENT((#91));
#115=PRESENTATION_STYLE_ASSIGNMENT((#28));
#116=POINT_STYLE('',#119,POSITIVE_LENGTH_MEASURE(3.),#122);
#117=POINT_STYLE('',#120,POSITIVE_LENGTH_MEASURE(3.),#99);
#118=POINT_STYLE('',#121,POSITIVE_LENGTH_MEASURE(3.),#99);
#119=PRE_DEFINED_POINT_MARKER_SYMBOL('plus');
#120=PRE_DEFINED_POINT_MARKER_SYMBOL('plus');
#121=PRE_DEFINED_POINT_MARKER_SYMBOL('plus');
#122=DRAUGHTING_PRE_DEFINED_COLOUR('white');
#123=DRAUGHTING_PRE_DEFINED_COLOUR('blue');
#124=AXIS2_PLACEMENT_3D('',#168,#138,#139);
#125=AXIS2_PLACEMENT_3D('',#172,#140,#141);
#126=AXIS2_PLACEMENT_3D('MCS',#173,#142,#143);
#127=AXIS2_PLACEMENT_3D('PCS',#174,#144,#145);
#128=AXIS2_PLACEMENT_3D('',#175,#146,#147);
#129=AXIS2_PLACEMENT_3D('',#177,#148,#149);
#130=AXIS2_PLACEMENT_3D('',#180,#150,#151);
#131=AXIS2_PLACEMENT_3D('',#182,#152,#153);
#132=AXIS2_PLACEMENT_3D('',#184,#154,#155);
#133=AXIS2_PLACEMENT_3D('',#185,#156,#157);
#134=AXIS2_PLACEMENT_3D('',#187,#159,#160);
#135=AXIS2_PLACEMENT_3D('',#189,#162,#163);
#136=AXIS2_PLACEMENT_3D('',#190,#164,#165);
#137=AXIS2_PLACEMENT_3D('',#191,#166,#167);
#138=DIRECTION('',(0.,0.,1.));
#139=DIRECTION('',(1.,0.,0.));
#140=DIRECTION('',(0.,0.,-1.));
#141=DIRECTION('',(1.,0.,0.));
#142=DIRECTION('',(0.,0.,1.));
#143=DIRECTION('',(1.,0.,0.));
#144=DIRECTION('',(0.,0.,1.));
#145=DIRECTION('',(1.,0.,0.));
#146=DIRECTION('',(0.,0.,1.));
#147=DIRECTION('',(1.,0.,0.));
#148=DIRECTION('',(0.,0.,-1.));
#149=DIRECTION('',(-1.,0.,0.));
#150=DIRECTION('',(0.5,0.,0.866025403784438));
#151=DIRECTION('',(-0.866025403784438,0.,0.5));
#152=DIRECTION('',(0.,0.,-1.));
#153=DIRECTION('',(-1.,0.,0.));
#154=DIRECTION('',(0.5,0.,-0.866025403784438));
#155=DIRECTION('',(0.866025403784438,0.,0.5));
#156=DIRECTION('',(0.,0.,1.));
#157=DIRECTION('',(1.,0.,3.30516191827578E-17));
#158=DIRECTION('',(0.,1.,0.));
#159=DIRECTION('',(0.5,0.,0.866025403784438));
#160=DIRECTION('',(0.866025403784439,0.,-0.5));
#161=DIRECTION('',(0.,1.,0.));
#162=DIRECTION('',(0.5,0.,-0.866025403784438));
#163=DIRECTION('',(-0.866025403784439,0.,-0.5));
#164=DIRECTION('',(0.,0.,1.));
#165=DIRECTION('',(1.,0.,0.));
#166=DIRECTION('',(0.,0.,-1.));
#167=DIRECTION('',(-1.,0.,0.));
#168=CARTESIAN_POINT('',(0.,0.,0.));
#169=CARTESIAN_POINT('Point2',(-7.9375,-7.9375,0.));
#170=CARTESIAN_POINT('MCS',(0.,0.,0.));
#171=CARTESIAN_POINT('PCS',(-7.9375,-7.9375,0.));
#172=CARTESIAN_POINT('',(0.,0.,0.));
#173=CARTESIAN_POINT('',(0.,0.,0.));
#174=CARTESIAN_POINT('',(-7.9375,-7.9375,0.));
#175=CARTESIAN_POINT('',(0.,0.,0.));
#176=CARTESIAN_POINT('',(7.9375,0.,0.));
#177=CARTESIAN_POINT('',(0.,0.,-9.86));
#178=CARTESIAN_POINT('',(-0.24969441439419,6.72220841594057,-9.86));
#179=CARTESIAN_POINT('',(0.249694414394186,6.72220841594058,-9.86));
#180=CARTESIAN_POINT('',(-0.478011336921757,0.,-9.72818116331816));
#181=CARTESIAN_POINT('',(-0.24969441439419,-6.72220841594057,-9.86));
#182=CARTESIAN_POINT('',(0.,0.,-9.86));
#183=CARTESIAN_POINT('',(0.249694414394186,-6.72220841594057,-9.86));
#184=CARTESIAN_POINT('',(0.478011336921757,0.,-9.72818116331816));
#185=CARTESIAN_POINT('',(0.,0.,4.));
#186=CARTESIAN_POINT('',(-0.249694414394186,-15.,-9.86));
#187=CARTESIAN_POINT('',(-6.92820323027551,-15.,-6.00416113736563));
#188=CARTESIAN_POINT('',(0.249694414394186,-15.,-9.86));
#189=CARTESIAN_POINT('',(6.92820323027551,-15.,-6.00416113736563));
#190=CARTESIAN_POINT('',(0.,0.,0.));
#191=CARTESIAN_POINT('',(0.,0.,-9.86));
#192=MECHANICAL_DESIGN_GEOMETRIC_PRESENTATION_REPRESENTATION('',(#102,#103,
#104,#105,#106,#107,#108),#193);
#193=(
GEOMETRIC_REPRESENTATION_CONTEXT(3)
GLOBAL_UNCERTAINTY_ASSIGNED_CONTEXT((#194))
GLOBAL_UNIT_ASSIGNED_CONTEXT((#200,#196,#195))
REPRESENTATION_CONTEXT('aaa318392_b','TOP_LEVEL_ASSEMBLY_PART')
);
#194=UNCERTAINTY_MEASURE_WITH_UNIT(LENGTH_MEASURE(2.E-5),#200,
'DISTANCE_ACCURACY_VALUE','Maximum Tolerance applied to model');
#195=(
NAMED_UNIT(*)
SI_UNIT($,.STERADIAN.)
SOLID_ANGLE_UNIT()
);
#196=(
CONVERSION_BASED_UNIT('DEGREE',#198)
NAMED_UNIT(#197)
PLANE_ANGLE_UNIT()
);
#197=DIMENSIONAL_EXPONENTS(0.,0.,0.,0.,0.,0.,0.);
#198=PLANE_ANGLE_MEASURE_WITH_UNIT(PLANE_ANGLE_MEASURE(0.0174532925),#199);
#199=(
NAMED_UNIT(*)
PLANE_ANGLE_UNIT()
SI_UNIT($,.RADIAN.)
);
#200=(
LENGTH_UNIT()
NAMED_UNIT(*)
SI_UNIT(.MILLI.,.METRE.)
);
ENDSEC;
END-ISO-10303-21;
