ISO-10303-21;
HEADER;
/* Generated by software containing ST-Developer
 * from STEP Tools, Inc. (www.steptools.com) 
 */
/* OPTION: using custom schema-name function */

FILE_DESCRIPTION(
/* description */ (''),
/* implementation_level */ '2;1');

FILE_NAME(
/* name */ '1508153442329.stp',
/* time_stamp */ '2017-10-16T13:30:48+02:00',
/* author */ (''),
/* organization */ ('SMS'),
/* preprocessor_version */ 'ST-DEVELOPER v15',
/* originating_system */ 'SIEMENS PLM Software NX 8.5',
/* authorisation */ '');

FILE_SCHEMA (('AUTOMOTIVE_DESIGN { 1 0 10303 214 3 1 1 1 }'));
ENDSEC;

DATA;
#10=CONSTRUCTIVE_GEOMETRY_REPRESENTATION_RELATIONSHIP(
'supplemental geometry','',#24,#11);
#11=CONSTRUCTIVE_GEOMETRY_REPRESENTATION('supplemental geometry',(#298,
#299,#300),#570);
#12=SHAPE_REPRESENTATION_RELATIONSHIP('None',
'relationship between 201207471MOD000_00-None and 201207471MOD000_00-N
one',#24,#13);
#13=ADVANCED_BREP_SHAPE_REPRESENTATION('201207471MOD000_00-None',(#30),
#570);
#14=SHAPE_DEFINITION_REPRESENTATION(#15,#24);
#15=PRODUCT_DEFINITION_SHAPE('','',#16);
#16=PRODUCT_DEFINITION(' ','',#18,#17);
#17=PRODUCT_DEFINITION_CONTEXT('part definition',#23,'design');
#18=PRODUCT_DEFINITION_FORMATION_WITH_SPECIFIED_SOURCE(' ',' ',#20,
 .NOT_KNOWN.);
#19=PRODUCT_RELATED_PRODUCT_CATEGORY('part','',(#20));
#20=PRODUCT('201207471MOD000_00','201207471MOD000_00',' ',(#21));
#21=PRODUCT_CONTEXT(' ',#23,'mechanical');
#22=APPLICATION_PROTOCOL_DEFINITION('international standard',
'automotive_design',2010,#23);
#23=APPLICATION_CONTEXT(
'core data for automotive mechanical design processes');
#24=SHAPE_REPRESENTATION('201207471MOD000_00-None',(#297),#570);
#25=SURFACE_STYLE_USAGE(.BOTH.,#26);
#26=SURFACE_SIDE_STYLE('',(#27));
#27=SURFACE_STYLE_FILL_AREA(#28);
#28=FILL_AREA_STYLE('',(#29));
#29=FILL_AREA_STYLE_COLOUR('',#293);
#30=MANIFOLD_SOLID_BREP('TURN_SOLID',#31);
#31=CLOSED_SHELL('',(#58,#59,#60,#61,#62,#63,#64,#65,#66,#67,#68,#69,#70,
#71,#72,#73,#74,#75));
#32=TOROIDAL_SURFACE('',#333,23.3803462688243,1.2);
#33=(
BOUNDED_SURFACE()
B_SPLINE_SURFACE(3,3,((#536,#537,#538,#539,#540,#541,#542),(#543,#544,#545,
#546,#547,#548,#549),(#550,#551,#552,#553,#554,#555,#556),(#557,#558,#559,
#560,#561,#562,#563)),.UNSPECIFIED.,.F.,.T.,.F.)
B_SPLINE_SURFACE_WITH_KNOTS((4,4),(1,3,3,3,1),(0.,1.),(-0.5,0.,0.5,1.,1.5),
 .UNSPECIFIED.)
GEOMETRIC_REPRESENTATION_ITEM()
RATIONAL_B_SPLINE_SURFACE(((1.,0.333333333333333,0.333333333333333,1.,0.333333333333333,
0.333333333333333,1.),(0.989871835341472,0.329957278447157,0.329957278447157,
0.989871835341472,0.329957278447157,0.329957278447157,0.989871835341472),
(0.989871835341472,0.329957278447157,0.329957278447157,0.989871835341472,
0.329957278447157,0.329957278447157,0.989871835341472),(1.,0.333333333333333,
0.333333333333333,1.,0.333333333333333,0.333333333333333,1.)))
REPRESENTATION_ITEM('')
SURFACE()
);
#34=CONICAL_SURFACE('',#310,25.,45.0000000000001);
#35=CONICAL_SURFACE('',#313,25.,45.0000000000001);
#36=CONICAL_SURFACE('',#316,25.,45.0000000000001);
#37=CONICAL_SURFACE('',#319,25.,45.0000000000001);
#38=CONICAL_SURFACE('',#321,21.98925,45.0000000000001);
#39=CONICAL_SURFACE('',#329,31.5,19.9999999999999);
#40=CONICAL_SURFACE('',#330,31.5,45.0000000000002);
#41=PLANE('',#308);
#42=PLANE('',#311);
#43=PLANE('',#314);
#44=PLANE('',#317);
#45=PLANE('',#320);
#46=PLANE('',#326);
#47=PLANE('',#332);
#48=FACE_OUTER_BOUND('',#96,.T.);
#49=FACE_OUTER_BOUND('',#97,.T.);
#50=FACE_OUTER_BOUND('',#98,.T.);
#51=FACE_OUTER_BOUND('',#99,.T.);
#52=FACE_OUTER_BOUND('',#100,.T.);
#53=FACE_OUTER_BOUND('',#101,.T.);
#54=FACE_OUTER_BOUND('',#102,.T.);
#55=FACE_OUTER_BOUND('',#103,.T.);
#56=FACE_OUTER_BOUND('',#104,.T.);
#57=FACE_OUTER_BOUND('',#117,.T.);
#58=ADVANCED_FACE('CU_FL_CY_SU_1',(#78,#79),#76,.T.);
#59=ADVANCED_FACE('CU_FL_CY_SU_3',(#48),#41,.F.);
#60=ADVANCED_FACE('CU_FA_3_SU_2',(#49),#34,.F.);
#61=ADVANCED_FACE('CU_FA_3_SU_1',(#50),#42,.T.);
#62=ADVANCED_FACE('CU_FA_2_SU_2',(#51),#35,.F.);
#63=ADVANCED_FACE('CU_FA_2_SU_1',(#52),#43,.T.);
#64=ADVANCED_FACE('CU_FA_1_SU_2',(#53),#36,.F.);
#65=ADVANCED_FACE('CU_FA_1_SU_1',(#54),#44,.T.);
#66=ADVANCED_FACE('CU_FA_4_SU_2',(#55),#37,.F.);
#67=ADVANCED_FACE('CU_FA_4_SU_1',(#56),#45,.T.);
#68=ADVANCED_FACE('CU_FL_CY_SU_2',(#80,#81),#38,.T.);
#69=ADVANCED_FACE('AR_BY_CN_IB_SU_3',(#82,#83),#77,.T.);
#70=ADVANCED_FACE('AR_BY_CN_IB_SU_4',(#84,#85),#46,.T.);
#71=ADVANCED_FACE('AR_BY_CN_IB_SU_2',(#86,#87),#39,.T.);
#72=ADVANCED_FACE('AR_BY_CN_IB_SU_21',(#88,#89),#33,.T.);
#73=ADVANCED_FACE('',(#90,#91),#40,.T.);
#74=ADVANCED_FACE('AR_BY_CN_SU_1_1',(#57),#47,.F.);
#75=ADVANCED_FACE('AR_BY_CN_SU_11',(#92,#93),#32,.T.);
#76=CYLINDRICAL_SURFACE('',#306,24.98925);
#77=CYLINDRICAL_SURFACE('',#324,31.5);
#78=FACE_BOUND('',#94,.T.);
#79=FACE_BOUND('',#95,.T.);
#80=FACE_BOUND('',#105,.T.);
#81=FACE_BOUND('',#106,.T.);
#82=FACE_BOUND('',#107,.T.);
#83=FACE_BOUND('',#108,.T.);
#84=FACE_BOUND('',#109,.T.);
#85=FACE_BOUND('',#110,.T.);
#86=FACE_BOUND('',#111,.T.);
#87=FACE_BOUND('',#112,.T.);
#88=FACE_BOUND('',#113,.T.);
#89=FACE_BOUND('',#114,.T.);
#90=FACE_BOUND('',#115,.T.);
#91=FACE_BOUND('',#116,.T.);
#92=FACE_BOUND('',#118,.T.);
#93=FACE_BOUND('',#119,.T.);
#94=EDGE_LOOP('',(#144,#145,#146,#147,#148,#149,#150,#151,#152,#153,#154,
#155,#156,#157,#158,#159));
#95=EDGE_LOOP('',(#160));
#96=EDGE_LOOP('',(#161));
#97=EDGE_LOOP('',(#162,#163));
#98=EDGE_LOOP('',(#164,#165,#166,#167));
#99=EDGE_LOOP('',(#168,#169));
#100=EDGE_LOOP('',(#170,#171,#172,#173));
#101=EDGE_LOOP('',(#174,#175));
#102=EDGE_LOOP('',(#176,#177,#178,#179));
#103=EDGE_LOOP('',(#180,#181));
#104=EDGE_LOOP('',(#182,#183,#184,#185));
#105=EDGE_LOOP('',(#186,#187,#188,#189,#190,#191,#192,#193));
#106=EDGE_LOOP('',(#194));
#107=EDGE_LOOP('',(#195));
#108=EDGE_LOOP('',(#196));
#109=EDGE_LOOP('',(#197));
#110=EDGE_LOOP('',(#198));
#111=EDGE_LOOP('',(#199));
#112=EDGE_LOOP('',(#200));
#113=EDGE_LOOP('',(#201));
#114=EDGE_LOOP('',(#202));
#115=EDGE_LOOP('',(#203));
#116=EDGE_LOOP('',(#204));
#117=EDGE_LOOP('',(#205));
#118=EDGE_LOOP('',(#206));
#119=EDGE_LOOP('',(#207));
#120=B_SPLINE_CURVE_WITH_KNOTS('',3,(#425,#426,#427,#428,#429,#430,#431,
#432),.UNSPECIFIED.,.F.,.F.,(4,2,2,4),(0.,0.25,0.5,1.),.UNSPECIFIED.);
#121=B_SPLINE_CURVE_WITH_KNOTS('',3,(#440,#441,#442,#443,#444,#445,#446,
#447),.UNSPECIFIED.,.F.,.F.,(4,2,2,4),(0.,0.25,0.5,1.),.UNSPECIFIED.);
#122=B_SPLINE_CURVE_WITH_KNOTS('',3,(#455,#456,#457,#458,#459,#460,#461,
#462),.UNSPECIFIED.,.F.,.F.,(4,2,2,4),(0.,0.25,0.5,1.),.UNSPECIFIED.);
#123=B_SPLINE_CURVE_WITH_KNOTS('',3,(#470,#471,#472,#473,#474,#475,#476,
#477),.UNSPECIFIED.,.F.,.F.,(4,2,2,4),(0.,0.25,0.5,1.),.UNSPECIFIED.);
#124=B_SPLINE_CURVE_WITH_KNOTS('',3,(#488,#489,#490,#491,#492,#493),
 .UNSPECIFIED.,.F.,.F.,(4,2,4),(0.,0.5,1.),.UNSPECIFIED.);
#125=B_SPLINE_CURVE_WITH_KNOTS('',3,(#497,#498,#499,#500,#501,#502),
 .UNSPECIFIED.,.F.,.F.,(4,2,4),(0.,0.5,1.),.UNSPECIFIED.);
#126=B_SPLINE_CURVE_WITH_KNOTS('',3,(#506,#507,#508,#509,#510,#511),
 .UNSPECIFIED.,.F.,.F.,(4,2,4),(0.,0.5,1.),.UNSPECIFIED.);
#127=B_SPLINE_CURVE_WITH_KNOTS('',3,(#515,#516,#517,#518,#519,#520),
 .UNSPECIFIED.,.F.,.F.,(4,2,4),(0.,0.5,1.),.UNSPECIFIED.);
#128=LINE('',#423,#136);
#129=LINE('',#434,#137);
#130=LINE('',#438,#138);
#131=LINE('',#449,#139);
#132=LINE('',#453,#140);
#133=LINE('',#464,#141);
#134=LINE('',#468,#142);
#135=LINE('',#479,#143);
#136=VECTOR('',#344,1.);
#137=VECTOR('',#345,1.);
#138=VECTOR('',#348,1.);
#139=VECTOR('',#349,1.);
#140=VECTOR('',#352,1.);
#141=VECTOR('',#353,1.);
#142=VECTOR('',#356,1.);
#143=VECTOR('',#357,1.);
#144=ORIENTED_EDGE('',*,*,#232,.T.);
#145=ORIENTED_EDGE('',*,*,#233,.F.);
#146=ORIENTED_EDGE('',*,*,#234,.F.);
#147=ORIENTED_EDGE('',*,*,#235,.F.);
#148=ORIENTED_EDGE('',*,*,#236,.T.);
#149=ORIENTED_EDGE('',*,*,#237,.F.);
#150=ORIENTED_EDGE('',*,*,#238,.F.);
#151=ORIENTED_EDGE('',*,*,#239,.F.);
#152=ORIENTED_EDGE('',*,*,#240,.T.);
#153=ORIENTED_EDGE('',*,*,#241,.F.);
#154=ORIENTED_EDGE('',*,*,#242,.F.);
#155=ORIENTED_EDGE('',*,*,#243,.F.);
#156=ORIENTED_EDGE('',*,*,#244,.T.);
#157=ORIENTED_EDGE('',*,*,#245,.F.);
#158=ORIENTED_EDGE('',*,*,#246,.F.);
#159=ORIENTED_EDGE('',*,*,#247,.F.);
#160=ORIENTED_EDGE('',*,*,#248,.T.);
#161=ORIENTED_EDGE('',*,*,#249,.F.);
#162=ORIENTED_EDGE('',*,*,#246,.T.);
#163=ORIENTED_EDGE('',*,*,#250,.T.);
#164=ORIENTED_EDGE('',*,*,#247,.T.);
#165=ORIENTED_EDGE('',*,*,#250,.F.);
#166=ORIENTED_EDGE('',*,*,#245,.T.);
#167=ORIENTED_EDGE('',*,*,#251,.F.);
#168=ORIENTED_EDGE('',*,*,#242,.T.);
#169=ORIENTED_EDGE('',*,*,#252,.T.);
#170=ORIENTED_EDGE('',*,*,#243,.T.);
#171=ORIENTED_EDGE('',*,*,#252,.F.);
#172=ORIENTED_EDGE('',*,*,#241,.T.);
#173=ORIENTED_EDGE('',*,*,#253,.F.);
#174=ORIENTED_EDGE('',*,*,#238,.T.);
#175=ORIENTED_EDGE('',*,*,#254,.T.);
#176=ORIENTED_EDGE('',*,*,#239,.T.);
#177=ORIENTED_EDGE('',*,*,#254,.F.);
#178=ORIENTED_EDGE('',*,*,#237,.T.);
#179=ORIENTED_EDGE('',*,*,#255,.F.);
#180=ORIENTED_EDGE('',*,*,#234,.T.);
#181=ORIENTED_EDGE('',*,*,#256,.T.);
#182=ORIENTED_EDGE('',*,*,#235,.T.);
#183=ORIENTED_EDGE('',*,*,#256,.F.);
#184=ORIENTED_EDGE('',*,*,#233,.T.);
#185=ORIENTED_EDGE('',*,*,#257,.F.);
#186=ORIENTED_EDGE('',*,*,#236,.F.);
#187=ORIENTED_EDGE('',*,*,#257,.T.);
#188=ORIENTED_EDGE('',*,*,#232,.F.);
#189=ORIENTED_EDGE('',*,*,#251,.T.);
#190=ORIENTED_EDGE('',*,*,#244,.F.);
#191=ORIENTED_EDGE('',*,*,#253,.T.);
#192=ORIENTED_EDGE('',*,*,#240,.F.);
#193=ORIENTED_EDGE('',*,*,#255,.T.);
#194=ORIENTED_EDGE('',*,*,#249,.T.);
#195=ORIENTED_EDGE('',*,*,#258,.T.);
#196=ORIENTED_EDGE('',*,*,#259,.T.);
#197=ORIENTED_EDGE('',*,*,#248,.F.);
#198=ORIENTED_EDGE('',*,*,#260,.T.);
#199=ORIENTED_EDGE('',*,*,#261,.T.);
#200=ORIENTED_EDGE('',*,*,#262,.T.);
#201=ORIENTED_EDGE('',*,*,#258,.F.);
#202=ORIENTED_EDGE('',*,*,#262,.F.);
#203=ORIENTED_EDGE('',*,*,#260,.F.);
#204=ORIENTED_EDGE('',*,*,#259,.F.);
#205=ORIENTED_EDGE('',*,*,#263,.F.);
#206=ORIENTED_EDGE('',*,*,#261,.F.);
#207=ORIENTED_EDGE('',*,*,#263,.T.);
#208=VERTEX_POINT('',#421);
#209=VERTEX_POINT('',#422);
#210=VERTEX_POINT('',#424);
#211=VERTEX_POINT('',#433);
#212=VERTEX_POINT('',#435);
#213=VERTEX_POINT('',#437);
#214=VERTEX_POINT('',#439);
#215=VERTEX_POINT('',#448);
#216=VERTEX_POINT('',#450);
#217=VERTEX_POINT('',#452);
#218=VERTEX_POINT('',#454);
#219=VERTEX_POINT('',#463);
#220=VERTEX_POINT('',#465);
#221=VERTEX_POINT('',#467);
#222=VERTEX_POINT('',#469);
#223=VERTEX_POINT('',#478);
#224=VERTEX_POINT('',#481);
#225=VERTEX_POINT('',#484);
#226=VERTEX_POINT('',#524);
#227=VERTEX_POINT('',#526);
#228=VERTEX_POINT('',#529);
#229=VERTEX_POINT('',#532);
#230=VERTEX_POINT('',#534);
#231=VERTEX_POINT('',#566);
#232=EDGE_CURVE('',#208,#209,#264,.T.);
#233=EDGE_CURVE('',#210,#209,#128,.T.);
#234=EDGE_CURVE('',#211,#210,#120,.T.);
#235=EDGE_CURVE('',#212,#211,#129,.T.);
#236=EDGE_CURVE('',#212,#213,#265,.T.);
#237=EDGE_CURVE('',#214,#213,#130,.T.);
#238=EDGE_CURVE('',#215,#214,#121,.T.);
#239=EDGE_CURVE('',#216,#215,#131,.T.);
#240=EDGE_CURVE('',#216,#217,#266,.T.);
#241=EDGE_CURVE('',#218,#217,#132,.T.);
#242=EDGE_CURVE('',#219,#218,#122,.T.);
#243=EDGE_CURVE('',#220,#219,#133,.T.);
#244=EDGE_CURVE('',#220,#221,#267,.T.);
#245=EDGE_CURVE('',#222,#221,#134,.T.);
#246=EDGE_CURVE('',#223,#222,#123,.T.);
#247=EDGE_CURVE('',#208,#223,#135,.T.);
#248=EDGE_CURVE('',#224,#224,#268,.T.);
#249=EDGE_CURVE('',#225,#225,#269,.T.);
#250=EDGE_CURVE('',#222,#223,#270,.T.);
#251=EDGE_CURVE('',#208,#221,#124,.T.);
#252=EDGE_CURVE('',#218,#219,#271,.T.);
#253=EDGE_CURVE('',#220,#217,#125,.T.);
#254=EDGE_CURVE('',#214,#215,#272,.T.);
#255=EDGE_CURVE('',#216,#213,#126,.T.);
#256=EDGE_CURVE('',#210,#211,#273,.T.);
#257=EDGE_CURVE('',#212,#209,#127,.T.);
#258=EDGE_CURVE('',#226,#226,#274,.T.);
#259=EDGE_CURVE('',#227,#227,#275,.T.);
#260=EDGE_CURVE('',#228,#228,#276,.T.);
#261=EDGE_CURVE('',#229,#229,#277,.T.);
#262=EDGE_CURVE('',#230,#230,#278,.T.);
#263=EDGE_CURVE('',#231,#231,#279,.T.);
#264=CIRCLE('',#301,24.98925);
#265=CIRCLE('',#302,24.98925);
#266=CIRCLE('',#303,24.98925);
#267=CIRCLE('',#304,24.98925);
#268=CIRCLE('',#305,24.98925);
#269=CIRCLE('',#307,21.98925);
#270=CIRCLE('',#309,25.);
#271=CIRCLE('',#312,25.);
#272=CIRCLE('',#315,25.);
#273=CIRCLE('',#318,25.);
#274=CIRCLE('',#322,31.5);
#275=CIRCLE('',#323,31.5);
#276=CIRCLE('',#325,31.2);
#277=CIRCLE('',#327,24.5079774137674);
#278=CIRCLE('',#328,30.2938524157182);
#279=CIRCLE('',#331,23.3803462688243);
#280=PRESENTATION_LAYER_ASSIGNMENT('1','Layer 1',(#298,#299,#300,#30));
#281=STYLED_ITEM('',(#285),#298);
#282=STYLED_ITEM('',(#286),#299);
#283=STYLED_ITEM('',(#287),#300);
#284=STYLED_ITEM('',(#288),#30);
#285=PRESENTATION_STYLE_ASSIGNMENT((#289));
#286=PRESENTATION_STYLE_ASSIGNMENT((#290));
#287=PRESENTATION_STYLE_ASSIGNMENT((#291));
#288=PRESENTATION_STYLE_ASSIGNMENT((#25));
#289=CURVE_STYLE('',#294,POSITIVE_LENGTH_MEASURE(0.13),#292);
#290=CURVE_STYLE('',#295,POSITIVE_LENGTH_MEASURE(0.13),#292);
#291=CURVE_STYLE('',#296,POSITIVE_LENGTH_MEASURE(0.13),#292);
#292=COLOUR_RGB('Strong Emerald',0.,0.803921568627451,0.525490196078431);
#293=COLOUR_RGB('TLS_NOCUT',0.499992370489052,0.499992370489052,0.499992370489052);
#294=DRAUGHTING_PRE_DEFINED_CURVE_FONT('continuous');
#295=DRAUGHTING_PRE_DEFINED_CURVE_FONT('continuous');
#296=DRAUGHTING_PRE_DEFINED_CURVE_FONT('continuous');
#297=AXIS2_PLACEMENT_3D('',#416,#334,#335);
#298=AXIS2_PLACEMENT_3D('MCS',#417,#336,#337);
#299=AXIS2_PLACEMENT_3D('PCS',#418,#338,#339);
#300=AXIS2_PLACEMENT_3D('CSW',#419,#340,#341);
#301=AXIS2_PLACEMENT_3D('',#420,#342,#343);
#302=AXIS2_PLACEMENT_3D('',#436,#346,#347);
#303=AXIS2_PLACEMENT_3D('',#451,#350,#351);
#304=AXIS2_PLACEMENT_3D('',#466,#354,#355);
#305=AXIS2_PLACEMENT_3D('',#480,#358,#359);
#306=AXIS2_PLACEMENT_3D('',#482,#360,#361);
#307=AXIS2_PLACEMENT_3D('',#483,#362,#363);
#308=AXIS2_PLACEMENT_3D('',#485,#364,#365);
#309=AXIS2_PLACEMENT_3D('',#486,#366,#367);
#310=AXIS2_PLACEMENT_3D('',#487,#368,#369);
#311=AXIS2_PLACEMENT_3D('',#494,#370,#371);
#312=AXIS2_PLACEMENT_3D('',#495,#372,#373);
#313=AXIS2_PLACEMENT_3D('',#496,#374,#375);
#314=AXIS2_PLACEMENT_3D('',#503,#376,#377);
#315=AXIS2_PLACEMENT_3D('',#504,#378,#379);
#316=AXIS2_PLACEMENT_3D('',#505,#380,#381);
#317=AXIS2_PLACEMENT_3D('',#512,#382,#383);
#318=AXIS2_PLACEMENT_3D('',#513,#384,#385);
#319=AXIS2_PLACEMENT_3D('',#514,#386,#387);
#320=AXIS2_PLACEMENT_3D('',#521,#388,#389);
#321=AXIS2_PLACEMENT_3D('',#522,#390,#391);
#322=AXIS2_PLACEMENT_3D('',#523,#392,#393);
#323=AXIS2_PLACEMENT_3D('',#525,#394,#395);
#324=AXIS2_PLACEMENT_3D('',#527,#396,#397);
#325=AXIS2_PLACEMENT_3D('',#528,#398,#399);
#326=AXIS2_PLACEMENT_3D('',#530,#400,#401);
#327=AXIS2_PLACEMENT_3D('',#531,#402,#403);
#328=AXIS2_PLACEMENT_3D('',#533,#404,#405);
#329=AXIS2_PLACEMENT_3D('',#535,#406,#407);
#330=AXIS2_PLACEMENT_3D('',#564,#408,#409);
#331=AXIS2_PLACEMENT_3D('',#565,#410,#411);
#332=AXIS2_PLACEMENT_3D('',#567,#412,#413);
#333=AXIS2_PLACEMENT_3D('',#568,#414,#415);
#334=DIRECTION('',(0.,0.,1.));
#335=DIRECTION('',(1.,0.,0.));
#336=DIRECTION('',(0.,0.,1.));
#337=DIRECTION('',(1.,0.,0.));
#338=DIRECTION('',(0.,0.,1.));
#339=DIRECTION('',(1.,0.,0.));
#340=DIRECTION('',(0.,0.,1.));
#341=DIRECTION('',(1.,0.,0.));
#342=DIRECTION('',(0.,0.,-1.));
#343=DIRECTION('',(-1.,0.,0.));
#344=DIRECTION('',(0.,0.,1.));
#345=DIRECTION('',(0.,0.,-1.));
#346=DIRECTION('',(0.,0.,-1.));
#347=DIRECTION('',(-1.,0.,0.));
#348=DIRECTION('',(0.,0.,1.));
#349=DIRECTION('',(0.,0.,-1.));
#350=DIRECTION('',(0.,0.,-1.));
#351=DIRECTION('',(-1.,0.,0.));
#352=DIRECTION('',(0.,0.,1.));
#353=DIRECTION('',(0.,0.,-1.));
#354=DIRECTION('',(0.,0.,-1.));
#355=DIRECTION('',(-1.,0.,0.));
#356=DIRECTION('',(0.,0.,1.));
#357=DIRECTION('',(0.,0.,-1.));
#358=DIRECTION('',(-1.34232514610921E-018,0.,1.));
#359=DIRECTION('',(1.,0.,1.34232514610921E-018));
#360=DIRECTION('',(0.,0.,-1.));
#361=DIRECTION('',(-1.,0.,0.));
#362=DIRECTION('',(0.,0.,-1.));
#363=DIRECTION('',(-1.,0.,0.));
#364=DIRECTION('',(0.,0.,-1.));
#365=DIRECTION('',(-1.,0.,0.));
#366=DIRECTION('',(0.,1.,-1.11022302462516E-016));
#367=DIRECTION('',(0.,1.38777878078145E-016,1.));
#368=DIRECTION('',(0.,-1.,1.11022302462516E-016));
#369=DIRECTION('',(0.,1.42162704372733E-016,1.));
#370=DIRECTION('',(0.,-1.,1.11022302462516E-016));
#371=DIRECTION('',(0.,1.11022302462516E-016,1.));
#372=DIRECTION('',(-1.,1.17145536458252E-015,-1.11022302462516E-016));
#373=DIRECTION('',(-1.38777878078145E-016,1.23259516440783E-031,1.));
#374=DIRECTION('',(1.,-1.17145536458252E-015,1.11022302462516E-016));
#375=DIRECTION('',(-1.42162704372733E-016,1.47310153795082E-031,1.));
#376=DIRECTION('',(1.,-1.17145536458252E-015,1.11022302462516E-016));
#377=DIRECTION('',(-1.11022302462516E-016,1.29422492262822E-031,1.));
#378=DIRECTION('',(-2.34291072916505E-015,-1.,-1.11022302462516E-016));
#379=DIRECTION('',(-2.46519032881566E-031,-1.38777878078145E-016,1.));
#380=DIRECTION('',(2.34291072916505E-015,1.,1.11022302462516E-016));
#381=DIRECTION('',(-3.06645626267314E-031,-1.42162704372733E-016,1.));
#382=DIRECTION('',(2.34291072916505E-015,1.,1.11022302462516E-016));
#383=DIRECTION('',(-2.58844984525645E-031,-1.11022302462516E-016,1.));
#384=DIRECTION('',(1.,-3.73641069867261E-015,-1.11022302462516E-016));
#385=DIRECTION('',(1.38777878078145E-016,-4.93038065763132E-031,1.));
#386=DIRECTION('',(-1.,3.73641069867261E-015,1.11022302462516E-016));
#387=DIRECTION('',(1.42162704372733E-016,-1.02215208755771E-030,1.));
#388=DIRECTION('',(-1.,3.73641069867261E-015,1.11022302462516E-016));
#389=DIRECTION('',(1.11022302462516E-016,-4.19082355898663E-031,1.));
#390=DIRECTION('',(0.,0.,-1.));
#391=DIRECTION('',(-1.,0.,0.));
#392=DIRECTION('',(-1.34232514610921E-018,0.,1.));
#393=DIRECTION('',(1.,0.,0.));
#394=DIRECTION('',(1.34232514610921E-018,0.,-1.));
#395=DIRECTION('',(1.,0.,1.72095582934207E-018));
#396=DIRECTION('',(1.34232514610921E-018,0.,-1.));
#397=DIRECTION('',(-1.,0.,-1.34232514610921E-018));
#398=DIRECTION('',(-1.34232514610921E-018,0.,1.));
#399=DIRECTION('',(1.,0.,1.34232514610921E-018));
#400=DIRECTION('',(-1.34232514610921E-018,0.,1.));
#401=DIRECTION('',(1.,0.,1.34232514610921E-018));
#402=DIRECTION('',(0.,0.,1.));
#403=DIRECTION('',(1.,0.,0.));
#404=DIRECTION('',(1.34232514610921E-018,0.,-1.));
#405=DIRECTION('',(1.,0.,0.));
#406=DIRECTION('',(-1.34232514610921E-018,0.,1.));
#407=DIRECTION('',(1.,0.,-1.40367457323961E-016));
#408=DIRECTION('',(1.34232514610921E-018,0.,-1.));
#409=DIRECTION('',(-1.,0.,3.2005774262902E-017));
#410=DIRECTION('',(0.,0.,1.));
#411=DIRECTION('',(1.,0.,0.));
#412=DIRECTION('',(0.,0.,1.));
#413=DIRECTION('',(1.,0.,0.));
#414=DIRECTION('',(0.,0.,1.));
#415=DIRECTION('',(1.,0.,0.));
#416=CARTESIAN_POINT('',(0.,0.,0.));
#417=CARTESIAN_POINT('',(0.,0.,0.));
#418=CARTESIAN_POINT('',(0.,0.,0.));
#419=CARTESIAN_POINT('',(0.,0.,-90.));
#420=CARTESIAN_POINT('',(0.,0.,117.));
#421=CARTESIAN_POINT('',(-8.49780063089857,-23.5,117.));
#422=CARTESIAN_POINT('',(-23.5,-8.4978006308985,117.));
#423=CARTESIAN_POINT('',(-23.5,-8.4978006308985,120.));
#424=CARTESIAN_POINT('',(-23.5,-8.49780063089852,11.4885690686956));
#425=CARTESIAN_POINT('',(-23.5,8.49780063089868,11.4885690686956));
#426=CARTESIAN_POINT('',(-23.9353502624128,7.29387368426016,10.5905170620477));
#427=CARTESIAN_POINT('',(-24.311944830079,5.9607212344835,9.84056980564078));
#428=CARTESIAN_POINT('',(-24.8412340676139,3.08446900682174,8.7966167722602));
#429=CARTESIAN_POINT('',(-24.990138253344,1.52540524555349,8.50902379195684));
#430=CARTESIAN_POINT('',(-24.9874609030712,-3.09425843581673,8.51422688362545));
#431=CARTESIAN_POINT('',(-24.3606219887783,-6.11781813722214,9.71325532544851));
#432=CARTESIAN_POINT('',(-23.5,-8.49780063089851,11.4885690686956));
#433=CARTESIAN_POINT('',(-23.5,8.4978006308987,11.4885690686956));
#434=CARTESIAN_POINT('',(-23.5,8.49780063089868,120.));
#435=CARTESIAN_POINT('',(-23.5,8.49780063089868,117.));
#436=CARTESIAN_POINT('',(0.,0.,117.));
#437=CARTESIAN_POINT('',(-8.49780063089853,23.5,117.));
#438=CARTESIAN_POINT('',(-8.49780063089854,23.5,120.));
#439=CARTESIAN_POINT('',(-8.49780063089855,23.5,11.4885690686956));
#440=CARTESIAN_POINT('',(8.49780063089865,23.5,11.4885690686956));
#441=CARTESIAN_POINT('',(7.29387368426013,23.9353502624128,10.5905170620477));
#442=CARTESIAN_POINT('',(5.96072123448348,24.311944830079,9.84056980564078));
#443=CARTESIAN_POINT('',(3.08446900682171,24.8412340676139,8.7966167722602));
#444=CARTESIAN_POINT('',(1.52540524555344,24.990138253344,8.50902379195684));
#445=CARTESIAN_POINT('',(-3.09425843581678,24.9874609030712,8.51422688362546));
#446=CARTESIAN_POINT('',(-6.11781813722218,24.3606219887783,9.71325532544852));
#447=CARTESIAN_POINT('',(-8.49780063089854,23.5,11.4885690686956));
#448=CARTESIAN_POINT('',(8.49780063089867,23.5,11.4885690686956));
#449=CARTESIAN_POINT('',(8.49780063089865,23.5,120.));
#450=CARTESIAN_POINT('',(8.49780063089864,23.5,117.));
#451=CARTESIAN_POINT('',(0.,0.,117.));
#452=CARTESIAN_POINT('',(23.5,8.49780063089854,117.));
#453=CARTESIAN_POINT('',(23.5,8.49780063089856,120.));
#454=CARTESIAN_POINT('',(23.5,8.49780063089858,11.4885690686956));
#455=CARTESIAN_POINT('',(23.5,-8.49780063089863,11.4885690686956));
#456=CARTESIAN_POINT('',(23.9353502624128,-7.29387368426012,10.5905170620477));
#457=CARTESIAN_POINT('',(24.311944830079,-5.96072123448345,9.84056980564078));
#458=CARTESIAN_POINT('',(24.8412340676139,-3.0844690068217,8.7966167722602));
#459=CARTESIAN_POINT('',(24.990138253344,-1.52540524555343,8.50902379195684));
#460=CARTESIAN_POINT('',(24.9874609030712,3.0942584358168,8.51422688362545));
#461=CARTESIAN_POINT('',(24.3606219887783,6.11781813722221,9.71325532544851));
#462=CARTESIAN_POINT('',(23.5,8.49780063089857,11.4885690686956));
#463=CARTESIAN_POINT('',(23.5,-8.49780063089864,11.4885690686956));
#464=CARTESIAN_POINT('',(23.5,-8.49780063089862,120.));
#465=CARTESIAN_POINT('',(23.5,-8.4978006308986,117.));
#466=CARTESIAN_POINT('',(0.,0.,117.));
#467=CARTESIAN_POINT('',(8.49780063089857,-23.5,117.));
#468=CARTESIAN_POINT('',(8.49780063089859,-23.5,120.));
#469=CARTESIAN_POINT('',(8.49780063089861,-23.5,11.4885690686956));
#470=CARTESIAN_POINT('',(-8.4978006308986,-23.5,11.4885690686956));
#471=CARTESIAN_POINT('',(-7.29387368426008,-23.9353502624128,10.5905170620477));
#472=CARTESIAN_POINT('',(-5.96072123448339,-24.311944830079,9.84056980564077));
#473=CARTESIAN_POINT('',(-3.08446900682163,-24.8412340676139,8.79661677226019));
#474=CARTESIAN_POINT('',(-1.52540524555338,-24.990138253344,8.50902379195684));
#475=CARTESIAN_POINT('',(3.09425843581683,-24.9874609030712,8.51422688362546));
#476=CARTESIAN_POINT('',(6.11781813722225,-24.3606219887783,9.71325532544852));
#477=CARTESIAN_POINT('',(8.4978006308986,-23.5,11.4885690686956));
#478=CARTESIAN_POINT('',(-8.49780063089861,-23.5,11.4885690686956));
#479=CARTESIAN_POINT('',(-8.49780063089859,-23.5,120.));
#480=CARTESIAN_POINT('',(0.,0.,0.));
#481=CARTESIAN_POINT('',(24.98925,0.,3.35436986574096E-017));
#482=CARTESIAN_POINT('',(0.,0.,120.));
#483=CARTESIAN_POINT('',(0.,0.,120.));
#484=CARTESIAN_POINT('',(-21.98925,0.,120.));
#485=CARTESIAN_POINT('',(0.,0.,120.));
#486=CARTESIAN_POINT('',(3.67394039744206E-016,-23.5,35.));
#487=CARTESIAN_POINT('',(3.67394039744206E-016,-23.5,35.));
#488=CARTESIAN_POINT('',(-8.49780063089859,-23.5,117.));
#489=CARTESIAN_POINT('',(-5.75343333160759,-23.5,117.933244741932));
#490=CARTESIAN_POINT('',(-2.91915209545244,-23.5,118.486319636288));
#491=CARTESIAN_POINT('',(2.8717793640288,-23.5,118.492156489509));
#492=CARTESIAN_POINT('',(5.74601000454665,-23.5,117.935769105544));
#493=CARTESIAN_POINT('',(8.49780063089857,-23.5,117.));
#494=CARTESIAN_POINT('',(3.67394039744206E-016,-23.5,35.));
#495=CARTESIAN_POINT('',(23.5,-2.71618070279451E-014,35.));
#496=CARTESIAN_POINT('',(23.5,-2.71618070279451E-014,35.));
#497=CARTESIAN_POINT('',(23.5,-8.49780063089861,117.));
#498=CARTESIAN_POINT('',(23.5,-5.77103403171419,117.92725947865));
#499=CARTESIAN_POINT('',(23.5,-2.89286343361019,118.489705443053));
#500=CARTESIAN_POINT('',(23.5,2.90025823583881,118.488793975212));
#501=CARTESIAN_POINT('',(23.5,5.75601694720914,117.932366162132));
#502=CARTESIAN_POINT('',(23.5,8.49780063089855,117.));
#503=CARTESIAN_POINT('',(23.5,-2.71618070279451E-014,35.));
#504=CARTESIAN_POINT('',(5.46910080956344E-014,23.5,35.));
#505=CARTESIAN_POINT('',(5.46910080956344E-014,23.5,35.));
#506=CARTESIAN_POINT('',(8.49780063089866,23.4999999999999,117.));
#507=CARTESIAN_POINT('',(5.77103403171424,23.4999999999999,117.92725947865));
#508=CARTESIAN_POINT('',(2.89286343361022,23.4999999999999,118.489705443053));
#509=CARTESIAN_POINT('',(-2.90025823583879,23.5,118.488793975212));
#510=CARTESIAN_POINT('',(-5.75601694720913,23.5,117.932366162132));
#511=CARTESIAN_POINT('',(-8.49780063089854,23.5,117.));
#512=CARTESIAN_POINT('',(5.46910080956344E-014,23.5,35.));
#513=CARTESIAN_POINT('',(-23.5,8.7438257379062E-014,35.));
#514=CARTESIAN_POINT('',(-23.5,8.7438257379062E-014,35.));
#515=CARTESIAN_POINT('',(-23.4999999999999,8.49780063089872,117.));
#516=CARTESIAN_POINT('',(-23.4999999999999,5.75343333160772,117.933244741932));
#517=CARTESIAN_POINT('',(-23.4999999999999,2.91915209545254,118.486319636288));
#518=CARTESIAN_POINT('',(-23.4999999999999,-2.87177936402872,118.492156489509));
#519=CARTESIAN_POINT('',(-23.5,-5.74601000454661,117.935769105544));
#520=CARTESIAN_POINT('',(-23.5,-8.49780063089853,117.));
#521=CARTESIAN_POINT('',(-23.5,8.7438257379062E-014,35.));
#522=CARTESIAN_POINT('',(0.,0.,120.));
#523=CARTESIAN_POINT('',(8.92289974247951E-017,0.,-66.4734603858307));
#524=CARTESIAN_POINT('',(31.5,0.,-66.4734603858307));
#525=CARTESIAN_POINT('',(4.02697543832763E-019,0.,-0.3));
#526=CARTESIAN_POINT('',(31.5,0.,-0.3));
#527=CARTESIAN_POINT('',(0.,0.,0.));
#528=CARTESIAN_POINT('',(-9.66706596855626E-035,0.,2.11416210512201E-017));
#529=CARTESIAN_POINT('',(31.2,0.,6.30221656098274E-017));
#530=CARTESIAN_POINT('',(-31.5,0.,-2.11416210512201E-017));
#531=CARTESIAN_POINT('',(0.,0.,-89.2104241719908));
#532=CARTESIAN_POINT('',(24.5079774137674,0.,-89.2104241719908));
#533=CARTESIAN_POINT('',(9.84110422020335E-017,0.,-73.3138632523441));
#534=CARTESIAN_POINT('',(30.2938524157182,0.,-73.3138632523441));
#535=CARTESIAN_POINT('',(9.39627602276448E-017,0.,-70.));
#536=CARTESIAN_POINT('',(31.5,0.,-66.4734603858307));
#537=CARTESIAN_POINT('',(31.5,63.,-66.4734603858307));
#538=CARTESIAN_POINT('',(-31.5,63.,-66.4734603858307));
#539=CARTESIAN_POINT('',(-31.5,0.,-66.4734603858307));
#540=CARTESIAN_POINT('',(-31.5,-63.,-66.4734603858307));
#541=CARTESIAN_POINT('',(31.5,-63.,-66.4734603858307));
#542=CARTESIAN_POINT('',(31.5,0.,-66.4734603858307));
#543=CARTESIAN_POINT('',(31.5,0.,-68.8124591863778));
#544=CARTESIAN_POINT('',(31.5,63.,-68.8124591863778));
#545=CARTESIAN_POINT('',(-31.5,63.,-68.8124591863778));
#546=CARTESIAN_POINT('',(-31.5,0.,-68.8124591863778));
#547=CARTESIAN_POINT('',(-31.5,-63.,-68.8124591863778));
#548=CARTESIAN_POINT('',(31.5,-63.,-68.8124591863778));
#549=CARTESIAN_POINT('',(31.5,0.,-68.8124591863778));
#550=CARTESIAN_POINT('',(31.0938371207199,0.,-71.1159233394429));
#551=CARTESIAN_POINT('',(31.0938371207199,62.1876742414397,-71.1159233394429));
#552=CARTESIAN_POINT('',(-31.0938371207199,62.1876742414397,-71.1159233394429));
#553=CARTESIAN_POINT('',(-31.0938371207199,0.,-71.1159233394429));
#554=CARTESIAN_POINT('',(-31.0938371207199,-62.1876742414397,-71.1159233394429));
#555=CARTESIAN_POINT('',(31.0938371207199,-62.1876742414397,-71.1159233394429));
#556=CARTESIAN_POINT('',(31.0938371207199,0.,-71.1159233394429));
#557=CARTESIAN_POINT('',(30.2938524157182,0.,-73.3138632523441));
#558=CARTESIAN_POINT('',(30.2938524157182,60.5877048314363,-73.3138632523441));
#559=CARTESIAN_POINT('',(-30.2938524157182,60.5877048314363,-73.3138632523441));
#560=CARTESIAN_POINT('',(-30.2938524157182,0.,-73.3138632523441));
#561=CARTESIAN_POINT('',(-30.2938524157182,-60.5877048314363,-73.3138632523441));
#562=CARTESIAN_POINT('',(30.2938524157182,-60.5877048314363,-73.3138632523441));
#563=CARTESIAN_POINT('',(30.2938524157182,0.,-73.3138632523441));
#564=CARTESIAN_POINT('',(4.02697543832763E-019,0.,-0.3));
#565=CARTESIAN_POINT('',(0.,0.,-90.));
#566=CARTESIAN_POINT('',(23.3803462688243,0.,-90.));
#567=CARTESIAN_POINT('',(0.,0.,-90.));
#568=CARTESIAN_POINT('',(0.,0.,-88.8));
#569=MECHANICAL_DESIGN_GEOMETRIC_PRESENTATION_REPRESENTATION('',(#281,#282,
#283,#284),#570);
#570=(
GEOMETRIC_REPRESENTATION_CONTEXT(3)
GLOBAL_UNCERTAINTY_ASSIGNED_CONTEXT((#571))
GLOBAL_UNIT_ASSIGNED_CONTEXT((#577,#573,#572))
REPRESENTATION_CONTEXT('1508153442329','TOP_LEVEL_ASSEMBLY_PART')
);
#571=UNCERTAINTY_MEASURE_WITH_UNIT(LENGTH_MEASURE(0.0508),#577,
'DISTANCE_ACCURACY_VALUE','Maximum Tolerance applied to model');
#572=(
NAMED_UNIT(*)
SI_UNIT($,.STERADIAN.)
SOLID_ANGLE_UNIT()
);
#573=(
CONVERSION_BASED_UNIT('DEGREE',#575)
NAMED_UNIT(#574)
PLANE_ANGLE_UNIT()
);
#574=DIMENSIONAL_EXPONENTS(0.,0.,0.,0.,0.,0.,0.);
#575=PLANE_ANGLE_MEASURE_WITH_UNIT(PLANE_ANGLE_MEASURE(0.0174532925),#576);
#576=(
NAMED_UNIT(*)
PLANE_ANGLE_UNIT()
SI_UNIT($,.RADIAN.)
);
#577=(
LENGTH_UNIT()
NAMED_UNIT(*)
SI_UNIT(.MILLI.,.METRE.)
);
ENDSEC;
END-ISO-10303-21;
