ISO-10303-21;
HEADER;
/* Generated by software containing ST-Developer
 * from STEP Tools, Inc. (www.steptools.com) 
 */
/* OPTION: using custom schema-name function */

FILE_DESCRIPTION(
/* description */ (''),
/* implementation_level */ '2;1');

FILE_NAME(
/* name */ '1508153097754.stp',
/* time_stamp */ '2017-10-16T13:25:04+02:00',
/* author */ (''),
/* organization */ ('SMS'),
/* preprocessor_version */ 'ST-DEVELOPER v15',
/* originating_system */ 'SIEMENS PLM Software NX 8.5',
/* authorisation */ '');

FILE_SCHEMA (('AUTOMOTIVE_DESIGN { 1 0 10303 214 3 1 1 1 }'));
ENDSEC;

DATA;
#10=CONSTRUCTIVE_GEOMETRY_REPRESENTATION_RELATIONSHIP(
'supplemental geometry','',#24,#11);
#11=CONSTRUCTIVE_GEOMETRY_REPRESENTATION('supplemental geometry',(#298,
#299,#300),#578);
#12=SHAPE_REPRESENTATION_RELATIONSHIP('None',
'relationship between 201207330MOD000_00-None and 201207330MOD000_00-N
one',#24,#13);
#13=ADVANCED_BREP_SHAPE_REPRESENTATION('201207330MOD000_00-None',(#30),
#578);
#14=SHAPE_DEFINITION_REPRESENTATION(#15,#24);
#15=PRODUCT_DEFINITION_SHAPE('','',#16);
#16=PRODUCT_DEFINITION(' ','',#18,#17);
#17=PRODUCT_DEFINITION_CONTEXT('part definition',#23,'design');
#18=PRODUCT_DEFINITION_FORMATION_WITH_SPECIFIED_SOURCE(' ',' ',#20,
 .NOT_KNOWN.);
#19=PRODUCT_RELATED_PRODUCT_CATEGORY('part','',(#20));
#20=PRODUCT('201207330MOD000_00','201207330MOD000_00',' ',(#21));
#21=PRODUCT_CONTEXT(' ',#23,'mechanical');
#22=APPLICATION_PROTOCOL_DEFINITION('international standard',
'automotive_design',2010,#23);
#23=APPLICATION_CONTEXT(
'core data for automotive mechanical design processes');
#24=SHAPE_REPRESENTATION('201207330MOD000_00-None',(#297),#578);
#25=SURFACE_STYLE_USAGE(.BOTH.,#26);
#26=SURFACE_SIDE_STYLE('',(#27));
#27=SURFACE_STYLE_FILL_AREA(#28);
#28=FILL_AREA_STYLE('',(#29));
#29=FILL_AREA_STYLE_COLOUR('',#293);
#30=MANIFOLD_SOLID_BREP('TURN_SOLID',#31);
#31=CLOSED_SHELL('',(#83,#84,#85,#86,#87,#88,#89,#90,#91,#92,#93,#94,#95,
#96,#97,#98,#99,#100));
#32=TOROIDAL_SURFACE('',#333,21.1082867373567,1.2);
#33=CONICAL_SURFACE('',#317,16.98925,45.0000000000001);
#34=CONICAL_SURFACE('',#320,25.,45.0000000000001);
#35=CONICAL_SURFACE('',#323,25.,45.0000000000001);
#36=CONICAL_SURFACE('',#326,25.,45.0000000000001);
#37=CONICAL_SURFACE('',#329,25.,45.0000000000001);
#38=CONICAL_SURFACE('',#331,28.5,20.0000000000001);
#39=CONICAL_SURFACE('',#332,28.5,45.0000000000002);
#40=(
BOUNDED_SURFACE()
B_SPLINE_SURFACE(3,3,((#507,#508,#509,#510,#511,#512,#513),(#514,#515,#516,
#517,#518,#519,#520),(#521,#522,#523,#524,#525,#526,#527),(#528,#529,#530,
#531,#532,#533,#534)),.UNSPECIFIED.,.F.,.T.,.F.)
B_SPLINE_SURFACE_WITH_KNOTS((4,4),(1,3,3,3,1),(0.,1.),(-0.5,0.,0.5,1.,1.5),
 .UNSPECIFIED.)
GEOMETRIC_REPRESENTATION_ITEM()
RATIONAL_B_SPLINE_SURFACE(((1.,0.333333333333333,0.333333333333333,1.,0.333333333333333,
0.333333333333333,1.),(0.989871835341472,0.329957278447157,0.329957278447157,
0.989871835341472,0.329957278447157,0.329957278447157,0.989871835341472),
(0.989871835341472,0.329957278447157,0.329957278447157,0.989871835341472,
0.329957278447157,0.329957278447157,0.989871835341472),(1.,0.333333333333333,
0.333333333333333,1.,0.333333333333333,0.333333333333333,1.)))
REPRESENTATION_ITEM('')
SURFACE()
);
#41=B_SPLINE_CURVE_WITH_KNOTS('',3,(#433,#434,#435,#436,#437,#438,#439,
#440,#441,#442),.UNSPECIFIED.,.F.,.F.,(4,2,2,2,4),(0.,0.25,0.5,0.75,1.),
 .UNSPECIFIED.);
#42=B_SPLINE_CURVE_WITH_KNOTS('',3,(#450,#451,#452,#453,#454,#455,#456,
#457,#458,#459),.UNSPECIFIED.,.F.,.F.,(4,2,2,2,4),(0.,0.25,0.5,0.75,1.),
 .UNSPECIFIED.);
#43=B_SPLINE_CURVE_WITH_KNOTS('',3,(#467,#468,#469,#470,#471,#472,#473,
#474,#475,#476),.UNSPECIFIED.,.F.,.F.,(4,2,2,2,4),(0.,0.25,0.5,0.75,1.),
 .UNSPECIFIED.);
#44=B_SPLINE_CURVE_WITH_KNOTS('',3,(#484,#485,#486,#487,#488,#489,#490,
#491,#492,#493),.UNSPECIFIED.,.F.,.F.,(4,2,2,2,4),(0.,0.25,0.5,0.75,1.),
 .UNSPECIFIED.);
#45=B_SPLINE_CURVE_WITH_KNOTS('',3,(#535,#536,#537,#538,#539,#540),
 .UNSPECIFIED.,.F.,.F.,(4,2,4),(0.,0.5,1.),.UNSPECIFIED.);
#46=B_SPLINE_CURVE_WITH_KNOTS('',3,(#541,#542,#543,#544,#545,#546),
 .UNSPECIFIED.,.F.,.F.,(4,2,4),(0.,0.5,1.),.UNSPECIFIED.);
#47=B_SPLINE_CURVE_WITH_KNOTS('',3,(#547,#548,#549,#550,#551,#552),
 .UNSPECIFIED.,.F.,.F.,(4,2,4),(0.,0.5,1.),.UNSPECIFIED.);
#48=B_SPLINE_CURVE_WITH_KNOTS('',3,(#553,#554,#555,#556,#557,#558),
 .UNSPECIFIED.,.F.,.F.,(4,2,4),(0.,0.5,1.),.UNSPECIFIED.);
#49=LINE('',#431,#57);
#50=LINE('',#444,#58);
#51=LINE('',#448,#59);
#52=LINE('',#461,#60);
#53=LINE('',#465,#61);
#54=LINE('',#478,#62);
#55=LINE('',#482,#63);
#56=LINE('',#495,#64);
#57=VECTOR('',#354,1.);
#58=VECTOR('',#355,1.);
#59=VECTOR('',#358,1.);
#60=VECTOR('',#359,1.);
#61=VECTOR('',#362,1.);
#62=VECTOR('',#363,1.);
#63=VECTOR('',#366,1.);
#64=VECTOR('',#367,1.);
#65=CYLINDRICAL_SURFACE('',#305,28.5);
#66=CYLINDRICAL_SURFACE('',#311,19.98925);
#67=FACE_BOUND('',#119,.T.);
#68=FACE_BOUND('',#120,.T.);
#69=FACE_BOUND('',#121,.T.);
#70=FACE_BOUND('',#122,.T.);
#71=FACE_BOUND('',#124,.T.);
#72=FACE_BOUND('',#125,.T.);
#73=FACE_BOUND('',#126,.T.);
#74=FACE_BOUND('',#127,.T.);
#75=FACE_BOUND('',#128,.T.);
#76=FACE_BOUND('',#129,.T.);
#77=FACE_BOUND('',#138,.T.);
#78=FACE_BOUND('',#139,.T.);
#79=FACE_BOUND('',#140,.T.);
#80=FACE_BOUND('',#141,.T.);
#81=FACE_BOUND('',#142,.T.);
#82=FACE_BOUND('',#143,.T.);
#83=ADVANCED_FACE('AR_BY_CN_SU_1_1',(#108),#101,.F.);
#84=ADVANCED_FACE('AR_BY_CN_IB_SU_3',(#67,#68),#65,.T.);
#85=ADVANCED_FACE('CU_FL_CY_SU_1',(#69,#70),#66,.T.);
#86=ADVANCED_FACE('CU_FL_CY_SU_3',(#109),#102,.F.);
#87=ADVANCED_FACE('AR_BY_CN_IB_SU_4',(#71,#72),#103,.T.);
#88=ADVANCED_FACE('AR_BY_CN_IB_SU_21',(#73,#74),#40,.T.);
#89=ADVANCED_FACE('CU_FL_CY_SU_2',(#75,#76),#33,.T.);
#90=ADVANCED_FACE('CU_FA_3_SU_1',(#110),#104,.T.);
#91=ADVANCED_FACE('CU_FA_3_SU_2',(#111),#34,.F.);
#92=ADVANCED_FACE('CU_FA_2_SU_1',(#112),#105,.T.);
#93=ADVANCED_FACE('CU_FA_2_SU_2',(#113),#35,.F.);
#94=ADVANCED_FACE('CU_FA_1_SU_1',(#114),#106,.T.);
#95=ADVANCED_FACE('CU_FA_1_SU_2',(#115),#36,.F.);
#96=ADVANCED_FACE('CU_FA_4_SU_1',(#116),#107,.T.);
#97=ADVANCED_FACE('CU_FA_4_SU_2',(#117),#37,.F.);
#98=ADVANCED_FACE('AR_BY_CN_IB_SU_2',(#77,#78),#38,.T.);
#99=ADVANCED_FACE('',(#79,#80),#39,.T.);
#100=ADVANCED_FACE('AR_BY_CN_SU_11',(#81,#82),#32,.T.);
#101=PLANE('',#302);
#102=PLANE('',#313);
#103=PLANE('',#315);
#104=PLANE('',#319);
#105=PLANE('',#322);
#106=PLANE('',#325);
#107=PLANE('',#328);
#108=FACE_OUTER_BOUND('',#118,.T.);
#109=FACE_OUTER_BOUND('',#123,.T.);
#110=FACE_OUTER_BOUND('',#130,.T.);
#111=FACE_OUTER_BOUND('',#131,.T.);
#112=FACE_OUTER_BOUND('',#132,.T.);
#113=FACE_OUTER_BOUND('',#133,.T.);
#114=FACE_OUTER_BOUND('',#134,.T.);
#115=FACE_OUTER_BOUND('',#135,.T.);
#116=FACE_OUTER_BOUND('',#136,.T.);
#117=FACE_OUTER_BOUND('',#137,.T.);
#118=EDGE_LOOP('',(#144));
#119=EDGE_LOOP('',(#145));
#120=EDGE_LOOP('',(#146));
#121=EDGE_LOOP('',(#147,#148,#149,#150,#151,#152,#153,#154,#155,#156,#157,
#158,#159,#160,#161,#162));
#122=EDGE_LOOP('',(#163));
#123=EDGE_LOOP('',(#164));
#124=EDGE_LOOP('',(#165));
#125=EDGE_LOOP('',(#166));
#126=EDGE_LOOP('',(#167));
#127=EDGE_LOOP('',(#168));
#128=EDGE_LOOP('',(#169,#170,#171,#172,#173,#174,#175,#176));
#129=EDGE_LOOP('',(#177));
#130=EDGE_LOOP('',(#178,#179,#180,#181));
#131=EDGE_LOOP('',(#182,#183));
#132=EDGE_LOOP('',(#184,#185,#186,#187));
#133=EDGE_LOOP('',(#188,#189));
#134=EDGE_LOOP('',(#190,#191,#192,#193));
#135=EDGE_LOOP('',(#194,#195));
#136=EDGE_LOOP('',(#196,#197,#198,#199));
#137=EDGE_LOOP('',(#200,#201));
#138=EDGE_LOOP('',(#202));
#139=EDGE_LOOP('',(#203));
#140=EDGE_LOOP('',(#204));
#141=EDGE_LOOP('',(#205));
#142=EDGE_LOOP('',(#206));
#143=EDGE_LOOP('',(#207));
#144=ORIENTED_EDGE('',*,*,#232,.F.);
#145=ORIENTED_EDGE('',*,*,#233,.T.);
#146=ORIENTED_EDGE('',*,*,#234,.T.);
#147=ORIENTED_EDGE('',*,*,#235,.T.);
#148=ORIENTED_EDGE('',*,*,#236,.F.);
#149=ORIENTED_EDGE('',*,*,#237,.F.);
#150=ORIENTED_EDGE('',*,*,#238,.F.);
#151=ORIENTED_EDGE('',*,*,#239,.T.);
#152=ORIENTED_EDGE('',*,*,#240,.F.);
#153=ORIENTED_EDGE('',*,*,#241,.F.);
#154=ORIENTED_EDGE('',*,*,#242,.F.);
#155=ORIENTED_EDGE('',*,*,#243,.T.);
#156=ORIENTED_EDGE('',*,*,#244,.F.);
#157=ORIENTED_EDGE('',*,*,#245,.F.);
#158=ORIENTED_EDGE('',*,*,#246,.F.);
#159=ORIENTED_EDGE('',*,*,#247,.T.);
#160=ORIENTED_EDGE('',*,*,#248,.F.);
#161=ORIENTED_EDGE('',*,*,#249,.F.);
#162=ORIENTED_EDGE('',*,*,#250,.F.);
#163=ORIENTED_EDGE('',*,*,#251,.T.);
#164=ORIENTED_EDGE('',*,*,#252,.F.);
#165=ORIENTED_EDGE('',*,*,#251,.F.);
#166=ORIENTED_EDGE('',*,*,#253,.T.);
#167=ORIENTED_EDGE('',*,*,#254,.F.);
#168=ORIENTED_EDGE('',*,*,#234,.F.);
#169=ORIENTED_EDGE('',*,*,#239,.F.);
#170=ORIENTED_EDGE('',*,*,#255,.T.);
#171=ORIENTED_EDGE('',*,*,#235,.F.);
#172=ORIENTED_EDGE('',*,*,#256,.T.);
#173=ORIENTED_EDGE('',*,*,#247,.F.);
#174=ORIENTED_EDGE('',*,*,#257,.T.);
#175=ORIENTED_EDGE('',*,*,#243,.F.);
#176=ORIENTED_EDGE('',*,*,#258,.T.);
#177=ORIENTED_EDGE('',*,*,#252,.T.);
#178=ORIENTED_EDGE('',*,*,#250,.T.);
#179=ORIENTED_EDGE('',*,*,#259,.F.);
#180=ORIENTED_EDGE('',*,*,#248,.T.);
#181=ORIENTED_EDGE('',*,*,#256,.F.);
#182=ORIENTED_EDGE('',*,*,#249,.T.);
#183=ORIENTED_EDGE('',*,*,#259,.T.);
#184=ORIENTED_EDGE('',*,*,#246,.T.);
#185=ORIENTED_EDGE('',*,*,#260,.F.);
#186=ORIENTED_EDGE('',*,*,#244,.T.);
#187=ORIENTED_EDGE('',*,*,#257,.F.);
#188=ORIENTED_EDGE('',*,*,#245,.T.);
#189=ORIENTED_EDGE('',*,*,#260,.T.);
#190=ORIENTED_EDGE('',*,*,#242,.T.);
#191=ORIENTED_EDGE('',*,*,#261,.F.);
#192=ORIENTED_EDGE('',*,*,#240,.T.);
#193=ORIENTED_EDGE('',*,*,#258,.F.);
#194=ORIENTED_EDGE('',*,*,#241,.T.);
#195=ORIENTED_EDGE('',*,*,#261,.T.);
#196=ORIENTED_EDGE('',*,*,#238,.T.);
#197=ORIENTED_EDGE('',*,*,#262,.F.);
#198=ORIENTED_EDGE('',*,*,#236,.T.);
#199=ORIENTED_EDGE('',*,*,#255,.F.);
#200=ORIENTED_EDGE('',*,*,#237,.T.);
#201=ORIENTED_EDGE('',*,*,#262,.T.);
#202=ORIENTED_EDGE('',*,*,#263,.T.);
#203=ORIENTED_EDGE('',*,*,#254,.T.);
#204=ORIENTED_EDGE('',*,*,#253,.F.);
#205=ORIENTED_EDGE('',*,*,#233,.F.);
#206=ORIENTED_EDGE('',*,*,#263,.F.);
#207=ORIENTED_EDGE('',*,*,#232,.T.);
#208=VERTEX_POINT('',#421);
#209=VERTEX_POINT('',#424);
#210=VERTEX_POINT('',#426);
#211=VERTEX_POINT('',#429);
#212=VERTEX_POINT('',#430);
#213=VERTEX_POINT('',#432);
#214=VERTEX_POINT('',#443);
#215=VERTEX_POINT('',#445);
#216=VERTEX_POINT('',#447);
#217=VERTEX_POINT('',#449);
#218=VERTEX_POINT('',#460);
#219=VERTEX_POINT('',#462);
#220=VERTEX_POINT('',#464);
#221=VERTEX_POINT('',#466);
#222=VERTEX_POINT('',#477);
#223=VERTEX_POINT('',#479);
#224=VERTEX_POINT('',#481);
#225=VERTEX_POINT('',#483);
#226=VERTEX_POINT('',#494);
#227=VERTEX_POINT('',#497);
#228=VERTEX_POINT('',#500);
#229=VERTEX_POINT('',#503);
#230=VERTEX_POINT('',#506);
#231=VERTEX_POINT('',#573);
#232=EDGE_CURVE('',#208,#208,#264,.T.);
#233=EDGE_CURVE('',#209,#209,#265,.T.);
#234=EDGE_CURVE('',#210,#210,#266,.T.);
#235=EDGE_CURVE('',#211,#212,#267,.T.);
#236=EDGE_CURVE('',#213,#212,#49,.T.);
#237=EDGE_CURVE('',#214,#213,#41,.T.);
#238=EDGE_CURVE('',#215,#214,#50,.T.);
#239=EDGE_CURVE('',#215,#216,#268,.T.);
#240=EDGE_CURVE('',#217,#216,#51,.T.);
#241=EDGE_CURVE('',#218,#217,#42,.T.);
#242=EDGE_CURVE('',#219,#218,#52,.T.);
#243=EDGE_CURVE('',#219,#220,#269,.T.);
#244=EDGE_CURVE('',#221,#220,#53,.T.);
#245=EDGE_CURVE('',#222,#221,#43,.T.);
#246=EDGE_CURVE('',#223,#222,#54,.T.);
#247=EDGE_CURVE('',#223,#224,#270,.T.);
#248=EDGE_CURVE('',#225,#224,#55,.T.);
#249=EDGE_CURVE('',#226,#225,#44,.T.);
#250=EDGE_CURVE('',#211,#226,#56,.T.);
#251=EDGE_CURVE('',#227,#227,#271,.T.);
#252=EDGE_CURVE('',#228,#228,#272,.T.);
#253=EDGE_CURVE('',#229,#229,#273,.T.);
#254=EDGE_CURVE('',#230,#230,#274,.T.);
#255=EDGE_CURVE('',#215,#212,#45,.T.);
#256=EDGE_CURVE('',#211,#224,#46,.T.);
#257=EDGE_CURVE('',#223,#220,#47,.T.);
#258=EDGE_CURVE('',#219,#216,#48,.T.);
#259=EDGE_CURVE('',#225,#226,#275,.T.);
#260=EDGE_CURVE('',#221,#222,#276,.T.);
#261=EDGE_CURVE('',#217,#218,#277,.T.);
#262=EDGE_CURVE('',#213,#214,#278,.T.);
#263=EDGE_CURVE('',#231,#231,#279,.T.);
#264=CIRCLE('',#301,21.1082867373567);
#265=CIRCLE('',#303,28.5);
#266=CIRCLE('',#304,28.5);
#267=CIRCLE('',#306,19.98925);
#268=CIRCLE('',#307,19.98925);
#269=CIRCLE('',#308,19.98925);
#270=CIRCLE('',#309,19.98925);
#271=CIRCLE('',#310,19.98925);
#272=CIRCLE('',#312,16.98925);
#273=CIRCLE('',#314,28.2);
#274=CIRCLE('',#316,27.5953893117886);
#275=CIRCLE('',#318,25.);
#276=CIRCLE('',#321,25.);
#277=CIRCLE('',#324,25.);
#278=CIRCLE('',#327,25.);
#279=CIRCLE('',#330,22.2359178822998);
#280=PRESENTATION_LAYER_ASSIGNMENT('1','Layer 1',(#298,#299,#300,#30));
#281=STYLED_ITEM('',(#285),#298);
#282=STYLED_ITEM('',(#286),#299);
#283=STYLED_ITEM('',(#287),#300);
#284=STYLED_ITEM('',(#288),#30);
#285=PRESENTATION_STYLE_ASSIGNMENT((#289));
#286=PRESENTATION_STYLE_ASSIGNMENT((#290));
#287=PRESENTATION_STYLE_ASSIGNMENT((#291));
#288=PRESENTATION_STYLE_ASSIGNMENT((#25));
#289=CURVE_STYLE('',#294,POSITIVE_LENGTH_MEASURE(0.13),#292);
#290=CURVE_STYLE('',#295,POSITIVE_LENGTH_MEASURE(0.13),#292);
#291=CURVE_STYLE('',#296,POSITIVE_LENGTH_MEASURE(0.13),#292);
#292=COLOUR_RGB('Strong Emerald',0.,0.803921568627451,0.525490196078431);
#293=COLOUR_RGB('TLS_NOCUT',0.499992370489052,0.499992370489052,0.499992370489052);
#294=DRAUGHTING_PRE_DEFINED_CURVE_FONT('continuous');
#295=DRAUGHTING_PRE_DEFINED_CURVE_FONT('continuous');
#296=DRAUGHTING_PRE_DEFINED_CURVE_FONT('continuous');
#297=AXIS2_PLACEMENT_3D('',#416,#334,#335);
#298=AXIS2_PLACEMENT_3D('MCS',#417,#336,#337);
#299=AXIS2_PLACEMENT_3D('PCS',#418,#338,#339);
#300=AXIS2_PLACEMENT_3D('CSW',#419,#340,#341);
#301=AXIS2_PLACEMENT_3D('',#420,#342,#343);
#302=AXIS2_PLACEMENT_3D('',#422,#344,#345);
#303=AXIS2_PLACEMENT_3D('',#423,#346,#347);
#304=AXIS2_PLACEMENT_3D('',#425,#348,#349);
#305=AXIS2_PLACEMENT_3D('',#427,#350,#351);
#306=AXIS2_PLACEMENT_3D('',#428,#352,#353);
#307=AXIS2_PLACEMENT_3D('',#446,#356,#357);
#308=AXIS2_PLACEMENT_3D('',#463,#360,#361);
#309=AXIS2_PLACEMENT_3D('',#480,#364,#365);
#310=AXIS2_PLACEMENT_3D('',#496,#368,#369);
#311=AXIS2_PLACEMENT_3D('',#498,#370,#371);
#312=AXIS2_PLACEMENT_3D('',#499,#372,#373);
#313=AXIS2_PLACEMENT_3D('',#501,#374,#375);
#314=AXIS2_PLACEMENT_3D('',#502,#376,#377);
#315=AXIS2_PLACEMENT_3D('',#504,#378,#379);
#316=AXIS2_PLACEMENT_3D('',#505,#380,#381);
#317=AXIS2_PLACEMENT_3D('',#559,#382,#383);
#318=AXIS2_PLACEMENT_3D('',#560,#384,#385);
#319=AXIS2_PLACEMENT_3D('',#561,#386,#387);
#320=AXIS2_PLACEMENT_3D('',#562,#388,#389);
#321=AXIS2_PLACEMENT_3D('',#563,#390,#391);
#322=AXIS2_PLACEMENT_3D('',#564,#392,#393);
#323=AXIS2_PLACEMENT_3D('',#565,#394,#395);
#324=AXIS2_PLACEMENT_3D('',#566,#396,#397);
#325=AXIS2_PLACEMENT_3D('',#567,#398,#399);
#326=AXIS2_PLACEMENT_3D('',#568,#400,#401);
#327=AXIS2_PLACEMENT_3D('',#569,#402,#403);
#328=AXIS2_PLACEMENT_3D('',#570,#404,#405);
#329=AXIS2_PLACEMENT_3D('',#571,#406,#407);
#330=AXIS2_PLACEMENT_3D('',#572,#408,#409);
#331=AXIS2_PLACEMENT_3D('',#574,#410,#411);
#332=AXIS2_PLACEMENT_3D('',#575,#412,#413);
#333=AXIS2_PLACEMENT_3D('',#576,#414,#415);
#334=DIRECTION('',(0.,0.,1.));
#335=DIRECTION('',(1.,0.,0.));
#336=DIRECTION('',(0.,0.,1.));
#337=DIRECTION('',(1.,0.,0.));
#338=DIRECTION('',(0.,0.,1.));
#339=DIRECTION('',(1.,0.,0.));
#340=DIRECTION('',(0.,0.,1.));
#341=DIRECTION('',(1.,0.,0.));
#342=DIRECTION('',(0.,0.,1.));
#343=DIRECTION('',(-1.,0.,0.));
#344=DIRECTION('',(0.,0.,1.));
#345=DIRECTION('',(-1.,0.,0.));
#346=DIRECTION('',(-1.70511572613873E-018,0.,-1.));
#347=DIRECTION('',(-1.,0.,1.90210907453597E-018));
#348=DIRECTION('',(1.70511572613873E-018,0.,1.));
#349=DIRECTION('',(-1.,0.,0.));
#350=DIRECTION('',(-1.70511572613873E-018,0.,-1.));
#351=DIRECTION('',(1.,0.,-1.70511572613873E-018));
#352=DIRECTION('',(0.,0.,-1.));
#353=DIRECTION('',(1.,0.,0.));
#354=DIRECTION('',(0.,0.,1.));
#355=DIRECTION('',(0.,0.,-1.));
#356=DIRECTION('',(0.,0.,-1.));
#357=DIRECTION('',(1.,0.,0.));
#358=DIRECTION('',(0.,0.,1.));
#359=DIRECTION('',(0.,0.,-1.));
#360=DIRECTION('',(0.,0.,-1.));
#361=DIRECTION('',(1.,0.,0.));
#362=DIRECTION('',(0.,0.,1.));
#363=DIRECTION('',(0.,0.,-1.));
#364=DIRECTION('',(0.,0.,-1.));
#365=DIRECTION('',(1.,0.,0.));
#366=DIRECTION('',(0.,0.,1.));
#367=DIRECTION('',(0.,0.,-1.));
#368=DIRECTION('',(1.70511572613873E-018,0.,1.));
#369=DIRECTION('',(-1.,0.,1.70511572613873E-018));
#370=DIRECTION('',(0.,0.,-1.));
#371=DIRECTION('',(1.,0.,0.));
#372=DIRECTION('',(0.,0.,-1.));
#373=DIRECTION('',(1.,0.,0.));
#374=DIRECTION('',(0.,0.,-1.));
#375=DIRECTION('',(1.,0.,0.));
#376=DIRECTION('',(1.70511572613873E-018,0.,1.));
#377=DIRECTION('',(-1.,0.,1.70511572613873E-018));
#378=DIRECTION('',(1.70511572613873E-018,0.,1.));
#379=DIRECTION('',(-1.,0.,1.70511572613873E-018));
#380=DIRECTION('',(-1.70511572613873E-018,0.,-1.));
#381=DIRECTION('',(-1.,0.,0.));
#382=DIRECTION('',(0.,0.,-1.));
#383=DIRECTION('',(1.,0.,-2.72919065915681E-017));
#384=DIRECTION('',(0.,-1.,-1.11022302462516E-016));
#385=DIRECTION('',(0.,-1.38777878078145E-016,1.));
#386=DIRECTION('',(0.,1.,1.11022302462516E-016));
#387=DIRECTION('',(0.,-1.11022302462516E-016,1.));
#388=DIRECTION('',(0.,1.,1.11022302462516E-016));
#389=DIRECTION('',(0.,-2.53861972094166E-016,1.));
#390=DIRECTION('',(1.,-1.17145536458252E-015,-1.11022302462516E-016));
#391=DIRECTION('',(1.38777878078145E-016,-1.23259516440783E-031,1.));
#392=DIRECTION('',(-1.,1.17145536458252E-015,1.11022302462516E-016));
#393=DIRECTION('',(1.11022302462516E-016,-1.29422492262822E-031,1.));
#394=DIRECTION('',(-1.,1.17145536458252E-015,1.11022302462516E-016));
#395=DIRECTION('',(2.53861972094166E-016,-1.08227868094346E-031,1.));
#396=DIRECTION('',(2.34291072916505E-015,1.,-1.11022302462516E-016));
#397=DIRECTION('',(2.46519032881566E-031,1.38777878078145E-016,1.));
#398=DIRECTION('',(-2.34291072916505E-015,-1.,1.11022302462516E-016));
#399=DIRECTION('',(2.58844984525645E-031,1.11022302462516E-016,1.));
#400=DIRECTION('',(-2.34291072916505E-015,-1.,1.11022302462516E-016));
#401=DIRECTION('',(2.22468395527266E-031,2.53861972094166E-016,1.));
#402=DIRECTION('',(-1.,3.73641069867261E-015,-1.11022302462516E-016));
#403=DIRECTION('',(-1.38777878078145E-016,4.93038065763132E-031,1.));
#404=DIRECTION('',(1.,-3.73641069867261E-015,1.11022302462516E-016));
#405=DIRECTION('',(-1.11022302462516E-016,4.19082355898663E-031,1.));
#406=DIRECTION('',(1.,-3.73641069867261E-015,1.11022302462516E-016));
#407=DIRECTION('',(-2.53861972094166E-016,5.53164659148878E-031,1.));
#408=DIRECTION('',(0.,0.,1.));
#409=DIRECTION('',(-1.,0.,0.));
#410=DIRECTION('',(1.70511572613873E-018,0.,1.));
#411=DIRECTION('',(-1.,0.,-1.23760359605781E-016));
#412=DIRECTION('',(-1.70511572613873E-018,0.,-1.));
#413=DIRECTION('',(1.,0.,3.20991309209367E-017));
#414=DIRECTION('',(0.,0.,1.));
#415=DIRECTION('',(-1.,0.,0.));
#416=CARTESIAN_POINT('',(0.,0.,0.));
#417=CARTESIAN_POINT('',(0.,0.,0.));
#418=CARTESIAN_POINT('',(0.,0.,0.));
#419=CARTESIAN_POINT('',(0.,0.,-70.));
#420=CARTESIAN_POINT('',(0.,0.,-70.));
#421=CARTESIAN_POINT('',(-21.1082867373567,0.,-70.));
#422=CARTESIAN_POINT('',(0.,0.,-70.));
#423=CARTESIAN_POINT('',(-5.11534717841618E-019,0.,-0.3));
#424=CARTESIAN_POINT('',(-28.5,0.,-0.3));
#425=CARTESIAN_POINT('',(-8.41561491429854E-017,0.,-49.355095289373));
#426=CARTESIAN_POINT('',(-28.5,0.,-49.355095289373));
#427=CARTESIAN_POINT('',(0.,0.,0.));
#428=CARTESIAN_POINT('',(0.,0.,97.));
#429=CARTESIAN_POINT('',(7.57100492421584,18.5,97.));
#430=CARTESIAN_POINT('',(18.5,7.57100492421575,97.));
#431=CARTESIAN_POINT('',(18.5,7.57100492421576,100.));
#432=CARTESIAN_POINT('',(18.5,7.57100492421577,11.1739662461941));
#433=CARTESIAN_POINT('',(18.5,-7.57100492421589,11.1739662461941));
#434=CARTESIAN_POINT('',(18.9359970634003,-6.50563173351752,10.3779515819874));
#435=CARTESIAN_POINT('',(19.3125537632804,-5.3197873239365,9.70628515997672));
#436=CARTESIAN_POINT('',(19.8404667236653,-2.76238125874024,8.77074814639255));
#437=CARTESIAN_POINT('',(19.9900045173677,-1.36992951327883,8.50942611057584));
#438=CARTESIAN_POINT('',(19.9884894671692,1.3918607317543,8.51208444426091));
#439=CARTESIAN_POINT('',(19.8376399750912,2.78265835650667,8.77570903077706));
#440=CARTESIAN_POINT('',(19.3070568728983,5.33972866511425,9.71607571728734));
#441=CARTESIAN_POINT('',(18.9310940317321,6.51761245295545,10.3869032136257));
#442=CARTESIAN_POINT('',(18.5,7.57100492421577,11.1739662461941));
#443=CARTESIAN_POINT('',(18.5,-7.57100492421591,11.1739662461941));
#444=CARTESIAN_POINT('',(18.5,-7.5710049242159,100.));
#445=CARTESIAN_POINT('',(18.5,-7.57100492421589,97.));
#446=CARTESIAN_POINT('',(0.,0.,97.));
#447=CARTESIAN_POINT('',(7.57100492421578,-18.5,97.));
#448=CARTESIAN_POINT('',(7.57100492421578,-18.5,100.));
#449=CARTESIAN_POINT('',(7.57100492421579,-18.5,11.1739662461941));
#450=CARTESIAN_POINT('',(-7.57100492421587,-18.5,11.1739662461941));
#451=CARTESIAN_POINT('',(-6.5056317335175,-18.9359970634003,10.3779515819874));
#452=CARTESIAN_POINT('',(-5.31978732393646,-19.3125537632804,9.70628515997671));
#453=CARTESIAN_POINT('',(-2.7623812587402,-19.8404667236654,8.77074814639255));
#454=CARTESIAN_POINT('',(-1.36992951327879,-19.9900045173677,8.50942611057585));
#455=CARTESIAN_POINT('',(1.39186073175435,-19.9884894671692,8.51208444426092));
#456=CARTESIAN_POINT('',(2.7826583565067,-19.8376399750912,8.77570903077706));
#457=CARTESIAN_POINT('',(5.33972866511426,-19.3070568728983,9.71607571728734));
#458=CARTESIAN_POINT('',(6.51761245295547,-18.9310940317321,10.3869032136257));
#459=CARTESIAN_POINT('',(7.57100492421578,-18.5,11.1739662461941));
#460=CARTESIAN_POINT('',(-7.57100492421588,-18.5,11.1739662461941));
#461=CARTESIAN_POINT('',(-7.57100492421587,-18.5,100.));
#462=CARTESIAN_POINT('',(-7.57100492421586,-18.5,97.));
#463=CARTESIAN_POINT('',(0.,0.,97.));
#464=CARTESIAN_POINT('',(-18.5,-7.57100492421579,97.));
#465=CARTESIAN_POINT('',(-18.5,-7.57100492421581,100.));
#466=CARTESIAN_POINT('',(-18.5,-7.57100492421582,11.1739662461941));
#467=CARTESIAN_POINT('',(-18.5,7.57100492421585,11.1739662461941));
#468=CARTESIAN_POINT('',(-18.9359970634003,6.50563173351749,10.3779515819874));
#469=CARTESIAN_POINT('',(-19.3125537632804,5.31978732393647,9.70628515997673));
#470=CARTESIAN_POINT('',(-19.8404667236654,2.7623812587402,8.77074814639255));
#471=CARTESIAN_POINT('',(-19.9900045173677,1.36992951327876,8.50942611057584));
#472=CARTESIAN_POINT('',(-19.9884894671692,-1.39186073175439,8.51208444426092));
#473=CARTESIAN_POINT('',(-19.8376399750912,-2.78265835650674,8.77570903077707));
#474=CARTESIAN_POINT('',(-19.3070568728983,-5.33972866511431,9.71607571728735));
#475=CARTESIAN_POINT('',(-18.9310940317321,-6.5176124529555,10.3869032136257));
#476=CARTESIAN_POINT('',(-18.5,-7.57100492421581,11.1739662461941));
#477=CARTESIAN_POINT('',(-18.5,7.57100492421586,11.1739662461941));
#478=CARTESIAN_POINT('',(-18.5,7.57100492421585,100.));
#479=CARTESIAN_POINT('',(-18.5,7.57100492421583,97.));
#480=CARTESIAN_POINT('',(0.,0.,97.));
#481=CARTESIAN_POINT('',(-7.57100492421581,18.5,97.));
#482=CARTESIAN_POINT('',(-7.57100492421583,18.5,100.));
#483=CARTESIAN_POINT('',(-7.57100492421584,18.5,11.1739662461941));
#484=CARTESIAN_POINT('',(7.57100492421583,18.5,11.1739662461941));
#485=CARTESIAN_POINT('',(6.50563173351746,18.9359970634003,10.3779515819875));
#486=CARTESIAN_POINT('',(5.31978732393644,19.3125537632804,9.70628515997673));
#487=CARTESIAN_POINT('',(2.76238125874018,19.8404667236654,8.77074814639256));
#488=CARTESIAN_POINT('',(1.36992951327876,19.9900045173677,8.50942611057585));
#489=CARTESIAN_POINT('',(-1.39186073175439,19.9884894671692,8.51208444426091));
#490=CARTESIAN_POINT('',(-2.78265835650676,19.8376399750912,8.77570903077706));
#491=CARTESIAN_POINT('',(-5.33972866511433,19.3070568728983,9.71607571728734));
#492=CARTESIAN_POINT('',(-6.51761245295552,18.9310940317321,10.3869032136257));
#493=CARTESIAN_POINT('',(-7.57100492421583,18.5,11.1739662461941));
#494=CARTESIAN_POINT('',(7.57100492421584,18.5,11.1739662461941));
#495=CARTESIAN_POINT('',(7.57100492421583,18.5,100.));
#496=CARTESIAN_POINT('',(0.,0.,0.));
#497=CARTESIAN_POINT('',(-19.98925,0.,3.40839845287186E-017));
#498=CARTESIAN_POINT('',(0.,0.,100.));
#499=CARTESIAN_POINT('',(0.,0.,100.));
#500=CARTESIAN_POINT('',(16.98925,0.,100.));
#501=CARTESIAN_POINT('',(0.,0.,100.));
#502=CARTESIAN_POINT('',(4.30357691980825E-035,0.,2.42978990974768E-017));
#503=CARTESIAN_POINT('',(-28.2,0.,7.2382162574589E-017));
#504=CARTESIAN_POINT('',(28.5,0.,-2.42978990974768E-017));
#505=CARTESIAN_POINT('',(-9.29039080185977E-017,0.,-54.485397439258));
#506=CARTESIAN_POINT('',(-27.5953893117886,0.,-54.485397439258));
#507=CARTESIAN_POINT('',(-28.5,0.,-49.355095289373));
#508=CARTESIAN_POINT('',(-28.5,-57.,-49.355095289373));
#509=CARTESIAN_POINT('',(28.5,-57.,-49.355095289373));
#510=CARTESIAN_POINT('',(28.5,0.,-49.355095289373));
#511=CARTESIAN_POINT('',(28.5,57.,-49.355095289373));
#512=CARTESIAN_POINT('',(-28.5,57.,-49.355095289373));
#513=CARTESIAN_POINT('',(-28.5,0.,-49.355095289373));
#514=CARTESIAN_POINT('',(-28.5,0.,-51.1093443897833));
#515=CARTESIAN_POINT('',(-28.5,-57.,-51.1093443897833));
#516=CARTESIAN_POINT('',(28.5,-57.,-51.1093443897833));
#517=CARTESIAN_POINT('',(28.5,0.,-51.1093443897833));
#518=CARTESIAN_POINT('',(28.5,57.,-51.1093443897833));
#519=CARTESIAN_POINT('',(-28.5,57.,-51.1093443897833));
#520=CARTESIAN_POINT('',(-28.5,0.,-51.1093443897833));
#521=CARTESIAN_POINT('',(-28.1953778405399,0.,-52.8369425045821));
#522=CARTESIAN_POINT('',(-28.1953778405399,-56.3907556810798,-52.8369425045821));
#523=CARTESIAN_POINT('',(28.1953778405399,-56.3907556810798,-52.8369425045821));
#524=CARTESIAN_POINT('',(28.1953778405399,0.,-52.8369425045821));
#525=CARTESIAN_POINT('',(28.1953778405399,56.3907556810798,-52.8369425045821));
#526=CARTESIAN_POINT('',(-28.1953778405399,56.3907556810798,-52.8369425045821));
#527=CARTESIAN_POINT('',(-28.1953778405399,0.,-52.8369425045821));
#528=CARTESIAN_POINT('',(-27.5953893117886,0.,-54.485397439258));
#529=CARTESIAN_POINT('',(-27.5953893117886,-55.1907786235773,-54.485397439258));
#530=CARTESIAN_POINT('',(27.5953893117886,-55.1907786235773,-54.485397439258));
#531=CARTESIAN_POINT('',(27.5953893117886,0.,-54.485397439258));
#532=CARTESIAN_POINT('',(27.5953893117886,55.1907786235773,-54.485397439258));
#533=CARTESIAN_POINT('',(-27.5953893117886,55.1907786235773,-54.485397439258));
#534=CARTESIAN_POINT('',(-27.5953893117886,0.,-54.485397439258));
#535=CARTESIAN_POINT('',(18.4999999999999,-7.57100492421599,97.0000000000002));
#536=CARTESIAN_POINT('',(18.4999999999999,-5.14205820891513,97.9199728625238));
#537=CARTESIAN_POINT('',(18.4999999999999,-2.61327279282694,98.4897295940383));
#538=CARTESIAN_POINT('',(18.4999999999999,2.62005871566487,98.4887697836814));
#539=CARTESIAN_POINT('',(18.4999999999999,5.13909050070974,97.921096893362));
#540=CARTESIAN_POINT('',(18.5,7.57100492421579,97.0000000000001));
#541=CARTESIAN_POINT('',(7.57100492421584,18.5,97.));
#542=CARTESIAN_POINT('',(5.1415664672965,18.5,97.9201591115432));
#543=CARTESIAN_POINT('',(2.6082104261701,18.5,98.4894177425471));
#544=CARTESIAN_POINT('',(-2.61058947474102,18.5,98.4890821809682));
#545=CARTESIAN_POINT('',(-5.13979394865602,18.5,97.9208304597607));
#546=CARTESIAN_POINT('',(-7.57100492421582,18.5,97.));
#547=CARTESIAN_POINT('',(-18.5,7.57100492421584,97.));
#548=CARTESIAN_POINT('',(-18.5,5.15905349943451,97.9135358312087));
#549=CARTESIAN_POINT('',(-18.5,2.58932717132532,98.4911355661997));
#550=CARTESIAN_POINT('',(-18.5,-2.61620110848512,98.4873546742273));
#551=CARTESIAN_POINT('',(-18.5,-5.15490144199831,97.9151084388501));
#552=CARTESIAN_POINT('',(-18.5,-7.5710049242158,97.));
#553=CARTESIAN_POINT('',(-7.57100492421588,-18.4999999999999,97.));
#554=CARTESIAN_POINT('',(-5.15905349943455,-18.4999999999999,97.9135358312087));
#555=CARTESIAN_POINT('',(-2.58932717132534,-18.5,98.4911355661997));
#556=CARTESIAN_POINT('',(2.61620110848511,-18.5,98.4873546742274));
#557=CARTESIAN_POINT('',(5.1549014419983,-18.5,97.9151084388501));
#558=CARTESIAN_POINT('',(7.5710049242158,-18.5,97.));
#559=CARTESIAN_POINT('',(0.,0.,100.));
#560=CARTESIAN_POINT('',(-3.67394039744206E-016,18.5,35.));
#561=CARTESIAN_POINT('',(-3.67394039744206E-016,18.5,35.));
#562=CARTESIAN_POINT('',(-3.67394039744206E-016,18.5,35.));
#563=CARTESIAN_POINT('',(-18.5,2.13045302050325E-014,35.));
#564=CARTESIAN_POINT('',(-18.5,2.13045302050325E-014,35.));
#565=CARTESIAN_POINT('',(-18.5,2.13045302050325E-014,35.));
#566=CARTESIAN_POINT('',(-4.29764544498092E-014,-18.5,35.));
#567=CARTESIAN_POINT('',(-4.29764544498092E-014,-18.5,35.));
#568=CARTESIAN_POINT('',(-4.29764544498092E-014,-18.5,35.));
#569=CARTESIAN_POINT('',(18.5,-6.87562038856989E-014,35.));
#570=CARTESIAN_POINT('',(18.5,-6.8756203885699E-014,35.));
#571=CARTESIAN_POINT('',(18.5,-6.87562038856989E-014,35.));
#572=CARTESIAN_POINT('',(0.,0.,-69.2104241719908));
#573=CARTESIAN_POINT('',(-22.2359178822998,0.,-69.2104241719908));
#574=CARTESIAN_POINT('',(-8.86660177592138E-017,0.,-52.));
#575=CARTESIAN_POINT('',(-5.11534717841618E-019,0.,-0.3));
#576=CARTESIAN_POINT('',(0.,0.,-68.8));
#577=MECHANICAL_DESIGN_GEOMETRIC_PRESENTATION_REPRESENTATION('',(#281,#282,
#283,#284),#578);
#578=(
GEOMETRIC_REPRESENTATION_CONTEXT(3)
GLOBAL_UNCERTAINTY_ASSIGNED_CONTEXT((#579))
GLOBAL_UNIT_ASSIGNED_CONTEXT((#585,#581,#580))
REPRESENTATION_CONTEXT('1508153097754','TOP_LEVEL_ASSEMBLY_PART')
);
#579=UNCERTAINTY_MEASURE_WITH_UNIT(LENGTH_MEASURE(0.0508),#585,
'DISTANCE_ACCURACY_VALUE','Maximum Tolerance applied to model');
#580=(
NAMED_UNIT(*)
SI_UNIT($,.STERADIAN.)
SOLID_ANGLE_UNIT()
);
#581=(
CONVERSION_BASED_UNIT('DEGREE',#583)
NAMED_UNIT(#582)
PLANE_ANGLE_UNIT()
);
#582=DIMENSIONAL_EXPONENTS(0.,0.,0.,0.,0.,0.,0.);
#583=PLANE_ANGLE_MEASURE_WITH_UNIT(PLANE_ANGLE_MEASURE(0.0174532925),#584);
#584=(
NAMED_UNIT(*)
PLANE_ANGLE_UNIT()
SI_UNIT($,.RADIAN.)
);
#585=(
LENGTH_UNIT()
NAMED_UNIT(*)
SI_UNIT(.MILLI.,.METRE.)
);
ENDSEC;
END-ISO-10303-21;
