ISO-10303-21;
HEADER;
/* Generated by software containing ST-Developer
 * from STEP Tools, Inc. (www.steptools.com) 
 */
/* OPTION: using custom schema-name function */

FILE_DESCRIPTION(
/* description */ (''),
/* implementation_level */ '2;1');

FILE_NAME(
/* name */ '1498477071639.stp',
/* time_stamp */ '2017-06-26T13:37:55+02:00',
/* author */ (''),
/* organization */ ('SMS'),
/* preprocessor_version */ 'ST-DEVELOPER v15',
/* originating_system */ 'SIEMENS PLM Software NX 8.5',
/* authorisation */ '');

FILE_SCHEMA (('AUTOMOTIVE_DESIGN { 1 0 10303 214 3 1 1 1 }'));
ENDSEC;

DATA;
#10=CONSTRUCTIVE_GEOMETRY_REPRESENTATION_RELATIONSHIP(
'supplemental geometry','',#24,#11);
#11=CONSTRUCTIVE_GEOMETRY_REPRESENTATION('supplemental geometry',(#412,
#413,#414),#713);
#12=SHAPE_REPRESENTATION_RELATIONSHIP('None',
'relationship between 201120902MOD000_00-None and 201120902MOD000_00-N
one',#24,#13);
#13=ADVANCED_BREP_SHAPE_REPRESENTATION('201120902MOD000_00-None',(#30),
#713);
#14=SHAPE_DEFINITION_REPRESENTATION(#15,#24);
#15=PRODUCT_DEFINITION_SHAPE('','',#16);
#16=PRODUCT_DEFINITION(' ','',#18,#17);
#17=PRODUCT_DEFINITION_CONTEXT('part definition',#23,'design');
#18=PRODUCT_DEFINITION_FORMATION_WITH_SPECIFIED_SOURCE(' ',' ',#20,
 .NOT_KNOWN.);
#19=PRODUCT_RELATED_PRODUCT_CATEGORY('part','',(#20));
#20=PRODUCT('201120902MOD000_00','201120902MOD000_00',' ',(#21));
#21=PRODUCT_CONTEXT(' ',#23,'mechanical');
#22=APPLICATION_PROTOCOL_DEFINITION('international standard',
'automotive_design',2010,#23);
#23=APPLICATION_CONTEXT(
'core data for automotive mechanical design processes');
#24=SHAPE_REPRESENTATION('201120902MOD000_00-None',(#411),#713);
#25=SURFACE_STYLE_USAGE(.BOTH.,#26);
#26=SURFACE_SIDE_STYLE('',(#27));
#27=SURFACE_STYLE_FILL_AREA(#28);
#28=FILL_AREA_STYLE('',(#29));
#29=FILL_AREA_STYLE_COLOUR('',#407);
#30=MANIFOLD_SOLID_BREP('NOCUT',#31);
#31=CLOSED_SHELL('',(#58,#59,#60,#61,#62,#63,#64,#65,#66,#67,#68,#69,#70,
#71,#72,#73,#74,#75,#76,#77,#78,#79,#80,#81,#82,#83,#84,#85,#86,#87));
#32=TOROIDAL_SURFACE('',#442,12.65,0.4);
#33=TOROIDAL_SURFACE('',#469,10.6499999999999,0.4);
#34=TOROIDAL_SURFACE('',#470,13.064,2.65);
#35=TOROIDAL_SURFACE('',#471,13.064,2.65);
#36=CONICAL_SURFACE('',#429,11.5450606325167,30.);
#37=CONICAL_SURFACE('',#433,14.478,45.);
#38=CONICAL_SURFACE('',#438,13.6,69.9999999999999);
#39=CONICAL_SURFACE('',#446,12.25,30.0000000000001);
#40=CONICAL_SURFACE('',#450,12.5,45.0000000000028);
#41=CONICAL_SURFACE('',#457,10.2499999999999,29.9999999999979);
#42=CONICAL_SURFACE('',#461,12.,45.);
#43=CONICAL_SURFACE('',#465,5.57735026918959,29.9999999999999);
#44=CONICAL_SURFACE('',#468,4.99999999999997,29.9999999999999);
#45=CYLINDRICAL_SURFACE('',#420,18.28);
#46=CYLINDRICAL_SURFACE('',#422,18.28);
#47=CYLINDRICAL_SURFACE('',#431,14.478);
#48=CYLINDRICAL_SURFACE('',#436,10.414);
#49=CYLINDRICAL_SURFACE('',#444,12.25);
#50=CYLINDRICAL_SURFACE('',#448,12.5);
#51=CYLINDRICAL_SURFACE('',#455,10.2499999999999);
#52=CYLINDRICAL_SURFACE('',#459,12.);
#53=CYLINDRICAL_SURFACE('',#467,4.99999999999997);
#54=FACE_OUTER_BOUND('',#166,.T.);
#55=FACE_OUTER_BOUND('',#167,.T.);
#56=FACE_OUTER_BOUND('',#218,.T.);
#57=FACE_OUTER_BOUND('',#219,.T.);
#58=ADVANCED_FACE('',(#112,#113),#88,.F.);
#59=ADVANCED_FACE('',(#54),#45,.T.);
#60=ADVANCED_FACE('',(#55),#46,.T.);
#61=ADVANCED_FACE('',(#114,#115),#89,.F.);
#62=ADVANCED_FACE('',(#116,#117),#90,.F.);
#63=ADVANCED_FACE('',(#118,#119),#36,.T.);
#64=ADVANCED_FACE('',(#120,#121),#47,.T.);
#65=ADVANCED_FACE('',(#122,#123),#37,.T.);
#66=ADVANCED_FACE('',(#124,#125),#48,.T.);
#67=ADVANCED_FACE('',(#126,#127),#38,.F.);
#68=ADVANCED_FACE('',(#128,#129),#91,.F.);
#69=ADVANCED_FACE('',(#130,#131),#32,.F.);
#70=ADVANCED_FACE('',(#132,#133),#49,.T.);
#71=ADVANCED_FACE('',(#134,#135),#39,.T.);
#72=ADVANCED_FACE('',(#136,#137),#50,.T.);
#73=ADVANCED_FACE('',(#138,#139),#40,.T.);
#74=ADVANCED_FACE('',(#140,#141),#92,.F.);
#75=ADVANCED_FACE('',(#142,#143),#51,.T.);
#76=ADVANCED_FACE('',(#144,#145),#41,.T.);
#77=ADVANCED_FACE('',(#146,#147),#52,.T.);
#78=ADVANCED_FACE('',(#148,#149),#42,.T.);
#79=ADVANCED_FACE('',(#150,#151),#93,.F.);
#80=ADVANCED_FACE('',(#152,#153),#43,.F.);
#81=ADVANCED_FACE('',(#154,#155),#53,.F.);
#82=ADVANCED_FACE('',(#156,#157),#44,.F.);
#83=ADVANCED_FACE('',(#158,#159),#33,.F.);
#84=ADVANCED_FACE('',(#160,#161),#34,.F.);
#85=ADVANCED_FACE('',(#162,#163),#35,.F.);
#86=ADVANCED_FACE('',(#56),#94,.F.);
#87=ADVANCED_FACE('',(#57),#95,.T.);
#88=PLANE('',#418);
#89=PLANE('',#424);
#90=PLANE('',#427);
#91=PLANE('',#440);
#92=PLANE('',#452);
#93=PLANE('',#463);
#94=PLANE('',#472);
#95=PLANE('',#473);
#96=LINE('',#614,#104);
#97=LINE('',#619,#105);
#98=LINE('',#623,#106);
#99=LINE('',#625,#107);
#100=LINE('',#629,#108);
#101=LINE('',#633,#109);
#102=LINE('',#637,#110);
#103=LINE('',#638,#111);
#104=VECTOR('',#484,1.);
#105=VECTOR('',#487,1.);
#106=VECTOR('',#492,1.);
#107=VECTOR('',#493,1.);
#108=VECTOR('',#498,1.);
#109=VECTOR('',#501,1.);
#110=VECTOR('',#506,1.);
#111=VECTOR('',#507,1.);
#112=FACE_BOUND('',#164,.T.);
#113=FACE_BOUND('',#165,.T.);
#114=FACE_BOUND('',#168,.T.);
#115=FACE_BOUND('',#169,.T.);
#116=FACE_BOUND('',#170,.T.);
#117=FACE_BOUND('',#171,.T.);
#118=FACE_BOUND('',#172,.T.);
#119=FACE_BOUND('',#173,.T.);
#120=FACE_BOUND('',#174,.T.);
#121=FACE_BOUND('',#175,.T.);
#122=FACE_BOUND('',#176,.T.);
#123=FACE_BOUND('',#177,.T.);
#124=FACE_BOUND('',#178,.T.);
#125=FACE_BOUND('',#179,.T.);
#126=FACE_BOUND('',#180,.T.);
#127=FACE_BOUND('',#181,.T.);
#128=FACE_BOUND('',#182,.T.);
#129=FACE_BOUND('',#183,.T.);
#130=FACE_BOUND('',#184,.T.);
#131=FACE_BOUND('',#185,.T.);
#132=FACE_BOUND('',#186,.T.);
#133=FACE_BOUND('',#187,.T.);
#134=FACE_BOUND('',#188,.T.);
#135=FACE_BOUND('',#189,.T.);
#136=FACE_BOUND('',#190,.T.);
#137=FACE_BOUND('',#191,.T.);
#138=FACE_BOUND('',#192,.T.);
#139=FACE_BOUND('',#193,.T.);
#140=FACE_BOUND('',#194,.T.);
#141=FACE_BOUND('',#195,.T.);
#142=FACE_BOUND('',#196,.T.);
#143=FACE_BOUND('',#197,.T.);
#144=FACE_BOUND('',#198,.T.);
#145=FACE_BOUND('',#199,.T.);
#146=FACE_BOUND('',#200,.T.);
#147=FACE_BOUND('',#201,.T.);
#148=FACE_BOUND('',#202,.T.);
#149=FACE_BOUND('',#203,.T.);
#150=FACE_BOUND('',#204,.T.);
#151=FACE_BOUND('',#205,.T.);
#152=FACE_BOUND('',#206,.T.);
#153=FACE_BOUND('',#207,.T.);
#154=FACE_BOUND('',#208,.T.);
#155=FACE_BOUND('',#209,.T.);
#156=FACE_BOUND('',#210,.T.);
#157=FACE_BOUND('',#211,.T.);
#158=FACE_BOUND('',#212,.T.);
#159=FACE_BOUND('',#213,.T.);
#160=FACE_BOUND('',#214,.T.);
#161=FACE_BOUND('',#215,.T.);
#162=FACE_BOUND('',#216,.T.);
#163=FACE_BOUND('',#217,.T.);
#164=EDGE_LOOP('',(#220));
#165=EDGE_LOOP('',(#221,#222,#223,#224));
#166=EDGE_LOOP('',(#225,#226,#227,#228));
#167=EDGE_LOOP('',(#229,#230,#231,#232));
#168=EDGE_LOOP('',(#233));
#169=EDGE_LOOP('',(#234,#235,#236,#237));
#170=EDGE_LOOP('',(#238));
#171=EDGE_LOOP('',(#239));
#172=EDGE_LOOP('',(#240));
#173=EDGE_LOOP('',(#241));
#174=EDGE_LOOP('',(#242));
#175=EDGE_LOOP('',(#243));
#176=EDGE_LOOP('',(#244));
#177=EDGE_LOOP('',(#245));
#178=EDGE_LOOP('',(#246));
#179=EDGE_LOOP('',(#247));
#180=EDGE_LOOP('',(#248));
#181=EDGE_LOOP('',(#249));
#182=EDGE_LOOP('',(#250));
#183=EDGE_LOOP('',(#251));
#184=EDGE_LOOP('',(#252));
#185=EDGE_LOOP('',(#253));
#186=EDGE_LOOP('',(#254));
#187=EDGE_LOOP('',(#255));
#188=EDGE_LOOP('',(#256));
#189=EDGE_LOOP('',(#257));
#190=EDGE_LOOP('',(#258));
#191=EDGE_LOOP('',(#259));
#192=EDGE_LOOP('',(#260));
#193=EDGE_LOOP('',(#261));
#194=EDGE_LOOP('',(#262));
#195=EDGE_LOOP('',(#263));
#196=EDGE_LOOP('',(#264));
#197=EDGE_LOOP('',(#265));
#198=EDGE_LOOP('',(#266));
#199=EDGE_LOOP('',(#267));
#200=EDGE_LOOP('',(#268));
#201=EDGE_LOOP('',(#269));
#202=EDGE_LOOP('',(#270));
#203=EDGE_LOOP('',(#271));
#204=EDGE_LOOP('',(#272));
#205=EDGE_LOOP('',(#273));
#206=EDGE_LOOP('',(#274));
#207=EDGE_LOOP('',(#275));
#208=EDGE_LOOP('',(#276));
#209=EDGE_LOOP('',(#277));
#210=EDGE_LOOP('',(#278));
#211=EDGE_LOOP('',(#279));
#212=EDGE_LOOP('',(#280));
#213=EDGE_LOOP('',(#281));
#214=EDGE_LOOP('',(#282));
#215=EDGE_LOOP('',(#283));
#216=EDGE_LOOP('',(#284));
#217=EDGE_LOOP('',(#285));
#218=EDGE_LOOP('',(#286,#287,#288,#289));
#219=EDGE_LOOP('',(#290,#291,#292,#293));
#220=ORIENTED_EDGE('',*,*,#327,.T.);
#221=ORIENTED_EDGE('',*,*,#328,.F.);
#222=ORIENTED_EDGE('',*,*,#329,.F.);
#223=ORIENTED_EDGE('',*,*,#330,.T.);
#224=ORIENTED_EDGE('',*,*,#331,.F.);
#225=ORIENTED_EDGE('',*,*,#332,.T.);
#226=ORIENTED_EDGE('',*,*,#331,.T.);
#227=ORIENTED_EDGE('',*,*,#333,.F.);
#228=ORIENTED_EDGE('',*,*,#334,.F.);
#229=ORIENTED_EDGE('',*,*,#335,.T.);
#230=ORIENTED_EDGE('',*,*,#336,.F.);
#231=ORIENTED_EDGE('',*,*,#337,.F.);
#232=ORIENTED_EDGE('',*,*,#329,.T.);
#233=ORIENTED_EDGE('',*,*,#338,.F.);
#234=ORIENTED_EDGE('',*,*,#336,.T.);
#235=ORIENTED_EDGE('',*,*,#339,.T.);
#236=ORIENTED_EDGE('',*,*,#334,.T.);
#237=ORIENTED_EDGE('',*,*,#340,.F.);
#238=ORIENTED_EDGE('',*,*,#341,.F.);
#239=ORIENTED_EDGE('',*,*,#342,.T.);
#240=ORIENTED_EDGE('',*,*,#343,.F.);
#241=ORIENTED_EDGE('',*,*,#341,.T.);
#242=ORIENTED_EDGE('',*,*,#344,.F.);
#243=ORIENTED_EDGE('',*,*,#343,.T.);
#244=ORIENTED_EDGE('',*,*,#345,.T.);
#245=ORIENTED_EDGE('',*,*,#344,.T.);
#246=ORIENTED_EDGE('',*,*,#346,.T.);
#247=ORIENTED_EDGE('',*,*,#347,.T.);
#248=ORIENTED_EDGE('',*,*,#348,.F.);
#249=ORIENTED_EDGE('',*,*,#338,.T.);
#250=ORIENTED_EDGE('',*,*,#349,.F.);
#251=ORIENTED_EDGE('',*,*,#348,.T.);
#252=ORIENTED_EDGE('',*,*,#350,.F.);
#253=ORIENTED_EDGE('',*,*,#349,.T.);
#254=ORIENTED_EDGE('',*,*,#351,.F.);
#255=ORIENTED_EDGE('',*,*,#350,.T.);
#256=ORIENTED_EDGE('',*,*,#352,.F.);
#257=ORIENTED_EDGE('',*,*,#351,.T.);
#258=ORIENTED_EDGE('',*,*,#353,.F.);
#259=ORIENTED_EDGE('',*,*,#352,.T.);
#260=ORIENTED_EDGE('',*,*,#354,.F.);
#261=ORIENTED_EDGE('',*,*,#353,.T.);
#262=ORIENTED_EDGE('',*,*,#355,.T.);
#263=ORIENTED_EDGE('',*,*,#354,.T.);
#264=ORIENTED_EDGE('',*,*,#356,.T.);
#265=ORIENTED_EDGE('',*,*,#357,.F.);
#266=ORIENTED_EDGE('',*,*,#358,.F.);
#267=ORIENTED_EDGE('',*,*,#357,.T.);
#268=ORIENTED_EDGE('',*,*,#359,.F.);
#269=ORIENTED_EDGE('',*,*,#358,.T.);
#270=ORIENTED_EDGE('',*,*,#360,.F.);
#271=ORIENTED_EDGE('',*,*,#359,.T.);
#272=ORIENTED_EDGE('',*,*,#361,.F.);
#273=ORIENTED_EDGE('',*,*,#360,.T.);
#274=ORIENTED_EDGE('',*,*,#362,.F.);
#275=ORIENTED_EDGE('',*,*,#361,.T.);
#276=ORIENTED_EDGE('',*,*,#363,.F.);
#277=ORIENTED_EDGE('',*,*,#362,.T.);
#278=ORIENTED_EDGE('',*,*,#342,.F.);
#279=ORIENTED_EDGE('',*,*,#363,.T.);
#280=ORIENTED_EDGE('',*,*,#355,.F.);
#281=ORIENTED_EDGE('',*,*,#356,.F.);
#282=ORIENTED_EDGE('',*,*,#347,.F.);
#283=ORIENTED_EDGE('',*,*,#327,.F.);
#284=ORIENTED_EDGE('',*,*,#345,.F.);
#285=ORIENTED_EDGE('',*,*,#346,.F.);
#286=ORIENTED_EDGE('',*,*,#330,.F.);
#287=ORIENTED_EDGE('',*,*,#337,.T.);
#288=ORIENTED_EDGE('',*,*,#340,.T.);
#289=ORIENTED_EDGE('',*,*,#333,.T.);
#290=ORIENTED_EDGE('',*,*,#332,.F.);
#291=ORIENTED_EDGE('',*,*,#339,.F.);
#292=ORIENTED_EDGE('',*,*,#335,.F.);
#293=ORIENTED_EDGE('',*,*,#328,.T.);
#294=VERTEX_POINT('',#613);
#295=VERTEX_POINT('',#615);
#296=VERTEX_POINT('',#616);
#297=VERTEX_POINT('',#618);
#298=VERTEX_POINT('',#620);
#299=VERTEX_POINT('',#624);
#300=VERTEX_POINT('',#626);
#301=VERTEX_POINT('',#630);
#302=VERTEX_POINT('',#632);
#303=VERTEX_POINT('',#636);
#304=VERTEX_POINT('',#641);
#305=VERTEX_POINT('',#643);
#306=VERTEX_POINT('',#646);
#307=VERTEX_POINT('',#649);
#308=VERTEX_POINT('',#652);
#309=VERTEX_POINT('',#655);
#310=VERTEX_POINT('',#657);
#311=VERTEX_POINT('',#660);
#312=VERTEX_POINT('',#663);
#313=VERTEX_POINT('',#666);
#314=VERTEX_POINT('',#669);
#315=VERTEX_POINT('',#672);
#316=VERTEX_POINT('',#675);
#317=VERTEX_POINT('',#678);
#318=VERTEX_POINT('',#681);
#319=VERTEX_POINT('',#684);
#320=VERTEX_POINT('',#686);
#321=VERTEX_POINT('',#689);
#322=VERTEX_POINT('',#692);
#323=VERTEX_POINT('',#695);
#324=VERTEX_POINT('',#698);
#325=VERTEX_POINT('',#701);
#326=VERTEX_POINT('',#704);
#327=EDGE_CURVE('',#294,#294,#364,.T.);
#328=EDGE_CURVE('',#295,#296,#96,.T.);
#329=EDGE_CURVE('',#297,#295,#365,.T.);
#330=EDGE_CURVE('',#297,#298,#97,.T.);
#331=EDGE_CURVE('',#296,#298,#366,.T.);
#332=EDGE_CURVE('',#299,#296,#98,.T.);
#333=EDGE_CURVE('',#300,#298,#99,.T.);
#334=EDGE_CURVE('',#299,#300,#367,.T.);
#335=EDGE_CURVE('',#295,#301,#100,.T.);
#336=EDGE_CURVE('',#302,#301,#368,.T.);
#337=EDGE_CURVE('',#297,#302,#101,.T.);
#338=EDGE_CURVE('',#303,#303,#369,.T.);
#339=EDGE_CURVE('',#301,#299,#102,.T.);
#340=EDGE_CURVE('',#302,#300,#103,.T.);
#341=EDGE_CURVE('',#304,#304,#370,.T.);
#342=EDGE_CURVE('',#305,#305,#371,.T.);
#343=EDGE_CURVE('',#306,#306,#372,.T.);
#344=EDGE_CURVE('',#307,#307,#373,.T.);
#345=EDGE_CURVE('',#308,#308,#374,.T.);
#346=EDGE_CURVE('',#309,#309,#375,.T.);
#347=EDGE_CURVE('',#310,#310,#376,.T.);
#348=EDGE_CURVE('',#311,#311,#377,.T.);
#349=EDGE_CURVE('',#312,#312,#378,.T.);
#350=EDGE_CURVE('',#313,#313,#379,.T.);
#351=EDGE_CURVE('',#314,#314,#380,.T.);
#352=EDGE_CURVE('',#315,#315,#381,.T.);
#353=EDGE_CURVE('',#316,#316,#382,.T.);
#354=EDGE_CURVE('',#317,#317,#383,.T.);
#355=EDGE_CURVE('',#318,#318,#384,.T.);
#356=EDGE_CURVE('',#319,#319,#385,.T.);
#357=EDGE_CURVE('',#320,#320,#386,.T.);
#358=EDGE_CURVE('',#321,#321,#387,.T.);
#359=EDGE_CURVE('',#322,#322,#388,.T.);
#360=EDGE_CURVE('',#323,#323,#389,.T.);
#361=EDGE_CURVE('',#324,#324,#390,.T.);
#362=EDGE_CURVE('',#325,#325,#391,.T.);
#363=EDGE_CURVE('',#326,#326,#392,.T.);
#364=CIRCLE('',#415,13.064);
#365=CIRCLE('',#416,18.28);
#366=CIRCLE('',#417,18.28);
#367=CIRCLE('',#419,18.28);
#368=CIRCLE('',#421,18.28);
#369=CIRCLE('',#423,13.6);
#370=CIRCLE('',#425,11.5450606325167);
#371=CIRCLE('',#426,5.57735026918959);
#372=CIRCLE('',#428,14.478);
#373=CIRCLE('',#430,14.478);
#374=CIRCLE('',#432,11.1901670298556);
#375=CIRCLE('',#434,10.414);
#376=CIRCLE('',#435,10.414);
#377=CIRCLE('',#437,13.0505045161091);
#378=CIRCLE('',#439,12.65);
#379=CIRCLE('',#441,12.25);
#380=CIRCLE('',#443,12.25);
#381=CIRCLE('',#445,12.5);
#382=CIRCLE('',#447,12.5);
#383=CIRCLE('',#449,11.9999999999999);
#384=CIRCLE('',#451,10.6499999999999);
#385=CIRCLE('',#453,10.2499999999999);
#386=CIRCLE('',#454,10.2499999999999);
#387=CIRCLE('',#456,11.9999999999999);
#388=CIRCLE('',#458,12.);
#389=CIRCLE('',#460,8.99999999999997);
#390=CIRCLE('',#462,5.57735026918959);
#391=CIRCLE('',#464,4.99999999999997);
#392=CIRCLE('',#466,4.99999999999997);
#393=PRESENTATION_LAYER_ASSIGNMENT('1','Layer 1',(#412,#413,#414));
#394=PRESENTATION_LAYER_ASSIGNMENT('4','Layer 4',(#30));
#395=STYLED_ITEM('',(#399),#412);
#396=STYLED_ITEM('',(#400),#413);
#397=STYLED_ITEM('',(#401),#414);
#398=STYLED_ITEM('',(#402),#30);
#399=PRESENTATION_STYLE_ASSIGNMENT((#403));
#400=PRESENTATION_STYLE_ASSIGNMENT((#404));
#401=PRESENTATION_STYLE_ASSIGNMENT((#405));
#402=PRESENTATION_STYLE_ASSIGNMENT((#25));
#403=CURVE_STYLE('',#408,POSITIVE_LENGTH_MEASURE(0.13),#406);
#404=CURVE_STYLE('',#409,POSITIVE_LENGTH_MEASURE(0.13),#406);
#405=CURVE_STYLE('',#410,POSITIVE_LENGTH_MEASURE(0.13),#406);
#406=COLOUR_RGB('Strong Stone',0.576470588235294,0.54508278019379,0.392156862745098);
#407=COLOUR_RGB('TLS_NOCUT',0.499992370489052,0.499992370489052,0.499992370489052);
#408=DRAUGHTING_PRE_DEFINED_CURVE_FONT('continuous');
#409=DRAUGHTING_PRE_DEFINED_CURVE_FONT('continuous');
#410=DRAUGHTING_PRE_DEFINED_CURVE_FONT('continuous');
#411=AXIS2_PLACEMENT_3D('',#608,#474,#475);
#412=AXIS2_PLACEMENT_3D('PCS',#609,#476,#477);
#413=AXIS2_PLACEMENT_3D('MCS',#610,#478,#479);
#414=AXIS2_PLACEMENT_3D('CSW',#611,#480,#481);
#415=AXIS2_PLACEMENT_3D('',#612,#482,#483);
#416=AXIS2_PLACEMENT_3D('',#617,#485,#486);
#417=AXIS2_PLACEMENT_3D('',#621,#488,#489);
#418=AXIS2_PLACEMENT_3D('',#622,#490,#491);
#419=AXIS2_PLACEMENT_3D('',#627,#494,#495);
#420=AXIS2_PLACEMENT_3D('',#628,#496,#497);
#421=AXIS2_PLACEMENT_3D('',#631,#499,#500);
#422=AXIS2_PLACEMENT_3D('',#634,#502,#503);
#423=AXIS2_PLACEMENT_3D('',#635,#504,#505);
#424=AXIS2_PLACEMENT_3D('',#639,#508,#509);
#425=AXIS2_PLACEMENT_3D('',#640,#510,#511);
#426=AXIS2_PLACEMENT_3D('',#642,#512,#513);
#427=AXIS2_PLACEMENT_3D('',#644,#514,#515);
#428=AXIS2_PLACEMENT_3D('',#645,#516,#517);
#429=AXIS2_PLACEMENT_3D('',#647,#518,#519);
#430=AXIS2_PLACEMENT_3D('',#648,#520,#521);
#431=AXIS2_PLACEMENT_3D('',#650,#522,#523);
#432=AXIS2_PLACEMENT_3D('',#651,#524,#525);
#433=AXIS2_PLACEMENT_3D('',#653,#526,#527);
#434=AXIS2_PLACEMENT_3D('',#654,#528,#529);
#435=AXIS2_PLACEMENT_3D('',#656,#530,#531);
#436=AXIS2_PLACEMENT_3D('',#658,#532,#533);
#437=AXIS2_PLACEMENT_3D('',#659,#534,#535);
#438=AXIS2_PLACEMENT_3D('',#661,#536,#537);
#439=AXIS2_PLACEMENT_3D('',#662,#538,#539);
#440=AXIS2_PLACEMENT_3D('',#664,#540,#541);
#441=AXIS2_PLACEMENT_3D('',#665,#542,#543);
#442=AXIS2_PLACEMENT_3D('',#667,#544,#545);
#443=AXIS2_PLACEMENT_3D('',#668,#546,#547);
#444=AXIS2_PLACEMENT_3D('',#670,#548,#549);
#445=AXIS2_PLACEMENT_3D('',#671,#550,#551);
#446=AXIS2_PLACEMENT_3D('',#673,#552,#553);
#447=AXIS2_PLACEMENT_3D('',#674,#554,#555);
#448=AXIS2_PLACEMENT_3D('',#676,#556,#557);
#449=AXIS2_PLACEMENT_3D('',#677,#558,#559);
#450=AXIS2_PLACEMENT_3D('',#679,#560,#561);
#451=AXIS2_PLACEMENT_3D('',#680,#562,#563);
#452=AXIS2_PLACEMENT_3D('',#682,#564,#565);
#453=AXIS2_PLACEMENT_3D('',#683,#566,#567);
#454=AXIS2_PLACEMENT_3D('',#685,#568,#569);
#455=AXIS2_PLACEMENT_3D('',#687,#570,#571);
#456=AXIS2_PLACEMENT_3D('',#688,#572,#573);
#457=AXIS2_PLACEMENT_3D('',#690,#574,#575);
#458=AXIS2_PLACEMENT_3D('',#691,#576,#577);
#459=AXIS2_PLACEMENT_3D('',#693,#578,#579);
#460=AXIS2_PLACEMENT_3D('',#694,#580,#581);
#461=AXIS2_PLACEMENT_3D('',#696,#582,#583);
#462=AXIS2_PLACEMENT_3D('',#697,#584,#585);
#463=AXIS2_PLACEMENT_3D('',#699,#586,#587);
#464=AXIS2_PLACEMENT_3D('',#700,#588,#589);
#465=AXIS2_PLACEMENT_3D('',#702,#590,#591);
#466=AXIS2_PLACEMENT_3D('',#703,#592,#593);
#467=AXIS2_PLACEMENT_3D('',#705,#594,#595);
#468=AXIS2_PLACEMENT_3D('',#706,#596,#597);
#469=AXIS2_PLACEMENT_3D('',#707,#598,#599);
#470=AXIS2_PLACEMENT_3D('',#708,#600,#601);
#471=AXIS2_PLACEMENT_3D('',#709,#602,#603);
#472=AXIS2_PLACEMENT_3D('',#710,#604,#605);
#473=AXIS2_PLACEMENT_3D('',#711,#606,#607);
#474=DIRECTION('',(0.,0.,1.));
#475=DIRECTION('',(1.,0.,0.));
#476=DIRECTION('',(0.,0.,1.));
#477=DIRECTION('',(1.,0.,0.));
#478=DIRECTION('',(0.,0.,1.));
#479=DIRECTION('',(1.,0.,0.));
#480=DIRECTION('',(0.,0.,1.));
#481=DIRECTION('',(1.,0.,0.));
#482=DIRECTION('',(0.,0.,-1.));
#483=DIRECTION('',(0.,1.,0.));
#484=DIRECTION('',(1.,0.,0.));
#485=DIRECTION('',(0.,0.,-1.));
#486=DIRECTION('',(0.,1.,0.));
#487=DIRECTION('',(1.,0.,0.));
#488=DIRECTION('',(0.,0.,-1.));
#489=DIRECTION('',(0.,1.,0.));
#490=DIRECTION('',(0.,0.,-1.));
#491=DIRECTION('',(0.,1.,0.));
#492=DIRECTION('',(0.,0.,1.));
#493=DIRECTION('',(0.,0.,1.));
#494=DIRECTION('',(0.,0.,-1.));
#495=DIRECTION('',(0.,1.,0.));
#496=DIRECTION('',(0.,0.,-1.));
#497=DIRECTION('',(0.,1.,0.));
#498=DIRECTION('',(0.,0.,-1.));
#499=DIRECTION('',(0.,0.,-1.));
#500=DIRECTION('',(0.,1.,0.));
#501=DIRECTION('',(0.,0.,-1.));
#502=DIRECTION('',(0.,0.,-1.));
#503=DIRECTION('',(0.,1.,0.));
#504=DIRECTION('',(0.,0.,-1.));
#505=DIRECTION('',(0.,1.,0.));
#506=DIRECTION('',(1.,0.,0.));
#507=DIRECTION('',(1.,0.,0.));
#508=DIRECTION('',(0.,0.,1.));
#509=DIRECTION('',(0.,-1.,0.));
#510=DIRECTION('',(0.,0.,-1.));
#511=DIRECTION('',(0.,1.,0.));
#512=DIRECTION('',(0.,0.,-1.));
#513=DIRECTION('',(0.,1.,0.));
#514=DIRECTION('',(0.,0.,-1.));
#515=DIRECTION('',(0.,1.,0.));
#516=DIRECTION('',(0.,0.,-1.));
#517=DIRECTION('',(0.,1.,0.));
#518=DIRECTION('',(0.,0.,-1.));
#519=DIRECTION('',(0.,1.,-3.5348695527962E-017));
#520=DIRECTION('',(0.,0.,-1.));
#521=DIRECTION('',(0.,1.,0.));
#522=DIRECTION('',(0.,0.,-1.));
#523=DIRECTION('',(0.,1.,0.));
#524=DIRECTION('',(0.,0.,1.));
#525=DIRECTION('',(0.,-1.,0.));
#526=DIRECTION('',(0.,0.,1.));
#527=DIRECTION('',(0.,-1.,3.41993315966794E-018));
#528=DIRECTION('',(0.,0.,-1.));
#529=DIRECTION('',(0.,1.,0.));
#530=DIRECTION('',(0.,0.,1.));
#531=DIRECTION('',(0.,1.,0.));
#532=DIRECTION('',(0.,0.,-1.));
#533=DIRECTION('',(0.,1.,0.));
#534=DIRECTION('',(0.,0.,-1.));
#535=DIRECTION('',(0.,1.,0.));
#536=DIRECTION('',(0.,0.,-1.));
#537=DIRECTION('',(0.,1.,1.9240377453381E-017));
#538=DIRECTION('',(0.,0.,-1.));
#539=DIRECTION('',(0.,1.,0.));
#540=DIRECTION('',(0.,0.,1.));
#541=DIRECTION('',(0.,-1.,0.));
#542=DIRECTION('',(0.,0.,-1.));
#543=DIRECTION('',(0.,1.,0.));
#544=DIRECTION('',(0.,0.,-1.));
#545=DIRECTION('',(0.,1.,0.));
#546=DIRECTION('',(0.,0.,-1.));
#547=DIRECTION('',(0.,1.,0.));
#548=DIRECTION('',(0.,0.,-1.));
#549=DIRECTION('',(0.,1.,0.));
#550=DIRECTION('',(0.,0.,-1.));
#551=DIRECTION('',(0.,1.,0.));
#552=DIRECTION('',(0.,0.,-1.));
#553=DIRECTION('',(0.,1.,-1.80209912471065E-016));
#554=DIRECTION('',(0.,0.,-1.));
#555=DIRECTION('',(0.,1.,0.));
#556=DIRECTION('',(0.,0.,-1.));
#557=DIRECTION('',(0.,1.,0.));
#558=DIRECTION('',(0.,0.,-1.));
#559=DIRECTION('',(0.,1.,0.));
#560=DIRECTION('',(0.,0.,1.));
#561=DIRECTION('',(0.,-1.,-3.51227963037246E-017));
#562=DIRECTION('',(0.,0.,1.));
#563=DIRECTION('',(0.,-1.,0.));
#564=DIRECTION('',(0.,0.,1.));
#565=DIRECTION('',(0.,-1.,0.));
#566=DIRECTION('',(0.,0.,-1.));
#567=DIRECTION('',(0.,-1.,0.));
#568=DIRECTION('',(0.,0.,-1.));
#569=DIRECTION('',(0.,1.,0.));
#570=DIRECTION('',(0.,0.,-1.));
#571=DIRECTION('',(0.,1.,0.));
#572=DIRECTION('',(0.,0.,-1.));
#573=DIRECTION('',(0.,1.,0.));
#574=DIRECTION('',(0.,0.,-1.));
#575=DIRECTION('',(0.,1.,-1.29897545908635E-016));
#576=DIRECTION('',(0.,0.,-1.));
#577=DIRECTION('',(0.,1.,0.));
#578=DIRECTION('',(0.,0.,-1.));
#579=DIRECTION('',(0.,1.,0.));
#580=DIRECTION('',(0.,0.,-1.));
#581=DIRECTION('',(0.,1.,0.));
#582=DIRECTION('',(0.,0.,1.));
#583=DIRECTION('',(0.,-1.,-3.4283072647763E-017));
#584=DIRECTION('',(0.,0.,-1.));
#585=DIRECTION('',(0.,1.,0.));
#586=DIRECTION('',(0.,0.,1.));
#587=DIRECTION('',(0.,-1.,0.));
#588=DIRECTION('',(0.,0.,-1.));
#589=DIRECTION('',(0.,1.,0.));
#590=DIRECTION('',(0.,0.,-1.));
#591=DIRECTION('',(0.,1.,-5.95176285380787E-017));
#592=DIRECTION('',(0.,0.,-1.));
#593=DIRECTION('',(0.,1.,0.));
#594=DIRECTION('',(0.,0.,-1.));
#595=DIRECTION('',(0.,1.,0.));
#596=DIRECTION('',(0.,0.,1.));
#597=DIRECTION('',(0.,-1.,-3.57459810925981E-017));
#598=DIRECTION('',(0.,0.,1.));
#599=DIRECTION('',(0.,-1.,0.));
#600=DIRECTION('',(0.,0.,-1.));
#601=DIRECTION('',(0.,1.,0.));
#602=DIRECTION('',(0.,0.,-1.));
#603=DIRECTION('',(0.,1.,0.));
#604=DIRECTION('',(0.,1.,3.46944695195362E-016));
#605=DIRECTION('',(0.,-3.46944695195361E-016,1.));
#606=DIRECTION('',(0.,1.,0.));
#607=DIRECTION('',(0.,0.,1.));
#608=CARTESIAN_POINT('',(0.,0.,0.));
#609=CARTESIAN_POINT('',(0.,0.,0.));
#610=CARTESIAN_POINT('',(0.,0.,0.));
#611=CARTESIAN_POINT('',(0.,0.,-40.));
#612=CARTESIAN_POINT('',(0.,0.,4.99999999999992));
#613=CARTESIAN_POINT('',(0.,13.064,4.99999999999992));
#614=CARTESIAN_POINT('',(-20.108,15.075,4.99999999999994));
#615=CARTESIAN_POINT('',(-10.339379816991,15.075,4.99999999999994));
#616=CARTESIAN_POINT('',(10.339379816991,15.075,4.99999999999994));
#617=CARTESIAN_POINT('',(0.,0.,4.99999999999992));
#618=CARTESIAN_POINT('',(-10.3393798169909,-15.075,4.99999999999992));
#619=CARTESIAN_POINT('',(-20.108,-15.075,4.99999999999992));
#620=CARTESIAN_POINT('',(10.3393798169909,-15.075,4.99999999999992));
#621=CARTESIAN_POINT('',(0.,0.,4.99999999999992));
#622=CARTESIAN_POINT('',(-7.04927525594826E-029,10.414,4.99999999999992));
#623=CARTESIAN_POINT('',(10.339379816991,15.075,0.));
#624=CARTESIAN_POINT('',(10.339379816991,15.075,-7.34967642301854E-014));
#625=CARTESIAN_POINT('',(10.339379816991,-15.075,-5.23019128007008E-015));
#626=CARTESIAN_POINT('',(10.339379816991,-15.075,-7.37188088351104E-014));
#627=CARTESIAN_POINT('',(0.,0.,-8.32667268468867E-014));
#628=CARTESIAN_POINT('',(0.,0.,0.));
#629=CARTESIAN_POINT('',(-10.339379816991,15.075,0.));
#630=CARTESIAN_POINT('',(-10.339379816991,15.075,-8.32667268468867E-014));
#631=CARTESIAN_POINT('',(0.,0.,-8.32667268468867E-014));
#632=CARTESIAN_POINT('',(-10.339379816991,-15.075,-7.37188088351104E-014));
#633=CARTESIAN_POINT('',(-10.339379816991,-15.075,-5.23019128007008E-015));
#634=CARTESIAN_POINT('',(0.,0.,0.));
#635=CARTESIAN_POINT('',(0.,0.,-5.31241717283137E-014));
#636=CARTESIAN_POINT('',(0.,13.6,-5.31241717283137E-014));
#637=CARTESIAN_POINT('',(-20.108,15.075,-7.34967642301854E-014));
#638=CARTESIAN_POINT('',(-20.108,-15.075,-7.37188088351104E-014));
#639=CARTESIAN_POINT('',(-8.51969777638693E-029,18.28,-6.81954492876002E-014));
#640=CARTESIAN_POINT('',(0.,0.,25.4));
#641=CARTESIAN_POINT('',(0.,11.5450606325167,25.4));
#642=CARTESIAN_POINT('',(0.,0.,25.4));
#643=CARTESIAN_POINT('',(0.,5.57735026918959,25.4));
#644=CARTESIAN_POINT('',(0.,5.57735026918959,25.4));
#645=CARTESIAN_POINT('',(0.,0.,20.32));
#646=CARTESIAN_POINT('',(0.,14.478,20.32));
#647=CARTESIAN_POINT('',(0.,0.,25.4));
#648=CARTESIAN_POINT('',(0.,0.,17.7799999999999));
#649=CARTESIAN_POINT('',(0.,14.478,17.7799999999999));
#650=CARTESIAN_POINT('',(0.,0.,0.));
#651=CARTESIAN_POINT('',(0.,0.,14.4921670298556));
#652=CARTESIAN_POINT('',(0.,-11.1901670298556,14.4921670298556));
#653=CARTESIAN_POINT('',(0.,0.,17.7799999999999));
#654=CARTESIAN_POINT('',(0.,0.,12.6183340597112));
#655=CARTESIAN_POINT('',(0.,10.414,12.6183340597112));
#656=CARTESIAN_POINT('',(0.,0.,7.64999999999992));
#657=CARTESIAN_POINT('',(0.,10.414,7.64999999999992));
#658=CARTESIAN_POINT('',(0.,0.,0.));
#659=CARTESIAN_POINT('',(0.,0.,0.199999999999947));
#660=CARTESIAN_POINT('',(0.,13.0505045161091,0.199999999999947));
#661=CARTESIAN_POINT('',(0.,0.,-5.31241717283137E-014));
#662=CARTESIAN_POINT('',(0.,0.,0.199999999999947));
#663=CARTESIAN_POINT('',(0.,12.65,0.199999999999947));
#664=CARTESIAN_POINT('',(0.,13.0505045161091,0.199999999999947));
#665=CARTESIAN_POINT('',(0.,0.,-0.200000000000053));
#666=CARTESIAN_POINT('',(0.,12.25,-0.200000000000053));
#667=CARTESIAN_POINT('',(0.,0.,-0.200000000000053));
#668=CARTESIAN_POINT('',(0.,0.,-1.06698729810784));
#669=CARTESIAN_POINT('',(0.,12.25,-1.06698729810784));
#670=CARTESIAN_POINT('',(0.,0.,0.));
#671=CARTESIAN_POINT('',(0.,0.,-1.50000000000006));
#672=CARTESIAN_POINT('',(0.,12.5,-1.50000000000006));
#673=CARTESIAN_POINT('',(0.,0.,-1.06698729810784));
#674=CARTESIAN_POINT('',(0.,0.,-5.00000000000008));
#675=CARTESIAN_POINT('',(0.,12.5,-5.00000000000008));
#676=CARTESIAN_POINT('',(0.,0.,0.));
#677=CARTESIAN_POINT('',(0.,0.,-5.50000000000009));
#678=CARTESIAN_POINT('',(0.,11.9999999999999,-5.50000000000009));
#679=CARTESIAN_POINT('',(0.,0.,-5.00000000000008));
#680=CARTESIAN_POINT('',(0.,0.,-5.50000000000008));
#681=CARTESIAN_POINT('',(0.,-10.6499999999999,-5.50000000000008));
#682=CARTESIAN_POINT('',(0.,11.9999999999999,-5.50000000000008));
#683=CARTESIAN_POINT('',(0.,0.,-5.90000000000008));
#684=CARTESIAN_POINT('',(0.,-10.2499999999999,-5.90000000000008));
#685=CARTESIAN_POINT('',(0.,0.,-10.5000000000001));
#686=CARTESIAN_POINT('',(0.,10.2499999999999,-10.5000000000001));
#687=CARTESIAN_POINT('',(0.,0.,0.));
#688=CARTESIAN_POINT('',(0.,0.,-13.5310889132459));
#689=CARTESIAN_POINT('',(0.,11.9999999999999,-13.5310889132459));
#690=CARTESIAN_POINT('',(0.,0.,-10.5000000000001));
#691=CARTESIAN_POINT('',(0.,0.,-37.));
#692=CARTESIAN_POINT('',(0.,12.,-37.));
#693=CARTESIAN_POINT('',(0.,0.,0.));
#694=CARTESIAN_POINT('',(0.,0.,-40.));
#695=CARTESIAN_POINT('',(0.,8.99999999999997,-40.));
#696=CARTESIAN_POINT('',(0.,0.,-37.));
#697=CARTESIAN_POINT('',(0.,0.,-40.));
#698=CARTESIAN_POINT('',(0.,5.57735026918959,-40.));
#699=CARTESIAN_POINT('',(-6.16472344984919E-030,8.99999999999997,-40.));
#700=CARTESIAN_POINT('',(0.,0.,-39.));
#701=CARTESIAN_POINT('',(0.,4.99999999999997,-39.));
#702=CARTESIAN_POINT('',(0.,0.,-40.));
#703=CARTESIAN_POINT('',(0.,0.,24.4));
#704=CARTESIAN_POINT('',(0.,4.99999999999997,24.4));
#705=CARTESIAN_POINT('',(0.,0.,0.));
#706=CARTESIAN_POINT('',(0.,0.,24.4));
#707=CARTESIAN_POINT('',(0.,0.,-5.90000000000008));
#708=CARTESIAN_POINT('',(0.,0.,7.64999999999992));
#709=CARTESIAN_POINT('',(0.,0.,12.6183340597112));
#710=CARTESIAN_POINT('',(-20.108,-15.075,-7.37188088351104E-014));
#711=CARTESIAN_POINT('',(-20.108,15.075,-7.34967642301854E-014));
#712=MECHANICAL_DESIGN_GEOMETRIC_PRESENTATION_REPRESENTATION('',(#395,#396,
#397,#398),#713);
#713=(
GEOMETRIC_REPRESENTATION_CONTEXT(3)
GLOBAL_UNCERTAINTY_ASSIGNED_CONTEXT((#714))
GLOBAL_UNIT_ASSIGNED_CONTEXT((#720,#716,#715))
REPRESENTATION_CONTEXT('1498477071639','TOP_LEVEL_ASSEMBLY_PART')
);
#714=UNCERTAINTY_MEASURE_WITH_UNIT(LENGTH_MEASURE(2.E-005),#720,
'DISTANCE_ACCURACY_VALUE','Maximum Tolerance applied to model');
#715=(
NAMED_UNIT(*)
SI_UNIT($,.STERADIAN.)
SOLID_ANGLE_UNIT()
);
#716=(
CONVERSION_BASED_UNIT('DEGREE',#718)
NAMED_UNIT(#717)
PLANE_ANGLE_UNIT()
);
#717=DIMENSIONAL_EXPONENTS(0.,0.,0.,0.,0.,0.,0.);
#718=PLANE_ANGLE_MEASURE_WITH_UNIT(PLANE_ANGLE_MEASURE(0.0174532925),#719);
#719=(
NAMED_UNIT(*)
PLANE_ANGLE_UNIT()
SI_UNIT($,.RADIAN.)
);
#720=(
LENGTH_UNIT()
NAMED_UNIT(*)
SI_UNIT(.MILLI.,.METRE.)
);
ENDSEC;
END-ISO-10303-21;
