ISO-10303-21;
HEADER;
/* Generated by software containing ST-Developer
 * from STEP Tools, Inc. (www.steptools.com) 
 */
/* OPTION: using custom schema-name function */

FILE_DESCRIPTION(
/* description */ (''),
/* implementation_level */ '2;1');

FILE_NAME(
/* name */ '1498472369225.stp',
/* time_stamp */ '2017-06-26T12:19:33+02:00',
/* author */ (''),
/* organization */ ('SMS'),
/* preprocessor_version */ 'ST-DEVELOPER v15',
/* originating_system */ 'SIEMENS PLM Software NX 8.5',
/* authorisation */ '');

FILE_SCHEMA (('AUTOMOTIVE_DESIGN { 1 0 10303 214 3 1 1 1 }'));
ENDSEC;

DATA;
#10=CONSTRUCTIVE_GEOMETRY_REPRESENTATION_RELATIONSHIP(
'supplemental geometry','',#24,#11);
#11=CONSTRUCTIVE_GEOMETRY_REPRESENTATION('supplemental geometry',(#368,
#369,#370),#633);
#12=SHAPE_REPRESENTATION_RELATIONSHIP('None',
'relationship between 201120607MOD000_00-None and 201120607MOD000_00-N
one',#24,#13);
#13=ADVANCED_BREP_SHAPE_REPRESENTATION('201120607MOD000_00-None',(#30),
#633);
#14=SHAPE_DEFINITION_REPRESENTATION(#15,#24);
#15=PRODUCT_DEFINITION_SHAPE('','',#16);
#16=PRODUCT_DEFINITION(' ','',#18,#17);
#17=PRODUCT_DEFINITION_CONTEXT('part definition',#23,'design');
#18=PRODUCT_DEFINITION_FORMATION_WITH_SPECIFIED_SOURCE(' ',' ',#20,
 .NOT_KNOWN.);
#19=PRODUCT_RELATED_PRODUCT_CATEGORY('part','',(#20));
#20=PRODUCT('201120607MOD000_00','201120607MOD000_00',' ',(#21));
#21=PRODUCT_CONTEXT(' ',#23,'mechanical');
#22=APPLICATION_PROTOCOL_DEFINITION('international standard',
'automotive_design',2010,#23);
#23=APPLICATION_CONTEXT(
'core data for automotive mechanical design processes');
#24=SHAPE_REPRESENTATION('201120607MOD000_00-None',(#367),#633);
#25=SURFACE_STYLE_USAGE(.BOTH.,#26);
#26=SURFACE_SIDE_STYLE('',(#27));
#27=SURFACE_STYLE_FILL_AREA(#28);
#28=FILL_AREA_STYLE('',(#29));
#29=FILL_AREA_STYLE_COLOUR('',#363);
#30=MANIFOLD_SOLID_BREP('NOCUT',#31);
#31=CLOSED_SHELL('',(#55,#56,#57,#58,#59,#60,#61,#62,#63,#64,#65,#66,#67,
#68,#69,#70,#71,#72,#73,#74,#75,#76,#77,#78,#79,#80));
#32=TOROIDAL_SURFACE('',#402,7.3,0.8);
#33=TOROIDAL_SURFACE('',#416,6.7730562751872,1.);
#34=TOROIDAL_SURFACE('',#417,8.875,2.65);
#35=TOROIDAL_SURFACE('',#418,8.875,2.65);
#36=TOROIDAL_SURFACE('',#421,9.00000000000005,0.5);
#37=CONICAL_SURFACE('',#386,7.35040654437683,30.);
#38=CONICAL_SURFACE('',#390,9.4,45.);
#39=CONICAL_SURFACE('',#400,8.12793093943043,70.0000000000001);
#40=CONICAL_SURFACE('',#404,6.60717967697245,30.);
#41=CONICAL_SURFACE('',#408,8.,45.);
#42=CONICAL_SURFACE('',#412,4.07735026918962,29.9999999999998);
#43=CONICAL_SURFACE('',#415,3.5,30.0000000000001);
#44=CYLINDRICAL_SURFACE('',#376,10.9);
#45=CYLINDRICAL_SURFACE('',#378,10.9);
#46=CYLINDRICAL_SURFACE('',#388,9.4);
#47=CYLINDRICAL_SURFACE('',#393,6.225);
#48=CYLINDRICAL_SURFACE('',#396,8.50000000000005);
#49=CYLINDRICAL_SURFACE('',#406,8.);
#50=CYLINDRICAL_SURFACE('',#414,3.5);
#51=FACE_OUTER_BOUND('',#150,.T.);
#52=FACE_OUTER_BOUND('',#151,.T.);
#53=FACE_OUTER_BOUND('',#192,.T.);
#54=FACE_OUTER_BOUND('',#193,.T.);
#55=ADVANCED_FACE('',(#104,#105),#81,.F.);
#56=ADVANCED_FACE('',(#51),#44,.T.);
#57=ADVANCED_FACE('',(#52),#45,.T.);
#58=ADVANCED_FACE('',(#106,#107),#82,.F.);
#59=ADVANCED_FACE('',(#108,#109),#83,.F.);
#60=ADVANCED_FACE('',(#110,#111),#37,.T.);
#61=ADVANCED_FACE('',(#112,#113),#46,.T.);
#62=ADVANCED_FACE('',(#114,#115),#38,.T.);
#63=ADVANCED_FACE('',(#116,#117),#47,.T.);
#64=ADVANCED_FACE('',(#118,#119),#48,.T.);
#65=ADVANCED_FACE('',(#120,#121),#84,.F.);
#66=ADVANCED_FACE('',(#122,#123),#39,.F.);
#67=ADVANCED_FACE('',(#124,#125),#32,.F.);
#68=ADVANCED_FACE('',(#126,#127),#40,.T.);
#69=ADVANCED_FACE('',(#128,#129),#49,.T.);
#70=ADVANCED_FACE('',(#130,#131),#41,.T.);
#71=ADVANCED_FACE('',(#132,#133),#85,.F.);
#72=ADVANCED_FACE('',(#134,#135),#42,.F.);
#73=ADVANCED_FACE('',(#136,#137),#50,.F.);
#74=ADVANCED_FACE('',(#138,#139),#43,.F.);
#75=ADVANCED_FACE('',(#140,#141),#33,.T.);
#76=ADVANCED_FACE('',(#142,#143),#34,.F.);
#77=ADVANCED_FACE('',(#144,#145),#35,.F.);
#78=ADVANCED_FACE('',(#53),#86,.F.);
#79=ADVANCED_FACE('',(#54),#87,.T.);
#80=ADVANCED_FACE('',(#146,#147),#36,.F.);
#81=PLANE('',#374);
#82=PLANE('',#380);
#83=PLANE('',#383);
#84=PLANE('',#398);
#85=PLANE('',#410);
#86=PLANE('',#419);
#87=PLANE('',#420);
#88=LINE('',#546,#96);
#89=LINE('',#551,#97);
#90=LINE('',#555,#98);
#91=LINE('',#557,#99);
#92=LINE('',#561,#100);
#93=LINE('',#565,#101);
#94=LINE('',#569,#102);
#95=LINE('',#570,#103);
#96=VECTOR('',#432,1.);
#97=VECTOR('',#435,1.);
#98=VECTOR('',#440,1.);
#99=VECTOR('',#441,1.);
#100=VECTOR('',#446,1.);
#101=VECTOR('',#449,1.);
#102=VECTOR('',#454,1.);
#103=VECTOR('',#455,1.);
#104=FACE_BOUND('',#148,.T.);
#105=FACE_BOUND('',#149,.T.);
#106=FACE_BOUND('',#152,.T.);
#107=FACE_BOUND('',#153,.T.);
#108=FACE_BOUND('',#154,.T.);
#109=FACE_BOUND('',#155,.T.);
#110=FACE_BOUND('',#156,.T.);
#111=FACE_BOUND('',#157,.T.);
#112=FACE_BOUND('',#158,.T.);
#113=FACE_BOUND('',#159,.T.);
#114=FACE_BOUND('',#160,.T.);
#115=FACE_BOUND('',#161,.T.);
#116=FACE_BOUND('',#162,.T.);
#117=FACE_BOUND('',#163,.T.);
#118=FACE_BOUND('',#164,.T.);
#119=FACE_BOUND('',#165,.T.);
#120=FACE_BOUND('',#166,.T.);
#121=FACE_BOUND('',#167,.T.);
#122=FACE_BOUND('',#168,.T.);
#123=FACE_BOUND('',#169,.T.);
#124=FACE_BOUND('',#170,.T.);
#125=FACE_BOUND('',#171,.T.);
#126=FACE_BOUND('',#172,.T.);
#127=FACE_BOUND('',#173,.T.);
#128=FACE_BOUND('',#174,.T.);
#129=FACE_BOUND('',#175,.T.);
#130=FACE_BOUND('',#176,.T.);
#131=FACE_BOUND('',#177,.T.);
#132=FACE_BOUND('',#178,.T.);
#133=FACE_BOUND('',#179,.T.);
#134=FACE_BOUND('',#180,.T.);
#135=FACE_BOUND('',#181,.T.);
#136=FACE_BOUND('',#182,.T.);
#137=FACE_BOUND('',#183,.T.);
#138=FACE_BOUND('',#184,.T.);
#139=FACE_BOUND('',#185,.T.);
#140=FACE_BOUND('',#186,.T.);
#141=FACE_BOUND('',#187,.T.);
#142=FACE_BOUND('',#188,.T.);
#143=FACE_BOUND('',#189,.T.);
#144=FACE_BOUND('',#190,.T.);
#145=FACE_BOUND('',#191,.T.);
#146=FACE_BOUND('',#194,.T.);
#147=FACE_BOUND('',#195,.T.);
#148=EDGE_LOOP('',(#196));
#149=EDGE_LOOP('',(#197,#198,#199,#200));
#150=EDGE_LOOP('',(#201,#202,#203,#204));
#151=EDGE_LOOP('',(#205,#206,#207,#208));
#152=EDGE_LOOP('',(#209));
#153=EDGE_LOOP('',(#210,#211,#212,#213));
#154=EDGE_LOOP('',(#214));
#155=EDGE_LOOP('',(#215));
#156=EDGE_LOOP('',(#216));
#157=EDGE_LOOP('',(#217));
#158=EDGE_LOOP('',(#218));
#159=EDGE_LOOP('',(#219));
#160=EDGE_LOOP('',(#220));
#161=EDGE_LOOP('',(#221));
#162=EDGE_LOOP('',(#222));
#163=EDGE_LOOP('',(#223));
#164=EDGE_LOOP('',(#224));
#165=EDGE_LOOP('',(#225));
#166=EDGE_LOOP('',(#226));
#167=EDGE_LOOP('',(#227));
#168=EDGE_LOOP('',(#228));
#169=EDGE_LOOP('',(#229));
#170=EDGE_LOOP('',(#230));
#171=EDGE_LOOP('',(#231));
#172=EDGE_LOOP('',(#232));
#173=EDGE_LOOP('',(#233));
#174=EDGE_LOOP('',(#234));
#175=EDGE_LOOP('',(#235));
#176=EDGE_LOOP('',(#236));
#177=EDGE_LOOP('',(#237));
#178=EDGE_LOOP('',(#238));
#179=EDGE_LOOP('',(#239));
#180=EDGE_LOOP('',(#240));
#181=EDGE_LOOP('',(#241));
#182=EDGE_LOOP('',(#242));
#183=EDGE_LOOP('',(#243));
#184=EDGE_LOOP('',(#244));
#185=EDGE_LOOP('',(#245));
#186=EDGE_LOOP('',(#246));
#187=EDGE_LOOP('',(#247));
#188=EDGE_LOOP('',(#248));
#189=EDGE_LOOP('',(#249));
#190=EDGE_LOOP('',(#250));
#191=EDGE_LOOP('',(#251));
#192=EDGE_LOOP('',(#252,#253,#254,#255));
#193=EDGE_LOOP('',(#256,#257,#258,#259));
#194=EDGE_LOOP('',(#260));
#195=EDGE_LOOP('',(#261));
#196=ORIENTED_EDGE('',*,*,#291,.T.);
#197=ORIENTED_EDGE('',*,*,#292,.F.);
#198=ORIENTED_EDGE('',*,*,#293,.F.);
#199=ORIENTED_EDGE('',*,*,#294,.T.);
#200=ORIENTED_EDGE('',*,*,#295,.F.);
#201=ORIENTED_EDGE('',*,*,#296,.T.);
#202=ORIENTED_EDGE('',*,*,#295,.T.);
#203=ORIENTED_EDGE('',*,*,#297,.F.);
#204=ORIENTED_EDGE('',*,*,#298,.F.);
#205=ORIENTED_EDGE('',*,*,#299,.T.);
#206=ORIENTED_EDGE('',*,*,#300,.F.);
#207=ORIENTED_EDGE('',*,*,#301,.F.);
#208=ORIENTED_EDGE('',*,*,#293,.T.);
#209=ORIENTED_EDGE('',*,*,#302,.T.);
#210=ORIENTED_EDGE('',*,*,#300,.T.);
#211=ORIENTED_EDGE('',*,*,#303,.T.);
#212=ORIENTED_EDGE('',*,*,#298,.T.);
#213=ORIENTED_EDGE('',*,*,#304,.F.);
#214=ORIENTED_EDGE('',*,*,#305,.T.);
#215=ORIENTED_EDGE('',*,*,#306,.T.);
#216=ORIENTED_EDGE('',*,*,#307,.T.);
#217=ORIENTED_EDGE('',*,*,#308,.F.);
#218=ORIENTED_EDGE('',*,*,#309,.F.);
#219=ORIENTED_EDGE('',*,*,#308,.T.);
#220=ORIENTED_EDGE('',*,*,#310,.T.);
#221=ORIENTED_EDGE('',*,*,#309,.T.);
#222=ORIENTED_EDGE('',*,*,#311,.T.);
#223=ORIENTED_EDGE('',*,*,#312,.T.);
#224=ORIENTED_EDGE('',*,*,#313,.T.);
#225=ORIENTED_EDGE('',*,*,#314,.F.);
#226=ORIENTED_EDGE('',*,*,#315,.F.);
#227=ORIENTED_EDGE('',*,*,#314,.T.);
#228=ORIENTED_EDGE('',*,*,#316,.F.);
#229=ORIENTED_EDGE('',*,*,#315,.T.);
#230=ORIENTED_EDGE('',*,*,#317,.F.);
#231=ORIENTED_EDGE('',*,*,#316,.T.);
#232=ORIENTED_EDGE('',*,*,#318,.F.);
#233=ORIENTED_EDGE('',*,*,#317,.T.);
#234=ORIENTED_EDGE('',*,*,#319,.F.);
#235=ORIENTED_EDGE('',*,*,#318,.T.);
#236=ORIENTED_EDGE('',*,*,#320,.F.);
#237=ORIENTED_EDGE('',*,*,#319,.T.);
#238=ORIENTED_EDGE('',*,*,#321,.F.);
#239=ORIENTED_EDGE('',*,*,#320,.T.);
#240=ORIENTED_EDGE('',*,*,#322,.F.);
#241=ORIENTED_EDGE('',*,*,#321,.T.);
#242=ORIENTED_EDGE('',*,*,#323,.F.);
#243=ORIENTED_EDGE('',*,*,#322,.T.);
#244=ORIENTED_EDGE('',*,*,#306,.F.);
#245=ORIENTED_EDGE('',*,*,#323,.T.);
#246=ORIENTED_EDGE('',*,*,#305,.F.);
#247=ORIENTED_EDGE('',*,*,#307,.F.);
#248=ORIENTED_EDGE('',*,*,#312,.F.);
#249=ORIENTED_EDGE('',*,*,#291,.F.);
#250=ORIENTED_EDGE('',*,*,#310,.F.);
#251=ORIENTED_EDGE('',*,*,#311,.F.);
#252=ORIENTED_EDGE('',*,*,#294,.F.);
#253=ORIENTED_EDGE('',*,*,#301,.T.);
#254=ORIENTED_EDGE('',*,*,#304,.T.);
#255=ORIENTED_EDGE('',*,*,#297,.T.);
#256=ORIENTED_EDGE('',*,*,#296,.F.);
#257=ORIENTED_EDGE('',*,*,#303,.F.);
#258=ORIENTED_EDGE('',*,*,#299,.F.);
#259=ORIENTED_EDGE('',*,*,#292,.T.);
#260=ORIENTED_EDGE('',*,*,#302,.F.);
#261=ORIENTED_EDGE('',*,*,#313,.F.);
#262=VERTEX_POINT('',#545);
#263=VERTEX_POINT('',#547);
#264=VERTEX_POINT('',#548);
#265=VERTEX_POINT('',#550);
#266=VERTEX_POINT('',#552);
#267=VERTEX_POINT('',#556);
#268=VERTEX_POINT('',#558);
#269=VERTEX_POINT('',#562);
#270=VERTEX_POINT('',#564);
#271=VERTEX_POINT('',#568);
#272=VERTEX_POINT('',#573);
#273=VERTEX_POINT('',#575);
#274=VERTEX_POINT('',#578);
#275=VERTEX_POINT('',#580);
#276=VERTEX_POINT('',#583);
#277=VERTEX_POINT('',#586);
#278=VERTEX_POINT('',#589);
#279=VERTEX_POINT('',#591);
#280=VERTEX_POINT('',#594);
#281=VERTEX_POINT('',#596);
#282=VERTEX_POINT('',#599);
#283=VERTEX_POINT('',#602);
#284=VERTEX_POINT('',#605);
#285=VERTEX_POINT('',#608);
#286=VERTEX_POINT('',#611);
#287=VERTEX_POINT('',#614);
#288=VERTEX_POINT('',#617);
#289=VERTEX_POINT('',#620);
#290=VERTEX_POINT('',#623);
#291=EDGE_CURVE('',#262,#262,#324,.T.);
#292=EDGE_CURVE('',#263,#264,#88,.T.);
#293=EDGE_CURVE('',#265,#263,#325,.T.);
#294=EDGE_CURVE('',#265,#266,#89,.T.);
#295=EDGE_CURVE('',#264,#266,#326,.T.);
#296=EDGE_CURVE('',#267,#264,#90,.T.);
#297=EDGE_CURVE('',#268,#266,#91,.T.);
#298=EDGE_CURVE('',#267,#268,#327,.T.);
#299=EDGE_CURVE('',#263,#269,#92,.T.);
#300=EDGE_CURVE('',#270,#269,#328,.T.);
#301=EDGE_CURVE('',#265,#270,#93,.T.);
#302=EDGE_CURVE('',#271,#271,#329,.T.);
#303=EDGE_CURVE('',#269,#267,#94,.T.);
#304=EDGE_CURVE('',#270,#268,#95,.T.);
#305=EDGE_CURVE('',#272,#272,#330,.T.);
#306=EDGE_CURVE('',#273,#273,#331,.T.);
#307=EDGE_CURVE('',#274,#274,#332,.T.);
#308=EDGE_CURVE('',#275,#275,#333,.T.);
#309=EDGE_CURVE('',#276,#276,#334,.T.);
#310=EDGE_CURVE('',#277,#277,#335,.T.);
#311=EDGE_CURVE('',#278,#278,#336,.T.);
#312=EDGE_CURVE('',#279,#279,#337,.T.);
#313=EDGE_CURVE('',#280,#280,#338,.T.);
#314=EDGE_CURVE('',#281,#281,#339,.T.);
#315=EDGE_CURVE('',#282,#282,#340,.T.);
#316=EDGE_CURVE('',#283,#283,#341,.T.);
#317=EDGE_CURVE('',#284,#284,#342,.T.);
#318=EDGE_CURVE('',#285,#285,#343,.T.);
#319=EDGE_CURVE('',#286,#286,#344,.T.);
#320=EDGE_CURVE('',#287,#287,#345,.T.);
#321=EDGE_CURVE('',#288,#288,#346,.T.);
#322=EDGE_CURVE('',#289,#289,#347,.T.);
#323=EDGE_CURVE('',#290,#290,#348,.T.);
#324=CIRCLE('',#371,8.875);
#325=CIRCLE('',#372,10.9);
#326=CIRCLE('',#373,10.9);
#327=CIRCLE('',#375,10.9);
#328=CIRCLE('',#377,10.9);
#329=CIRCLE('',#379,9.00000000000005);
#330=CIRCLE('',#381,6.7730562751872);
#331=CIRCLE('',#382,4.07735026918963);
#332=CIRCLE('',#384,7.63908167897164);
#333=CIRCLE('',#385,9.4);
#334=CIRCLE('',#387,9.4);
#335=CIRCLE('',#389,7.00116702985565);
#336=CIRCLE('',#391,6.225);
#337=CIRCLE('',#392,6.225);
#338=CIRCLE('',#394,8.50000000000005);
#339=CIRCLE('',#395,8.5);
#340=CIRCLE('',#397,8.12793093943043);
#341=CIRCLE('',#399,7.57361611466053);
#342=CIRCLE('',#401,6.60717967697245);
#343=CIRCLE('',#403,8.);
#344=CIRCLE('',#405,8.);
#345=CIRCLE('',#407,6.5);
#346=CIRCLE('',#409,4.07735026918962);
#347=CIRCLE('',#411,3.5);
#348=CIRCLE('',#413,3.5);
#349=PRESENTATION_LAYER_ASSIGNMENT('1','Layer 1',(#368,#369,#370));
#350=PRESENTATION_LAYER_ASSIGNMENT('4','Layer 4',(#30));
#351=STYLED_ITEM('',(#355),#368);
#352=STYLED_ITEM('',(#356),#369);
#353=STYLED_ITEM('',(#357),#370);
#354=STYLED_ITEM('',(#358),#30);
#355=PRESENTATION_STYLE_ASSIGNMENT((#359));
#356=PRESENTATION_STYLE_ASSIGNMENT((#360));
#357=PRESENTATION_STYLE_ASSIGNMENT((#361));
#358=PRESENTATION_STYLE_ASSIGNMENT((#25));
#359=CURVE_STYLE('',#364,POSITIVE_LENGTH_MEASURE(0.13),#362);
#360=CURVE_STYLE('',#365,POSITIVE_LENGTH_MEASURE(0.13),#362);
#361=CURVE_STYLE('',#366,POSITIVE_LENGTH_MEASURE(0.13),#362);
#362=COLOUR_RGB('Strong Stone',0.576470588235294,0.54508278019379,0.392156862745098);
#363=COLOUR_RGB('TLS_NOCUT',0.499992370489052,0.499992370489052,0.499992370489052);
#364=DRAUGHTING_PRE_DEFINED_CURVE_FONT('continuous');
#365=DRAUGHTING_PRE_DEFINED_CURVE_FONT('continuous');
#366=DRAUGHTING_PRE_DEFINED_CURVE_FONT('continuous');
#367=AXIS2_PLACEMENT_3D('',#540,#422,#423);
#368=AXIS2_PLACEMENT_3D('PCS',#541,#424,#425);
#369=AXIS2_PLACEMENT_3D('MCS',#542,#426,#427);
#370=AXIS2_PLACEMENT_3D('CSW',#543,#428,#429);
#371=AXIS2_PLACEMENT_3D('',#544,#430,#431);
#372=AXIS2_PLACEMENT_3D('',#549,#433,#434);
#373=AXIS2_PLACEMENT_3D('',#553,#436,#437);
#374=AXIS2_PLACEMENT_3D('',#554,#438,#439);
#375=AXIS2_PLACEMENT_3D('',#559,#442,#443);
#376=AXIS2_PLACEMENT_3D('',#560,#444,#445);
#377=AXIS2_PLACEMENT_3D('',#563,#447,#448);
#378=AXIS2_PLACEMENT_3D('',#566,#450,#451);
#379=AXIS2_PLACEMENT_3D('',#567,#452,#453);
#380=AXIS2_PLACEMENT_3D('',#571,#456,#457);
#381=AXIS2_PLACEMENT_3D('',#572,#458,#459);
#382=AXIS2_PLACEMENT_3D('',#574,#460,#461);
#383=AXIS2_PLACEMENT_3D('',#576,#462,#463);
#384=AXIS2_PLACEMENT_3D('',#577,#464,#465);
#385=AXIS2_PLACEMENT_3D('',#579,#466,#467);
#386=AXIS2_PLACEMENT_3D('',#581,#468,#469);
#387=AXIS2_PLACEMENT_3D('',#582,#470,#471);
#388=AXIS2_PLACEMENT_3D('',#584,#472,#473);
#389=AXIS2_PLACEMENT_3D('',#585,#474,#475);
#390=AXIS2_PLACEMENT_3D('',#587,#476,#477);
#391=AXIS2_PLACEMENT_3D('',#588,#478,#479);
#392=AXIS2_PLACEMENT_3D('',#590,#480,#481);
#393=AXIS2_PLACEMENT_3D('',#592,#482,#483);
#394=AXIS2_PLACEMENT_3D('',#593,#484,#485);
#395=AXIS2_PLACEMENT_3D('',#595,#486,#487);
#396=AXIS2_PLACEMENT_3D('',#597,#488,#489);
#397=AXIS2_PLACEMENT_3D('',#598,#490,#491);
#398=AXIS2_PLACEMENT_3D('',#600,#492,#493);
#399=AXIS2_PLACEMENT_3D('',#601,#494,#495);
#400=AXIS2_PLACEMENT_3D('',#603,#496,#497);
#401=AXIS2_PLACEMENT_3D('',#604,#498,#499);
#402=AXIS2_PLACEMENT_3D('',#606,#500,#501);
#403=AXIS2_PLACEMENT_3D('',#607,#502,#503);
#404=AXIS2_PLACEMENT_3D('',#609,#504,#505);
#405=AXIS2_PLACEMENT_3D('',#610,#506,#507);
#406=AXIS2_PLACEMENT_3D('',#612,#508,#509);
#407=AXIS2_PLACEMENT_3D('',#613,#510,#511);
#408=AXIS2_PLACEMENT_3D('',#615,#512,#513);
#409=AXIS2_PLACEMENT_3D('',#616,#514,#515);
#410=AXIS2_PLACEMENT_3D('',#618,#516,#517);
#411=AXIS2_PLACEMENT_3D('',#619,#518,#519);
#412=AXIS2_PLACEMENT_3D('',#621,#520,#521);
#413=AXIS2_PLACEMENT_3D('',#622,#522,#523);
#414=AXIS2_PLACEMENT_3D('',#624,#524,#525);
#415=AXIS2_PLACEMENT_3D('',#625,#526,#527);
#416=AXIS2_PLACEMENT_3D('',#626,#528,#529);
#417=AXIS2_PLACEMENT_3D('',#627,#530,#531);
#418=AXIS2_PLACEMENT_3D('',#628,#532,#533);
#419=AXIS2_PLACEMENT_3D('',#629,#534,#535);
#420=AXIS2_PLACEMENT_3D('',#630,#536,#537);
#421=AXIS2_PLACEMENT_3D('',#631,#538,#539);
#422=DIRECTION('',(0.,0.,1.));
#423=DIRECTION('',(1.,0.,0.));
#424=DIRECTION('',(0.,0.,1.));
#425=DIRECTION('',(1.,0.,0.));
#426=DIRECTION('',(0.,0.,1.));
#427=DIRECTION('',(1.,0.,0.));
#428=DIRECTION('',(0.,0.,1.));
#429=DIRECTION('',(1.,0.,0.));
#430=DIRECTION('',(0.,0.,-1.));
#431=DIRECTION('',(0.,1.,0.));
#432=DIRECTION('',(1.,0.,0.));
#433=DIRECTION('',(0.,0.,-1.));
#434=DIRECTION('',(0.,1.,0.));
#435=DIRECTION('',(1.,0.,0.));
#436=DIRECTION('',(0.,0.,-1.));
#437=DIRECTION('',(0.,1.,0.));
#438=DIRECTION('',(0.,0.,-1.));
#439=DIRECTION('',(0.,1.,0.));
#440=DIRECTION('',(0.,0.,1.));
#441=DIRECTION('',(0.,0.,1.));
#442=DIRECTION('',(0.,0.,-1.));
#443=DIRECTION('',(0.,1.,0.));
#444=DIRECTION('',(0.,0.,-1.));
#445=DIRECTION('',(0.,1.,0.));
#446=DIRECTION('',(0.,0.,-1.));
#447=DIRECTION('',(0.,0.,-1.));
#448=DIRECTION('',(0.,1.,0.));
#449=DIRECTION('',(0.,0.,-1.));
#450=DIRECTION('',(0.,0.,-1.));
#451=DIRECTION('',(0.,1.,0.));
#452=DIRECTION('',(0.,0.,1.));
#453=DIRECTION('',(0.,-1.,0.));
#454=DIRECTION('',(1.,0.,0.));
#455=DIRECTION('',(1.,0.,0.));
#456=DIRECTION('',(0.,0.,1.));
#457=DIRECTION('',(0.,-1.,0.));
#458=DIRECTION('',(0.,0.,1.));
#459=DIRECTION('',(0.,1.,0.));
#460=DIRECTION('',(0.,0.,-1.));
#461=DIRECTION('',(0.,1.,0.));
#462=DIRECTION('',(0.,0.,-1.));
#463=DIRECTION('',(0.,1.,0.));
#464=DIRECTION('',(0.,0.,-1.));
#465=DIRECTION('',(0.,-1.,0.));
#466=DIRECTION('',(0.,0.,-1.));
#467=DIRECTION('',(0.,1.,0.));
#468=DIRECTION('',(0.,0.,-1.));
#469=DIRECTION('',(0.,1.,-2.37348585075483E-017));
#470=DIRECTION('',(0.,0.,-1.));
#471=DIRECTION('',(0.,1.,0.));
#472=DIRECTION('',(0.,0.,-1.));
#473=DIRECTION('',(0.,1.,0.));
#474=DIRECTION('',(0.,0.,1.));
#475=DIRECTION('',(0.,-1.,0.));
#476=DIRECTION('',(0.,0.,1.));
#477=DIRECTION('',(0.,-1.,6.70241881940712E-017));
#478=DIRECTION('',(0.,0.,-1.));
#479=DIRECTION('',(0.,1.,0.));
#480=DIRECTION('',(0.,0.,1.));
#481=DIRECTION('',(0.,1.,0.));
#482=DIRECTION('',(0.,0.,-1.));
#483=DIRECTION('',(0.,1.,0.));
#484=DIRECTION('',(0.,0.,-1.));
#485=DIRECTION('',(0.,-1.,0.));
#486=DIRECTION('',(0.,0.,-1.));
#487=DIRECTION('',(0.,1.,0.));
#488=DIRECTION('',(0.,0.,-1.));
#489=DIRECTION('',(0.,1.,0.));
#490=DIRECTION('',(0.,0.,-1.));
#491=DIRECTION('',(0.,1.,0.));
#492=DIRECTION('',(0.,0.,1.));
#493=DIRECTION('',(0.,-1.,0.));
#494=DIRECTION('',(0.,0.,-1.));
#495=DIRECTION('',(0.,1.,0.));
#496=DIRECTION('',(0.,0.,-1.));
#497=DIRECTION('',(0.,1.,2.42367267197954E-017));
#498=DIRECTION('',(0.,0.,-1.));
#499=DIRECTION('',(0.,1.,0.));
#500=DIRECTION('',(0.,0.,-1.));
#501=DIRECTION('',(0.,1.,0.));
#502=DIRECTION('',(0.,0.,-1.));
#503=DIRECTION('',(0.,1.,0.));
#504=DIRECTION('',(0.,0.,-1.));
#505=DIRECTION('',(0.,1.,1.03972167453349E-016));
#506=DIRECTION('',(0.,0.,-1.));
#507=DIRECTION('',(0.,1.,0.));
#508=DIRECTION('',(0.,0.,-1.));
#509=DIRECTION('',(0.,1.,0.));
#510=DIRECTION('',(0.,0.,-1.));
#511=DIRECTION('',(0.,1.,0.));
#512=DIRECTION('',(0.,0.,1.));
#513=DIRECTION('',(0.,-1.,3.44191165868414E-017));
#514=DIRECTION('',(0.,0.,-1.));
#515=DIRECTION('',(0.,1.,0.));
#516=DIRECTION('',(0.,0.,1.));
#517=DIRECTION('',(0.,-1.,0.));
#518=DIRECTION('',(0.,0.,-1.));
#519=DIRECTION('',(0.,1.,0.));
#520=DIRECTION('',(0.,0.,-1.));
#521=DIRECTION('',(0.,1.,1.55145056292229E-016));
#522=DIRECTION('',(0.,0.,-1.));
#523=DIRECTION('',(0.,1.,0.));
#524=DIRECTION('',(0.,0.,-1.));
#525=DIRECTION('',(0.,1.,0.));
#526=DIRECTION('',(0.,0.,1.));
#527=DIRECTION('',(0.,-1.,-2.3892194845973E-017));
#528=DIRECTION('',(0.,0.,-1.));
#529=DIRECTION('',(0.,1.,0.));
#530=DIRECTION('',(0.,0.,-1.));
#531=DIRECTION('',(0.,1.,0.));
#532=DIRECTION('',(0.,0.,-1.));
#533=DIRECTION('',(0.,1.,0.));
#534=DIRECTION('',(0.,1.,-1.15648231731787E-015));
#535=DIRECTION('',(0.,1.15706055847653E-015,1.));
#536=DIRECTION('',(0.,1.,0.));
#537=DIRECTION('',(0.,0.,1.));
#538=DIRECTION('',(0.,0.,1.));
#539=DIRECTION('',(0.,-1.,0.));
#540=CARTESIAN_POINT('',(0.,0.,0.));
#541=CARTESIAN_POINT('',(0.,0.,0.));
#542=CARTESIAN_POINT('',(0.,0.,0.));
#543=CARTESIAN_POINT('',(0.,0.,-25.));
#544=CARTESIAN_POINT('',(0.,0.,2.99999999999994));
#545=CARTESIAN_POINT('',(0.,8.875,2.99999999999994));
#546=CARTESIAN_POINT('',(-11.99,9.5,2.99999999999993));
#547=CARTESIAN_POINT('',(-5.34415568635495,9.5,2.99999999999993));
#548=CARTESIAN_POINT('',(5.34415568635495,9.5,2.99999999999993));
#549=CARTESIAN_POINT('',(0.,0.,2.99999999999993));
#550=CARTESIAN_POINT('',(-5.34415568635496,-9.5,2.99999999999993));
#551=CARTESIAN_POINT('',(-11.99,-9.5,2.99999999999994));
#552=CARTESIAN_POINT('',(5.34415568635496,-9.5,2.99999999999994));
#553=CARTESIAN_POINT('',(0.,0.,2.99999999999993));
#554=CARTESIAN_POINT('',(-7.04927525594826E-029,6.225,2.99999999999994));
#555=CARTESIAN_POINT('',(5.34415568635495,9.5,0.));
#556=CARTESIAN_POINT('',(5.34415568635495,9.5,-5.81756864903582E-014));
#557=CARTESIAN_POINT('',(5.34415568635495,-9.5,1.09865820145198E-014));
#558=CARTESIAN_POINT('',(5.34415568635496,-9.5,-5.81756864903582E-014));
#559=CARTESIAN_POINT('',(0.,0.,-7.15573433840433E-014));
#560=CARTESIAN_POINT('',(0.,0.,0.));
#561=CARTESIAN_POINT('',(-5.34415568635495,9.5,0.));
#562=CARTESIAN_POINT('',(-5.34415568635495,9.5,-7.15573433840433E-014));
#563=CARTESIAN_POINT('',(0.,0.,-7.15573433840433E-014));
#564=CARTESIAN_POINT('',(-5.34415568635496,-9.5,-5.81756864903582E-014));
#565=CARTESIAN_POINT('',(-5.34415568635495,-9.5,1.09865820145198E-014));
#566=CARTESIAN_POINT('',(0.,0.,0.));
#567=CARTESIAN_POINT('',(0.,0.,-7.14489231667947E-014));
#568=CARTESIAN_POINT('',(0.,-9.00000000000005,-7.14489231667947E-014));
#569=CARTESIAN_POINT('',(-11.99,9.5,-5.81756864903582E-014));
#570=CARTESIAN_POINT('',(-11.99,-9.5,-5.81756864903582E-014));
#571=CARTESIAN_POINT('',(-8.51969777638693E-029,10.9,-7.14168307824892E-014));
#572=CARTESIAN_POINT('',(0.,0.,16.25));
#573=CARTESIAN_POINT('',(0.,6.7730562751872,16.25));
#574=CARTESIAN_POINT('',(0.,0.,16.25));
#575=CARTESIAN_POINT('',(0.,4.07735026918963,16.25));
#576=CARTESIAN_POINT('',(0.,4.07735026918963,16.25));
#577=CARTESIAN_POINT('',(0.,0.,15.75));
#578=CARTESIAN_POINT('',(0.,-7.63908167897164,15.75));
#579=CARTESIAN_POINT('',(0.,0.,12.7));
#580=CARTESIAN_POINT('',(0.,9.4,12.7));
#581=CARTESIAN_POINT('',(0.,0.,16.25));
#582=CARTESIAN_POINT('',(0.,0.,11.1799999999999));
#583=CARTESIAN_POINT('',(0.,9.4,11.1799999999999));
#584=CARTESIAN_POINT('',(0.,0.,0.));
#585=CARTESIAN_POINT('',(0.,0.,8.78116702985557));
#586=CARTESIAN_POINT('',(0.,-7.00116702985565,8.78116702985557));
#587=CARTESIAN_POINT('',(0.,0.,11.1799999999999));
#588=CARTESIAN_POINT('',(0.,0.,6.90733405971122));
#589=CARTESIAN_POINT('',(0.,6.225,6.90733405971122));
#590=CARTESIAN_POINT('',(0.,0.,5.64999999999993));
#591=CARTESIAN_POINT('',(0.,6.225,5.64999999999993));
#592=CARTESIAN_POINT('',(0.,0.,0.));
#593=CARTESIAN_POINT('',(0.,0.,-0.500000000000072));
#594=CARTESIAN_POINT('',(0.,-8.50000000000005,-0.500000000000072));
#595=CARTESIAN_POINT('',(0.,0.,-4.00000000000007));
#596=CARTESIAN_POINT('',(0.,8.5,-4.00000000000007));
#597=CARTESIAN_POINT('',(0.,0.,0.));
#598=CARTESIAN_POINT('',(0.,0.,-4.00000000000007));
#599=CARTESIAN_POINT('',(0.,8.12793093943043,-4.00000000000007));
#600=CARTESIAN_POINT('',(0.,8.5,-4.00000000000007));
#601=CARTESIAN_POINT('',(0.,0.,-3.79824590337135));
#602=CARTESIAN_POINT('',(0.,7.57361611466053,-3.79824590337135));
#603=CARTESIAN_POINT('',(0.,0.,-4.00000000000007));
#604=CARTESIAN_POINT('',(0.,0.,-4.95000000000007));
#605=CARTESIAN_POINT('',(0.,6.60717967697245,-4.95000000000007));
#606=CARTESIAN_POINT('',(0.,0.,-4.55000000000007));
#607=CARTESIAN_POINT('',(0.,0.,-7.36243556529829));
#608=CARTESIAN_POINT('',(0.,8.,-7.36243556529829));
#609=CARTESIAN_POINT('',(0.,0.,-4.95000000000007));
#610=CARTESIAN_POINT('',(0.,0.,-23.5));
#611=CARTESIAN_POINT('',(0.,8.,-23.5));
#612=CARTESIAN_POINT('',(0.,0.,0.));
#613=CARTESIAN_POINT('',(0.,0.,-25.));
#614=CARTESIAN_POINT('',(0.,6.5,-25.));
#615=CARTESIAN_POINT('',(0.,0.,-23.5));
#616=CARTESIAN_POINT('',(0.,0.,-25.));
#617=CARTESIAN_POINT('',(0.,4.07735026918962,-25.));
#618=CARTESIAN_POINT('',(-6.16472344984919E-030,6.5,-25.));
#619=CARTESIAN_POINT('',(0.,0.,-24.));
#620=CARTESIAN_POINT('',(0.,3.5,-24.));
#621=CARTESIAN_POINT('',(0.,0.,-25.));
#622=CARTESIAN_POINT('',(0.,0.,15.25));
#623=CARTESIAN_POINT('',(0.,3.5,15.25));
#624=CARTESIAN_POINT('',(0.,0.,0.));
#625=CARTESIAN_POINT('',(0.,0.,15.25));
#626=CARTESIAN_POINT('',(0.,0.,15.25));
#627=CARTESIAN_POINT('',(0.,0.,5.64999999999993));
#628=CARTESIAN_POINT('',(0.,0.,6.90733405971122));
#629=CARTESIAN_POINT('',(-11.99,-9.5,-5.81756864903582E-014));
#630=CARTESIAN_POINT('',(-11.99,9.5,-5.81756864903582E-014));
#631=CARTESIAN_POINT('',(0.,0.,-0.500000000000072));
#632=MECHANICAL_DESIGN_GEOMETRIC_PRESENTATION_REPRESENTATION('',(#351,#352,
#353,#354),#633);
#633=(
GEOMETRIC_REPRESENTATION_CONTEXT(3)
GLOBAL_UNCERTAINTY_ASSIGNED_CONTEXT((#634))
GLOBAL_UNIT_ASSIGNED_CONTEXT((#640,#636,#635))
REPRESENTATION_CONTEXT('1498472369225','TOP_LEVEL_ASSEMBLY_PART')
);
#634=UNCERTAINTY_MEASURE_WITH_UNIT(LENGTH_MEASURE(2.E-005),#640,
'DISTANCE_ACCURACY_VALUE','Maximum Tolerance applied to model');
#635=(
NAMED_UNIT(*)
SI_UNIT($,.STERADIAN.)
SOLID_ANGLE_UNIT()
);
#636=(
CONVERSION_BASED_UNIT('DEGREE',#638)
NAMED_UNIT(#637)
PLANE_ANGLE_UNIT()
);
#637=DIMENSIONAL_EXPONENTS(0.,0.,0.,0.,0.,0.,0.);
#638=PLANE_ANGLE_MEASURE_WITH_UNIT(PLANE_ANGLE_MEASURE(0.0174532925),#639);
#639=(
NAMED_UNIT(*)
PLANE_ANGLE_UNIT()
SI_UNIT($,.RADIAN.)
);
#640=(
LENGTH_UNIT()
NAMED_UNIT(*)
SI_UNIT(.MILLI.,.METRE.)
);
ENDSEC;
END-ISO-10303-21;
