ISO-10303-21;
HEADER;
FILE_DESCRIPTION(
/* description */ (''),
/* implementation_level */ '2;1');
FILE_NAME(
/* name */ 'CNGQ120708.stp',
/* time_stamp */ '2017-03-21T10:53:55',
/* author */ ('Sandvik Coromant R&D'),
/* organization */ ('Sandvik Machining Solutions'),
/* preprocessor_version */ 'ST-DEVELOPER v15',
/* originating_system */ 'SIEMENS PLM Software NX v8.5.3.3(64 bits)',
/* authorization */ '');
FILE_SCHEMA(('AUTOMOTIVE_DESIGN'));
ENDSEC;
DATA;
#10=GEOMETRICALLY_BOUNDED_WIREFRAME_SHAPE_REPRESENTATION('IsoTurningInsert-None',
     (#25),#459);
#11=SHAPE_REPRESENTATION_RELATIONSHIP('None','relationship between IsoTurningInsert-None and IsoTurningInsert-None',
     #24,#13);
#12=SHAPE_REPRESENTATION_RELATIONSHIP('None','relationship between IsoTurningInsert-None and IsoTurningInsert-None',
     #24,#10);
#13=ADVANCED_BREP_SHAPE_REPRESENTATION('IsoTurningInsert-None',(#31),#459);
#14=SHAPE_DEFINITION_REPRESENTATION(#15,#24);
#15=PRODUCT_DEFINITION_SHAPE('','',#16);
#16=PRODUCT_DEFINITION(' ','',#18,#17);
#17=PRODUCT_DEFINITION_CONTEXT('part definition',#23,'design');
#18=PRODUCT_DEFINITION_FORMATION_WITH_SPECIFIED_SOURCE(' ',' ',#20,.NOT_KNOWN.);
#19=PRODUCT_RELATED_PRODUCT_CATEGORY('part','',(#20));
#20=PRODUCT('IsoTurningInsert','IsoTurningInsert',' ',(#21));
#21=PRODUCT_CONTEXT(' ',#23,'mechanical');
#22=APPLICATION_PROTOCOL_DEFINITION('international standard','automotive_design',
     2010,#23);
#23=APPLICATION_CONTEXT('core data for automotive mechanical design processes');
#24=SHAPE_REPRESENTATION('IsoTurningInsert-None',(#248),#459);
#25=GEOMETRIC_CURVE_SET('geometric curve set',(#228));
#26=SURFACE_STYLE_USAGE(.BOTH.,#27);
#27=SURFACE_SIDE_STYLE('',(#28));
#28=SURFACE_STYLE_FILL_AREA(#29);
#29=FILL_AREA_STYLE('',(#30));
#30=FILL_AREA_STYLE_COLOUR('',#247);
#31=MANIFOLD_SOLID_BREP('CUT',#32);
#32=CLOSED_SHELL('',(#46,#47,#48,#49,#50,#51,#52,#53,#54,#55,#56));
#33=CYLINDRICAL_SURFACE('',#267,0.793749999999997);
#34=CYLINDRICAL_SURFACE('',#268,0.793749999999997);
#35=CYLINDRICAL_SURFACE('',#269,0.793749999999997);
#36=CYLINDRICAL_SURFACE('',#270,0.793749999999997);
#37=CYLINDRICAL_SURFACE('',#271,2.578);
#38=FACE_OUTER_BOUND('',#103,.T.);
#39=FACE_OUTER_BOUND('',#104,.T.);
#40=FACE_OUTER_BOUND('',#105,.T.);
#41=FACE_OUTER_BOUND('',#106,.T.);
#42=FACE_OUTER_BOUND('',#109,.T.);
#43=FACE_OUTER_BOUND('',#110,.T.);
#44=FACE_OUTER_BOUND('',#111,.T.);
#45=FACE_OUTER_BOUND('',#112,.T.);
#46=ADVANCED_FACE('',(#95,#96),#57,.F.);
#47=ADVANCED_FACE('',(#38),#58,.T.);
#48=ADVANCED_FACE('',(#39),#59,.T.);
#49=ADVANCED_FACE('',(#40),#60,.T.);
#50=ADVANCED_FACE('',(#41),#61,.T.);
#51=ADVANCED_FACE('',(#97,#98),#62,.T.);
#52=ADVANCED_FACE('',(#42),#33,.T.);
#53=ADVANCED_FACE('',(#43),#34,.T.);
#54=ADVANCED_FACE('',(#44),#35,.T.);
#55=ADVANCED_FACE('',(#45),#36,.T.);
#56=ADVANCED_FACE('',(#99,#100),#37,.F.);
#57=PLANE('',#256);
#58=PLANE('',#257);
#59=PLANE('',#258);
#60=PLANE('',#259);
#61=PLANE('',#260);
#62=PLANE('',#266);
#63=LINE('',#405,#79);
#64=LINE('',#410,#80);
#65=LINE('',#414,#81);
#66=LINE('',#418,#82);
#67=LINE('',#422,#83);
#68=LINE('',#425,#84);
#69=LINE('',#426,#85);
#70=LINE('',#428,#86);
#71=LINE('',#430,#87);
#72=LINE('',#432,#88);
#73=LINE('',#434,#89);
#74=LINE('',#436,#90);
#75=LINE('',#438,#91);
#76=LINE('',#440,#92);
#77=LINE('',#442,#93);
#78=LINE('',#444,#94);
#79=VECTOR('',#280,1.0);
#80=VECTOR('',#283,1.0);
#81=VECTOR('',#286,1.0);
#82=VECTOR('',#289,1.0);
#83=VECTOR('',#294,1.0);
#84=VECTOR('',#295,1.0);
#85=VECTOR('',#296,1.0);
#86=VECTOR('',#299,1.0);
#87=VECTOR('',#300,1.0);
#88=VECTOR('',#301,1.0);
#89=VECTOR('',#304,1.0);
#90=VECTOR('',#305,1.0);
#91=VECTOR('',#306,1.0);
#92=VECTOR('',#309,1.0);
#93=VECTOR('',#310,1.0);
#94=VECTOR('',#311,1.0);
#95=FACE_BOUND('',#101,.T.);
#96=FACE_BOUND('',#102,.T.);
#97=FACE_BOUND('',#107,.T.);
#98=FACE_BOUND('',#108,.T.);
#99=FACE_BOUND('',#113,.T.);
#100=FACE_BOUND('',#114,.T.);
#101=EDGE_LOOP('',(#115));
#102=EDGE_LOOP('',(#116,#117,#118,#119,#120,#121,#122,#123));
#103=EDGE_LOOP('',(#124,#125,#126,#127));
#104=EDGE_LOOP('',(#128,#129,#130,#131));
#105=EDGE_LOOP('',(#132,#133,#134,#135));
#106=EDGE_LOOP('',(#136,#137,#138,#139));
#107=EDGE_LOOP('',(#140));
#108=EDGE_LOOP('',(#141,#142,#143,#144,#145,#146,#147,#148));
#109=EDGE_LOOP('',(#149,#150,#151,#152));
#110=EDGE_LOOP('',(#153,#154,#155,#156));
#111=EDGE_LOOP('',(#157,#158,#159,#160));
#112=EDGE_LOOP('',(#161,#162,#163,#164));
#113=EDGE_LOOP('',(#165));
#114=EDGE_LOOP('',(#166));
#115=ORIENTED_EDGE('',*,*,#185,.T.);
#116=ORIENTED_EDGE('',*,*,#186,.T.);
#117=ORIENTED_EDGE('',*,*,#187,.T.);
#118=ORIENTED_EDGE('',*,*,#188,.T.);
#119=ORIENTED_EDGE('',*,*,#189,.T.);
#120=ORIENTED_EDGE('',*,*,#190,.T.);
#121=ORIENTED_EDGE('',*,*,#191,.T.);
#122=ORIENTED_EDGE('',*,*,#192,.T.);
#123=ORIENTED_EDGE('',*,*,#193,.T.);
#124=ORIENTED_EDGE('',*,*,#194,.F.);
#125=ORIENTED_EDGE('',*,*,#195,.T.);
#126=ORIENTED_EDGE('',*,*,#186,.F.);
#127=ORIENTED_EDGE('',*,*,#196,.T.);
#128=ORIENTED_EDGE('',*,*,#192,.F.);
#129=ORIENTED_EDGE('',*,*,#197,.T.);
#130=ORIENTED_EDGE('',*,*,#198,.F.);
#131=ORIENTED_EDGE('',*,*,#199,.T.);
#132=ORIENTED_EDGE('',*,*,#190,.F.);
#133=ORIENTED_EDGE('',*,*,#200,.T.);
#134=ORIENTED_EDGE('',*,*,#201,.F.);
#135=ORIENTED_EDGE('',*,*,#202,.T.);
#136=ORIENTED_EDGE('',*,*,#188,.F.);
#137=ORIENTED_EDGE('',*,*,#203,.T.);
#138=ORIENTED_EDGE('',*,*,#204,.F.);
#139=ORIENTED_EDGE('',*,*,#205,.T.);
#140=ORIENTED_EDGE('',*,*,#206,.F.);
#141=ORIENTED_EDGE('',*,*,#204,.T.);
#142=ORIENTED_EDGE('',*,*,#207,.T.);
#143=ORIENTED_EDGE('',*,*,#194,.T.);
#144=ORIENTED_EDGE('',*,*,#208,.T.);
#145=ORIENTED_EDGE('',*,*,#198,.T.);
#146=ORIENTED_EDGE('',*,*,#209,.T.);
#147=ORIENTED_EDGE('',*,*,#201,.T.);
#148=ORIENTED_EDGE('',*,*,#210,.T.);
#149=ORIENTED_EDGE('',*,*,#187,.F.);
#150=ORIENTED_EDGE('',*,*,#195,.F.);
#151=ORIENTED_EDGE('',*,*,#207,.F.);
#152=ORIENTED_EDGE('',*,*,#203,.F.);
#153=ORIENTED_EDGE('',*,*,#189,.F.);
#154=ORIENTED_EDGE('',*,*,#205,.F.);
#155=ORIENTED_EDGE('',*,*,#210,.F.);
#156=ORIENTED_EDGE('',*,*,#200,.F.);
#157=ORIENTED_EDGE('',*,*,#191,.F.);
#158=ORIENTED_EDGE('',*,*,#202,.F.);
#159=ORIENTED_EDGE('',*,*,#209,.F.);
#160=ORIENTED_EDGE('',*,*,#197,.F.);
#161=ORIENTED_EDGE('',*,*,#193,.F.);
#162=ORIENTED_EDGE('',*,*,#199,.F.);
#163=ORIENTED_EDGE('',*,*,#208,.F.);
#164=ORIENTED_EDGE('',*,*,#196,.F.);
#165=ORIENTED_EDGE('',*,*,#185,.F.);
#166=ORIENTED_EDGE('',*,*,#206,.T.);
#167=VERTEX_POINT('',#404);
#168=VERTEX_POINT('',#406);
#169=VERTEX_POINT('',#407);
#170=VERTEX_POINT('',#409);
#171=VERTEX_POINT('',#411);
#172=VERTEX_POINT('',#413);
#173=VERTEX_POINT('',#415);
#174=VERTEX_POINT('',#417);
#175=VERTEX_POINT('',#419);
#176=VERTEX_POINT('',#423);
#177=VERTEX_POINT('',#424);
#178=VERTEX_POINT('',#429);
#179=VERTEX_POINT('',#431);
#180=VERTEX_POINT('',#435);
#181=VERTEX_POINT('',#437);
#182=VERTEX_POINT('',#441);
#183=VERTEX_POINT('',#443);
#184=VERTEX_POINT('',#447);
#185=EDGE_CURVE('',#167,#167,#211,.T.);
#186=EDGE_CURVE('',#168,#169,#63,.T.);
#187=EDGE_CURVE('',#169,#170,#212,.T.);
#188=EDGE_CURVE('',#170,#171,#64,.T.);
#189=EDGE_CURVE('',#171,#172,#213,.T.);
#190=EDGE_CURVE('',#172,#173,#65,.T.);
#191=EDGE_CURVE('',#173,#174,#214,.T.);
#192=EDGE_CURVE('',#174,#175,#66,.T.);
#193=EDGE_CURVE('',#175,#168,#215,.T.);
#194=EDGE_CURVE('',#176,#177,#67,.T.);
#195=EDGE_CURVE('',#176,#169,#68,.T.);
#196=EDGE_CURVE('',#168,#177,#69,.T.);
#197=EDGE_CURVE('',#174,#178,#70,.T.);
#198=EDGE_CURVE('',#179,#178,#71,.T.);
#199=EDGE_CURVE('',#179,#175,#72,.T.);
#200=EDGE_CURVE('',#172,#180,#73,.T.);
#201=EDGE_CURVE('',#181,#180,#74,.T.);
#202=EDGE_CURVE('',#181,#173,#75,.T.);
#203=EDGE_CURVE('',#170,#182,#76,.T.);
#204=EDGE_CURVE('',#183,#182,#77,.T.);
#205=EDGE_CURVE('',#183,#171,#78,.T.);
#206=EDGE_CURVE('',#184,#184,#216,.T.);
#207=EDGE_CURVE('',#182,#176,#217,.T.);
#208=EDGE_CURVE('',#177,#179,#218,.T.);
#209=EDGE_CURVE('',#178,#181,#219,.T.);
#210=EDGE_CURVE('',#180,#183,#220,.T.);
#211=CIRCLE('',#251,2.578);
#212=CIRCLE('',#252,0.793749999999997);
#213=CIRCLE('',#253,0.793749999999997);
#214=CIRCLE('',#254,0.793749999999997);
#215=CIRCLE('',#255,0.793749999999997);
#216=CIRCLE('',#261,2.578);
#217=CIRCLE('',#262,0.793749999999997);
#218=CIRCLE('',#263,0.793749999999997);
#219=CIRCLE('',#264,0.793749999999997);
#220=CIRCLE('',#265,0.793749999999997);
#221=CURVE_STYLE('',#225,POSITIVE_LENGTH_MEASURE(0.18),#224);
#222=CURVE_STYLE('',#226,POSITIVE_LENGTH_MEASURE(0.18),#246);
#223=CURVE_STYLE('',#227,POSITIVE_LENGTH_MEASURE(0.18),#246);
#224=DRAUGHTING_PRE_DEFINED_COLOUR('blue');
#225=DRAUGHTING_PRE_DEFINED_CURVE_FONT('continuous');
#226=DRAUGHTING_PRE_DEFINED_CURVE_FONT('continuous');
#227=DRAUGHTING_PRE_DEFINED_CURVE_FONT('continuous');
#228=B_SPLINE_CURVE_WITH_KNOTS('CUTTING EDGE LINE',5,(#339,#340,#341,#342,#343,#344,
     #345,#346,#347,#348,#349,#350,#351,#352,#353,#354,#355,#356,#357,#358,#359,
     #360,#361,#362,#363,#364,#365,#366,#367,#368,#369,#370,#371,#372,#373,#374,
     #375,#376,#377,#378,#379,#380,#381,#382,#383,#384,#385,#386,#387,#388,#389,
     #390,#391,#392,#393,#394,#395,#396,#397,#398,#399,#400),.UNSPECIFIED.,.T.,.F.,
     (2,4,1,1,1,1,1,1,1,4,4,1,1,1,1,1,1,1,4,4,1,1,1,1,1,1,1,4,4,1,1,1,1,1,1,1,4,
     4,1,1),(-0.225124797,0.0,0.00276391143749999,0.00552782287499998,0.00829173431249997,
     0.01105564575,0.0138195571875001,0.016583468625,0.0193473800625,0.0221112915,
     0.2472360885,0.2506909778125,0.254145867125,0.2576007564375,0.26105564575,0.2645105350625,
     0.267965424375,0.2714203136875,0.274875203,0.5,0.5027639114375,0.505527822875,
     0.5082917343125,0.51105564575,0.5138195571875,0.516583468625,0.5193473800625,
     0.5221112915,0.7472360885,0.7506909778125,0.754145867125,0.7576007564375,0.76105564575,
     0.7645105350625,0.767965424375,0.7714203136875,0.774875203,1.0,1.0027639114375,
     1.005527822875),.UNSPECIFIED.);
#229=PRESENTATION_LAYER_ASSIGNMENT('1','Layer 1',(#228,#249,#250,#31));
#232=STYLED_ITEM('',(#238),#228);
#233=STYLED_ITEM('',(#239),#249);
#234=STYLED_ITEM('',(#240),#250);
#235=STYLED_ITEM('',(#241),#31);
#236=PRESENTATION_STYLE_ASSIGNMENT((#242));
#237=PRESENTATION_STYLE_ASSIGNMENT((#243));
#238=PRESENTATION_STYLE_ASSIGNMENT((#221));
#239=PRESENTATION_STYLE_ASSIGNMENT((#222));
#240=PRESENTATION_STYLE_ASSIGNMENT((#223));
#241=PRESENTATION_STYLE_ASSIGNMENT((#26));
#242=POINT_STYLE('',#244,POSITIVE_LENGTH_MEASURE(3.0),#246);
#243=POINT_STYLE('',#245,POSITIVE_LENGTH_MEASURE(3.0),#246);
#244=PRE_DEFINED_POINT_MARKER_SYMBOL('plus');
#245=PRE_DEFINED_POINT_MARKER_SYMBOL('plus');
#246=COLOUR_RGB('Medium Maroon',0.6,0.4,0.4);
#247=COLOUR_RGB('IsoInsertColor',0.8,0.8,0.8);
#248=AXIS2_PLACEMENT_3D('',#336,#272,#273);
#249=AXIS2_PLACEMENT_3D('PCS',#401,#274,#275);
#250=AXIS2_PLACEMENT_3D('MCS',#402,#276,#277);
#251=AXIS2_PLACEMENT_3D('',#403,#278,#279);
#252=AXIS2_PLACEMENT_3D('',#408,#281,#282);
#253=AXIS2_PLACEMENT_3D('',#412,#284,#285);
#254=AXIS2_PLACEMENT_3D('',#416,#287,#288);
#255=AXIS2_PLACEMENT_3D('',#420,#290,#291);
#256=AXIS2_PLACEMENT_3D('',#421,#292,#293);
#257=AXIS2_PLACEMENT_3D('',#427,#297,#298);
#258=AXIS2_PLACEMENT_3D('',#433,#302,#303);
#259=AXIS2_PLACEMENT_3D('',#439,#307,#308);
#260=AXIS2_PLACEMENT_3D('',#445,#312,#313);
#261=AXIS2_PLACEMENT_3D('',#446,#314,#315);
#262=AXIS2_PLACEMENT_3D('',#448,#316,#317);
#263=AXIS2_PLACEMENT_3D('',#449,#318,#319);
#264=AXIS2_PLACEMENT_3D('',#450,#320,#321);
#265=AXIS2_PLACEMENT_3D('',#451,#322,#323);
#266=AXIS2_PLACEMENT_3D('',#452,#324,#325);
#267=AXIS2_PLACEMENT_3D('',#453,#326,#327);
#268=AXIS2_PLACEMENT_3D('',#454,#328,#329);
#269=AXIS2_PLACEMENT_3D('',#455,#330,#331);
#270=AXIS2_PLACEMENT_3D('',#456,#332,#333);
#271=AXIS2_PLACEMENT_3D('',#457,#334,#335);
#272=DIRECTION('',(0.0,0.0,1.0));
#273=DIRECTION('',(1.0,0.0,0.0));
#274=DIRECTION('',(0.0,0.0,1.0));
#275=DIRECTION('',(1.0,0.0,0.0));
#276=DIRECTION('',(0.0,0.0,1.0));
#277=DIRECTION('',(1.0,0.0,0.0));
#278=DIRECTION('',(0.0,0.0,1.0));
#279=DIRECTION('',(-0.766044443118978,-0.64278760968654,0.0));
#280=DIRECTION('',(1.0,6.10622663543836E-16,0.0));
#281=DIRECTION('',(0.0,0.0,-1.0));
#282=DIRECTION('',(-0.766044443118977,-0.642787609686539,0.0));
#283=DIRECTION('',(-0.173648177666928,-0.984807753012209,0.0));
#284=DIRECTION('',(0.0,0.0,-1.0));
#285=DIRECTION('',(-0.766044443118977,-0.64278760968654,0.0));
#286=DIRECTION('',(-1.0,8.32667268468867E-16,0.0));
#287=DIRECTION('',(0.0,0.0,-1.0));
#288=DIRECTION('',(-0.766044443118978,-0.64278760968654,0.0));
#289=DIRECTION('',(0.17364817766693,0.984807753012208,0.0));
#290=DIRECTION('',(0.0,0.0,-1.0));
#291=DIRECTION('',(-0.766044443118978,-0.642787609686539,0.0));
#292=DIRECTION('',(0.0,0.0,1.0));
#293=DIRECTION('',(-0.766044443118978,-0.64278760968654,0.0));
#294=DIRECTION('',(-1.0,-6.10622663543836E-16,-1.03309251233719E-16));
#295=DIRECTION('',(1.03309251233719E-16,-3.86469317895239E-16,-1.0));
#296=DIRECTION('',(-1.03309251233719E-16,3.86469317895239E-16,1.0));
#297=DIRECTION('',(-6.66133814775094E-16,1.0,-3.86469317895239E-16));
#298=DIRECTION('',(-1.0,-6.10622663543836E-16,0.0));
#299=DIRECTION('',(-1.03309251233719E-16,3.86469317895239E-16,1.0));
#300=DIRECTION('',(-0.17364817766693,-0.984807753012208,3.626585173517E-16));
#301=DIRECTION('',(1.03309251233719E-16,-3.86469317895239E-16,-1.0));
#302=DIRECTION('',(-0.984807753012208,0.17364817766693,-1.68849444349542E-16));
#303=DIRECTION('',(-0.17364817766693,-0.984807753012208,0.0));
#304=DIRECTION('',(-1.03309251233719E-16,3.86469317895239E-16,1.0));
#305=DIRECTION('',(1.0,-8.32667268468867E-16,1.03309251233719E-16));
#306=DIRECTION('',(1.03309251233719E-16,-3.86469317895239E-16,-1.0));
#307=DIRECTION('',(-8.32667268468867E-16,-1.0,3.86469317895239E-16));
#308=DIRECTION('',(1.0,-8.32667268468867E-16,0.0));
#309=DIRECTION('',(-1.03309251233719E-16,3.86469317895239E-16,1.0));
#310=DIRECTION('',(0.173648177666928,0.984807753012209,-3.62658517351701E-16));
#311=DIRECTION('',(1.03309251233719E-16,-3.86469317895239E-16,-1.0));
#312=DIRECTION('',(0.984807753012209,-0.173648177666928,1.68849444349541E-16));
#313=DIRECTION('',(0.173648177666928,0.984807753012209,0.0));
#314=DIRECTION('',(0.0,0.0,1.0));
#315=DIRECTION('',(-0.766044443118978,-0.64278760968654,0.0));
#316=DIRECTION('',(-1.03309251233719E-16,3.86469317895239E-16,1.0));
#317=DIRECTION('',(-0.642787609686539,0.766044443118977,-3.62458580068658E-16));
#318=DIRECTION('',(-1.03309251233719E-16,3.86469317895239E-16,1.0));
#319=DIRECTION('',(-0.64278760968654,0.766044443118977,-3.62458580068658E-16));
#320=DIRECTION('',(-1.03309251233719E-16,3.86469317895239E-16,1.0));
#321=DIRECTION('',(-0.64278760968654,0.766044443118978,-3.62458580068658E-16));
#322=DIRECTION('',(-1.03309251233719E-16,3.86469317895239E-16,1.0));
#323=DIRECTION('',(-0.642787609686539,0.766044443118978,-3.62458580068658E-16));
#324=DIRECTION('',(-1.03309251233719E-16,3.86469317895239E-16,1.0));
#325=DIRECTION('',(-0.64278760968654,0.766044443118978,-3.62458580068658E-16));
#326=DIRECTION('',(-1.03309251233719E-16,3.86469317895239E-16,1.0));
#327=DIRECTION('',(-0.642787609686539,0.766044443118977,-3.62458580068658E-16));
#328=DIRECTION('',(-1.03309251233719E-16,3.86469317895239E-16,1.0));
#329=DIRECTION('',(-0.642787609686539,0.766044443118978,-3.62458580068658E-16));
#330=DIRECTION('',(-1.03309251233719E-16,3.86469317895239E-16,1.0));
#331=DIRECTION('',(-0.64278760968654,0.766044443118978,-3.62458580068658E-16));
#332=DIRECTION('',(-1.03309251233719E-16,3.86469317895239E-16,1.0));
#333=DIRECTION('',(-0.64278760968654,0.766044443118977,-3.62458580068658E-16));
#334=DIRECTION('',(0.0,0.0,1.0));
#335=DIRECTION('',(-0.766044443118978,-0.64278760968654,0.0));
#336=CARTESIAN_POINT('',(0.0,0.0,0.0));
#339=CARTESIAN_POINT('',(9.97309699378589,5.24025267623074E-14,0.0));
#340=CARTESIAN_POINT('',(12.2553932719614,4.9737991503207E-14,3.09395505499875E-16));
#341=CARTESIAN_POINT('',(12.3064145384803,0.00204973987185308,3.13664899885736E-16));
#342=CARTESIAN_POINT('',(12.3873862996278,0.0116288538654503,3.17349342408893E-16));
#343=CARTESIAN_POINT('',(12.4937253395887,0.0386932046924962,3.15110562407669E-16));
#344=CARTESIAN_POINT('',(12.624833663911,0.0975702289839875,2.99885895832324E-16));
#345=CARTESIAN_POINT('',(12.7443166086952,0.180671468108098,2.71623422997535E-16));
#346=CARTESIAN_POINT('',(12.8469033488936,0.283908819748535,2.317762084165E-16));
#347=CARTESIAN_POINT('',(12.9276526204857,0.402801426050858,1.82023277371878E-16));
#348=CARTESIAN_POINT('',(12.9727713835144,0.502825261851241,1.37809325118775E-16));
#349=CARTESIAN_POINT('',(12.9962655680081,0.580903484315924,1.02084746618501E-16));
#350=CARTESIAN_POINT('',(13.0071439176788,0.630793689558781,7.88304848917464E-17));
#351=CARTESIAN_POINT('',(13.4034605072799,2.87841675897691,4.02072739357345E-17));
#352=CARTESIAN_POINT('',(13.7953472219045,5.10091675897691,2.68048492904897E-17));
#353=CARTESIAN_POINT('',(14.1872339365291,7.3234167589769,2.68048492904897E-17));
#354=CARTESIAN_POINT('',(14.5791206511536,9.54591675897689,4.02072739357347E-17));
#355=CARTESIAN_POINT('',(14.9762866851963,11.7983572672129,5.81401660923379E-17));
#356=CARTESIAN_POINT('',(14.9839783540378,11.858743807848,4.0420374421463E-17));
#357=CARTESIAN_POINT('',(14.9875621382335,11.9589521113832,1.15554107185634E-17));
#358=CARTESIAN_POINT('',(14.9703259113089,12.094305363469,-2.61341716501592E-17));
#359=CARTESIAN_POINT('',(14.9086848648275,12.2668163291543,-7.18363280544075E-17));
#360=CARTESIAN_POINT('',(14.8056824900697,12.4234427167455,-1.10562913049168E-16));
#361=CARTESIAN_POINT('',(14.6693217839157,12.5520781407654,-1.39323007262864E-16));
#362=CARTESIAN_POINT('',(14.5101355028198,12.6427389360628,-1.558815092687E-16));
#363=CARTESIAN_POINT('',(14.3798316101668,12.6832171515369,-1.59789790206537E-16));
#364=CARTESIAN_POINT('',(14.2805233783336,12.6970888023718,-1.57913638084099E-16));
#365=CARTESIAN_POINT('',(14.219718600661,12.7,-1.55168701030704E-16));
#366=CARTESIAN_POINT('',(11.9325305669087,12.7,-9.20280063238034E-17));
#367=CARTESIAN_POINT('',(9.67574492199262,12.7,-6.1352004215869E-17));
#368=CARTESIAN_POINT('',(7.41895927707657,12.7,-6.13520042158689E-17));
#369=CARTESIAN_POINT('',(5.16217363216051,12.7,-9.20280063238034E-17));
#370=CARTESIAN_POINT('',(2.87987735398502,12.7,-1.61890290198175E-16));
#371=CARTESIAN_POINT('',(2.82885608746615,12.6979502601282,-1.77826043312102E-16));
#372=CARTESIAN_POINT('',(2.74788432631855,12.6883711461346,-1.99768349231239E-16));
#373=CARTESIAN_POINT('',(2.64154528635766,12.6613067953075,-2.2091920942343E-16));
#374=CARTESIAN_POINT('',(2.51043696203536,12.6024297710161,-2.33496468867161E-16));
#375=CARTESIAN_POINT('',(2.39095401725124,12.5193285318919,-2.29375086904004E-16));
#376=CARTESIAN_POINT('',(2.28836727705279,12.4160911802515,-2.08960321270614E-16));
#377=CARTESIAN_POINT('',(2.20761800546076,12.2971985739492,-1.72975232688891E-16));
#378=CARTESIAN_POINT('',(2.16249924243198,12.1971747381488,-1.35090026207705E-16));
#379=CARTESIAN_POINT('',(2.13900505793832,12.1190965156841,-1.01605434085565E-16));
#380=CARTESIAN_POINT('',(2.12812670826765,12.0692063104413,-7.88304848917465E-17));
#381=CARTESIAN_POINT('',(1.73181011866646,9.82158324102313,-4.02072739357346E-17));
#382=CARTESIAN_POINT('',(1.3399234040419,7.59908324102314,-2.68048492904897E-17));
#383=CARTESIAN_POINT('',(0.948036689417336,5.37658324102315,-2.68048492904895E-17));
#384=CARTESIAN_POINT('',(0.556149974792777,3.15408324102317,-4.02072739357341E-17));
#385=CARTESIAN_POINT('',(0.158983940750076,0.901642732787112,-5.8140166092337E-17));
#386=CARTESIAN_POINT('',(0.151292271908591,0.841256192152017,-4.0420374421462E-17));
#387=CARTESIAN_POINT('',(0.147708487712849,0.741047888616835,-1.15554107185624E-17));
#388=CARTESIAN_POINT('',(0.164944714637486,0.605694636531079,2.61341716501602E-17));
#389=CARTESIAN_POINT('',(0.226585761118913,0.433183670845788,7.18363280544084E-17));
#390=CARTESIAN_POINT('',(0.329588135876698,0.276557283254599,1.10562913049168E-16));
#391=CARTESIAN_POINT('',(0.46594884203072,0.147921859234672,1.39323007262865E-16));
#392=CARTESIAN_POINT('',(0.625135123126574,0.0572610639372018,1.558815092687E-16));
#393=CARTESIAN_POINT('',(0.755439015779548,0.016782848463146,1.59789790206537E-16));
#394=CARTESIAN_POINT('',(0.854747247612806,0.0029111976282552,1.57913638084099E-16));
#395=CARTESIAN_POINT('',(0.915552025285375,5.86197757002083E-14,1.55168701030704E-16));
#396=CARTESIAN_POINT('',(3.20274005903772,5.77315972805081E-14,9.20280063238035E-17));
#397=CARTESIAN_POINT('',(5.45952570395377,5.50670620214078E-14,4.60140031619018E-17));
#398=CARTESIAN_POINT('',(7.71631134886983,5.59552404411079E-14,1.53380010539672E-17));
#399=CARTESIAN_POINT('',(9.97309699378589,5.24025267623074E-14,0.0));
#400=CARTESIAN_POINT('',(12.2553932719614,4.9737991503207E-14,3.09395505499875E-16));
#401=CARTESIAN_POINT('',(0.0,0.0,0.0));
#402=CARTESIAN_POINT('',(7.56763531297323,6.35,0.0));
#403=CARTESIAN_POINT('',(7.56763531297323,6.35,-7.9375));
#404=CARTESIAN_POINT('',(5.5927727386125,4.6928935422281,-7.9375));
#405=CARTESIAN_POINT('',(7.5676353129732,12.7,-7.9375));
#406=CARTESIAN_POINT('',(2.90538798724446,12.7,-7.9375));
#407=CARTESIAN_POINT('',(14.1893162118247,12.7,-7.9375));
#408=CARTESIAN_POINT('',(14.1893162118247,11.90625,-7.9375));
#409=CARTESIAN_POINT('',(14.9710073657782,11.7684167589769,-7.9375));
#410=CARTESIAN_POINT('',(13.8211645446007,5.24733407181503,-7.9375));
#411=CARTESIAN_POINT('',(13.0115737926554,0.65591675897692,-7.9375));
#412=CARTESIAN_POINT('',(12.229882638702,0.793750000000044,-7.9375));
#413=CARTESIAN_POINT('',(12.229882638702,4.68375338513738E-14,-7.9375));
#414=CARTESIAN_POINT('',(7.5676353129732,5.11743425413158E-14,-7.9375));
#415=CARTESIAN_POINT('',(0.945954414121659,5.63785129692462E-14,-7.9375));
#416=CARTESIAN_POINT('',(0.945954414121659,0.793750000000054,-7.9375));
#417=CARTESIAN_POINT('',(0.164263260168218,0.931583241023174,-7.9375));
#418=CARTESIAN_POINT('',(1.31410608134571,7.45266592818502,-7.9375));
#419=CARTESIAN_POINT('',(2.12369683329102,12.0440832410231,-7.9375));
#420=CARTESIAN_POINT('',(2.90538798724446,11.90625,-7.9375));
#421=CARTESIAN_POINT('',(7.52141400043606,5.82168798019793,-7.9375));
#422=CARTESIAN_POINT('',(7.56763531297322,12.7,-5.38749756651153E-15));
#423=CARTESIAN_POINT('',(14.1893162118247,12.7,-4.70341667094256E-15));
#424=CARTESIAN_POINT('',(2.90538798724446,12.7,-5.86915084679897E-15));
#425=CARTESIAN_POINT('',(14.1893162118247,12.7,-5.20417042793042E-15));
#426=CARTESIAN_POINT('',(2.90538798724446,12.7,-6.93889390390723E-15));
#427=CARTESIAN_POINT('',(7.5676353129732,12.7,-5.38749756651153E-15));
#428=CARTESIAN_POINT('',(0.164263260168217,0.931583241023178,-1.73472347597681E-15));
#429=CARTESIAN_POINT('',(0.164263260168217,0.931583241023178,-1.60420239234279E-15));
#430=CARTESIAN_POINT('',(1.3141060813457,7.452665928185,-4.00561136949636E-15));
#431=CARTESIAN_POINT('',(2.12369683329102,12.0440832410231,-5.69641507217208E-15));
#432=CARTESIAN_POINT('',(2.12369683329102,12.0440832410231,-6.93889390390723E-15));
#433=CARTESIAN_POINT('',(1.3141060813457,7.45266592818502,-4.00561136949636E-15));
#434=CARTESIAN_POINT('',(12.229882638702,4.9439619065339E-14,-1.92592994438724E-31));
#435=CARTESIAN_POINT('',(12.229882638702,4.9439619065339E-14,2.31605104542355E-18));
#436=CARTESIAN_POINT('',(7.56763531297322,5.29090660172926E-14,-4.79337229242022E-16));
#437=CARTESIAN_POINT('',(0.945954414121659,5.98479599211998E-14,-1.163418124811E-15));
#438=CARTESIAN_POINT('',(0.945954414121659,5.98479599211998E-14,-1.73472347597681E-15));
#439=CARTESIAN_POINT('',(7.5676353129732,5.3776427755281E-14,-4.79337229242025E-16));
#440=CARTESIAN_POINT('',(14.9710073657782,11.7684167589769,-5.20417042793042E-15));
#441=CARTESIAN_POINT('',(14.9710073657782,11.7684167589769,-4.26263240341077E-15));
#442=CARTESIAN_POINT('',(13.8211645446007,5.24733407181502,-1.86122342625719E-15));
#443=CARTESIAN_POINT('',(13.0115737926554,0.655916758976923,-1.70419723581473E-16));
#444=CARTESIAN_POINT('',(13.0115737926554,0.655916758976923,0.0));
#445=CARTESIAN_POINT('',(13.8211645446007,5.24733407181504,-1.86122342625719E-15));
#446=CARTESIAN_POINT('',(7.56763531297323,6.35,-6.93889390390723E-15));
#447=CARTESIAN_POINT('',(5.5927727386125,4.6928935422281,-6.93889390390723E-15));
#448=CARTESIAN_POINT('',(14.1893162118247,11.90625,-4.39665664986322E-15));
#449=CARTESIAN_POINT('',(2.90538798724446,11.90625,-5.56239082571963E-15));
#450=CARTESIAN_POINT('',(0.945954414121658,0.793750000000057,-1.47017814589034E-15));
#451=CARTESIAN_POINT('',(12.229882638702,0.793750000000047,-3.04443970033921E-16));
#452=CARTESIAN_POINT('',(7.56763531297323,6.35,-2.93341739787677E-15));
#453=CARTESIAN_POINT('',(14.1893162118247,11.90625,-5.20417042793042E-15));
#454=CARTESIAN_POINT('',(12.229882638702,0.793750000000047,0.0));
#455=CARTESIAN_POINT('',(0.945954414121658,0.793750000000057,-1.73472347597681E-15));
#456=CARTESIAN_POINT('',(2.90538798724446,11.90625,-6.93889390390723E-15));
#457=CARTESIAN_POINT('',(7.56763531297323,6.35,-33.3676978394524));
#458=MECHANICAL_DESIGN_GEOMETRIC_PRESENTATION_REPRESENTATION('',(#232,#233,#234,
     #235),#459);
#459=(GEOMETRIC_REPRESENTATION_CONTEXT(3)GLOBAL_UNCERTAINTY_ASSIGNED_CONTEXT((#460))
     GLOBAL_UNIT_ASSIGNED_CONTEXT((#466,#462,#461))REPRESENTATION_CONTEXT('CNGQ120708',
     'TOP_LEVEL_ASSEMBLY_PART'));
#460=UNCERTAINTY_MEASURE_WITH_UNIT(LENGTH_MEASURE(2.0E-5),#466,'DISTANCE_ACCURACY_VALUE',
     'Maximum Tolerance applied to model');
#461=(NAMED_UNIT(*)SI_UNIT($,.STERADIAN.)SOLID_ANGLE_UNIT());
#462=(CONVERSION_BASED_UNIT('DEGREE',#464)NAMED_UNIT(#463)PLANE_ANGLE_UNIT());
#463=DIMENSIONAL_EXPONENTS(0.0,0.0,0.0,0.0,0.0,0.0,0.0);
#464=PLANE_ANGLE_MEASURE_WITH_UNIT(PLANE_ANGLE_MEASURE(0.0174532925),#465);
#465=(NAMED_UNIT(*)PLANE_ANGLE_UNIT()SI_UNIT($,.RADIAN.));
#466=(LENGTH_UNIT()NAMED_UNIT(*)SI_UNIT(.MILLI.,.METRE.));
#467=CONSTRUCTIVE_GEOMETRY_REPRESENTATION('supplemental geometry',(#249,#250),#459);
#468=CONSTRUCTIVE_GEOMETRY_REPRESENTATION_RELATIONSHIP('supplemental geometry','contains PCS and MCS coordinate systems',
     #24,#467);
ENDSEC;
END-ISO-10303-21;
