ISO-10303-21;
HEADER;
FILE_DESCRIPTION(
/* description */ (''),
/* implementation_level */ '2;1');
FILE_NAME(
/* name */ 'SPMT120408.stp',
/* time_stamp */ '2017-03-21T10:54:27',
/* author */ ('Sandvik Coromant R&D'),
/* organization */ ('Sandvik Machining Solutions'),
/* preprocessor_version */ 'ST-DEVELOPER v15',
/* originating_system */ 'SIEMENS PLM Software NX v8.5.3.3(64 bits)',
/* authorization */ '');
FILE_SCHEMA(('AUTOMOTIVE_DESIGN'));
ENDSEC;
DATA;
#10=GEOMETRICALLY_BOUNDED_WIREFRAME_SHAPE_REPRESENTATION('IsoTurningInsert-None',
     (#25),#515);
#11=SHAPE_REPRESENTATION_RELATIONSHIP('None','relationship between IsoTurningInsert-None and IsoTurningInsert-None',
     #24,#13);
#12=SHAPE_REPRESENTATION_RELATIONSHIP('None','relationship between IsoTurningInsert-None and IsoTurningInsert-None',
     #24,#10);
#13=ADVANCED_BREP_SHAPE_REPRESENTATION('IsoTurningInsert-None',(#31),#515);
#14=SHAPE_DEFINITION_REPRESENTATION(#15,#24);
#15=PRODUCT_DEFINITION_SHAPE('','',#16);
#16=PRODUCT_DEFINITION(' ','',#18,#17);
#17=PRODUCT_DEFINITION_CONTEXT('part definition',#23,'design');
#18=PRODUCT_DEFINITION_FORMATION_WITH_SPECIFIED_SOURCE(' ',' ',#20,.NOT_KNOWN.);
#19=PRODUCT_RELATED_PRODUCT_CATEGORY('part','',(#20));
#20=PRODUCT('IsoTurningInsert','IsoTurningInsert',' ',(#21));
#21=PRODUCT_CONTEXT(' ',#23,'mechanical');
#22=APPLICATION_PROTOCOL_DEFINITION('international standard','automotive_design',
     2010,#23);
#23=APPLICATION_CONTEXT('core data for automotive mechanical design processes');
#24=SHAPE_REPRESENTATION('IsoTurningInsert-None',(#285),#515);
#25=GEOMETRIC_CURVE_SET('geometric curve set',(#265));
#26=SURFACE_STYLE_USAGE(.BOTH.,#27);
#27=SURFACE_SIDE_STYLE('',(#28));
#28=SURFACE_STYLE_FILL_AREA(#29);
#29=FILL_AREA_STYLE('',(#30));
#30=FILL_AREA_STYLE_COLOUR('',#284);
#31=MANIFOLD_SOLID_BREP('CUT',#32);
#32=CLOSED_SHELL('',(#49,#50,#51,#52,#53,#54,#55,#56,#57,#58,#59,#60,#61,#62));
#33=CYLINDRICAL_SURFACE('',#309,2.75);
#34=TOROIDAL_SURFACE('',#308,6.75,4.0);
#35=TOROIDAL_SURFACE('',#310,3.7087141803334,0.3);
#36=CONICAL_SURFACE('',#300,0.793750000000001,11.0);
#37=CONICAL_SURFACE('',#301,0.793750000000001,11.0);
#38=CONICAL_SURFACE('',#302,0.793750000000001,11.0);
#39=CONICAL_SURFACE('',#303,0.793750000000001,11.0);
#40=CONICAL_SURFACE('',#305,4.00000000002695,3.99999999859324);
#41=FACE_OUTER_BOUND('',#123,.T.);
#42=FACE_OUTER_BOUND('',#124,.T.);
#43=FACE_OUTER_BOUND('',#125,.T.);
#44=FACE_OUTER_BOUND('',#126,.T.);
#45=FACE_OUTER_BOUND('',#129,.T.);
#46=FACE_OUTER_BOUND('',#130,.T.);
#47=FACE_OUTER_BOUND('',#131,.T.);
#48=FACE_OUTER_BOUND('',#132,.T.);
#49=ADVANCED_FACE('',(#109,#110),#63,.F.);
#50=ADVANCED_FACE('',(#41),#64,.F.);
#51=ADVANCED_FACE('',(#42),#65,.F.);
#52=ADVANCED_FACE('',(#43),#66,.F.);
#53=ADVANCED_FACE('',(#44),#67,.F.);
#54=ADVANCED_FACE('',(#111,#112),#68,.T.);
#55=ADVANCED_FACE('',(#45),#36,.T.);
#56=ADVANCED_FACE('',(#46),#37,.T.);
#57=ADVANCED_FACE('',(#47),#38,.T.);
#58=ADVANCED_FACE('',(#48),#39,.T.);
#59=ADVANCED_FACE('',(#113,#114),#40,.F.);
#60=ADVANCED_FACE('',(#115,#116),#34,.T.);
#61=ADVANCED_FACE('',(#117,#118),#33,.F.);
#62=ADVANCED_FACE('',(#119,#120),#35,.F.);
#63=PLANE('',#289);
#64=PLANE('',#290);
#65=PLANE('',#291);
#66=PLANE('',#292);
#67=PLANE('',#293);
#68=PLANE('',#299);
#69=LINE('',#452,#89);
#70=LINE('',#455,#90);
#71=LINE('',#457,#91);
#72=LINE('',#459,#92);
#73=LINE('',#461,#93);
#74=LINE('',#464,#94);
#75=LINE('',#466,#95);
#76=LINE('',#467,#96);
#77=LINE('',#469,#97);
#78=LINE('',#471,#98);
#79=LINE('',#473,#99);
#80=LINE('',#475,#100);
#81=LINE('',#477,#101);
#82=LINE('',#479,#102);
#83=LINE('',#481,#103);
#84=LINE('',#483,#104);
#85=LINE('',#485,#105);
#86=LINE('',#487,#106);
#87=LINE('',#489,#107);
#88=LINE('',#491,#108);
#89=VECTOR('',#319,1.0);
#90=VECTOR('',#320,1.0);
#91=VECTOR('',#321,1.0);
#92=VECTOR('',#322,1.0);
#93=VECTOR('',#325,1.0);
#94=VECTOR('',#326,1.0);
#95=VECTOR('',#327,1.0);
#96=VECTOR('',#328,1.0);
#97=VECTOR('',#329,1.0);
#98=VECTOR('',#332,1.0);
#99=VECTOR('',#333,1.0);
#100=VECTOR('',#334,1.0);
#101=VECTOR('',#335,1.0);
#102=VECTOR('',#338,1.0);
#103=VECTOR('',#339,1.0);
#104=VECTOR('',#340,1.0);
#105=VECTOR('',#341,1.0);
#106=VECTOR('',#344,1.0);
#107=VECTOR('',#345,1.0);
#108=VECTOR('',#346,1.0);
#109=FACE_BOUND('',#121,.T.);
#110=FACE_BOUND('',#122,.T.);
#111=FACE_BOUND('',#127,.T.);
#112=FACE_BOUND('',#128,.T.);
#113=FACE_BOUND('',#133,.T.);
#114=FACE_BOUND('',#134,.T.);
#115=FACE_BOUND('',#135,.T.);
#116=FACE_BOUND('',#136,.T.);
#117=FACE_BOUND('',#137,.T.);
#118=FACE_BOUND('',#138,.T.);
#119=FACE_BOUND('',#139,.T.);
#120=FACE_BOUND('',#140,.T.);
#121=EDGE_LOOP('',(#141));
#122=EDGE_LOOP('',(#142,#143,#144,#145));
#123=EDGE_LOOP('',(#146,#147,#148,#149,#150,#151));
#124=EDGE_LOOP('',(#152,#153,#154,#155,#156,#157));
#125=EDGE_LOOP('',(#158,#159,#160,#161,#162,#163));
#126=EDGE_LOOP('',(#164,#165,#166,#167,#168,#169));
#127=EDGE_LOOP('',(#170));
#128=EDGE_LOOP('',(#171,#172,#173,#174,#175,#176,#177,#178));
#129=EDGE_LOOP('',(#179,#180,#181));
#130=EDGE_LOOP('',(#182,#183,#184));
#131=EDGE_LOOP('',(#185,#186,#187));
#132=EDGE_LOOP('',(#188,#189,#190));
#133=EDGE_LOOP('',(#191));
#134=EDGE_LOOP('',(#192));
#135=EDGE_LOOP('',(#193));
#136=EDGE_LOOP('',(#194));
#137=EDGE_LOOP('',(#195));
#138=EDGE_LOOP('',(#196));
#139=EDGE_LOOP('',(#197));
#140=EDGE_LOOP('',(#198));
#141=ORIENTED_EDGE('',*,*,#220,.T.);
#142=ORIENTED_EDGE('',*,*,#221,.T.);
#143=ORIENTED_EDGE('',*,*,#222,.T.);
#144=ORIENTED_EDGE('',*,*,#223,.T.);
#145=ORIENTED_EDGE('',*,*,#224,.T.);
#146=ORIENTED_EDGE('',*,*,#225,.F.);
#147=ORIENTED_EDGE('',*,*,#226,.T.);
#148=ORIENTED_EDGE('',*,*,#227,.F.);
#149=ORIENTED_EDGE('',*,*,#221,.F.);
#150=ORIENTED_EDGE('',*,*,#228,.T.);
#151=ORIENTED_EDGE('',*,*,#229,.T.);
#152=ORIENTED_EDGE('',*,*,#224,.F.);
#153=ORIENTED_EDGE('',*,*,#230,.T.);
#154=ORIENTED_EDGE('',*,*,#231,.T.);
#155=ORIENTED_EDGE('',*,*,#232,.F.);
#156=ORIENTED_EDGE('',*,*,#233,.T.);
#157=ORIENTED_EDGE('',*,*,#228,.F.);
#158=ORIENTED_EDGE('',*,*,#223,.F.);
#159=ORIENTED_EDGE('',*,*,#234,.T.);
#160=ORIENTED_EDGE('',*,*,#235,.T.);
#161=ORIENTED_EDGE('',*,*,#236,.F.);
#162=ORIENTED_EDGE('',*,*,#237,.T.);
#163=ORIENTED_EDGE('',*,*,#230,.F.);
#164=ORIENTED_EDGE('',*,*,#222,.F.);
#165=ORIENTED_EDGE('',*,*,#227,.T.);
#166=ORIENTED_EDGE('',*,*,#238,.T.);
#167=ORIENTED_EDGE('',*,*,#239,.F.);
#168=ORIENTED_EDGE('',*,*,#240,.T.);
#169=ORIENTED_EDGE('',*,*,#234,.F.);
#170=ORIENTED_EDGE('',*,*,#241,.F.);
#171=ORIENTED_EDGE('',*,*,#239,.T.);
#172=ORIENTED_EDGE('',*,*,#242,.T.);
#173=ORIENTED_EDGE('',*,*,#225,.T.);
#174=ORIENTED_EDGE('',*,*,#243,.T.);
#175=ORIENTED_EDGE('',*,*,#232,.T.);
#176=ORIENTED_EDGE('',*,*,#244,.T.);
#177=ORIENTED_EDGE('',*,*,#236,.T.);
#178=ORIENTED_EDGE('',*,*,#245,.T.);
#179=ORIENTED_EDGE('',*,*,#238,.F.);
#180=ORIENTED_EDGE('',*,*,#226,.F.);
#181=ORIENTED_EDGE('',*,*,#242,.F.);
#182=ORIENTED_EDGE('',*,*,#235,.F.);
#183=ORIENTED_EDGE('',*,*,#240,.F.);
#184=ORIENTED_EDGE('',*,*,#245,.F.);
#185=ORIENTED_EDGE('',*,*,#231,.F.);
#186=ORIENTED_EDGE('',*,*,#237,.F.);
#187=ORIENTED_EDGE('',*,*,#244,.F.);
#188=ORIENTED_EDGE('',*,*,#229,.F.);
#189=ORIENTED_EDGE('',*,*,#233,.F.);
#190=ORIENTED_EDGE('',*,*,#243,.F.);
#191=ORIENTED_EDGE('',*,*,#246,.T.);
#192=ORIENTED_EDGE('',*,*,#241,.T.);
#193=ORIENTED_EDGE('',*,*,#247,.T.);
#194=ORIENTED_EDGE('',*,*,#248,.T.);
#195=ORIENTED_EDGE('',*,*,#248,.F.);
#196=ORIENTED_EDGE('',*,*,#220,.F.);
#197=ORIENTED_EDGE('',*,*,#247,.F.);
#198=ORIENTED_EDGE('',*,*,#246,.F.);
#199=VERTEX_POINT('',#451);
#200=VERTEX_POINT('',#453);
#201=VERTEX_POINT('',#454);
#202=VERTEX_POINT('',#456);
#203=VERTEX_POINT('',#458);
#204=VERTEX_POINT('',#462);
#205=VERTEX_POINT('',#463);
#206=VERTEX_POINT('',#465);
#207=VERTEX_POINT('',#468);
#208=VERTEX_POINT('',#472);
#209=VERTEX_POINT('',#474);
#210=VERTEX_POINT('',#476);
#211=VERTEX_POINT('',#480);
#212=VERTEX_POINT('',#482);
#213=VERTEX_POINT('',#484);
#214=VERTEX_POINT('',#488);
#215=VERTEX_POINT('',#490);
#216=VERTEX_POINT('',#494);
#217=VERTEX_POINT('',#505);
#218=VERTEX_POINT('',#508);
#219=VERTEX_POINT('',#510);
#220=EDGE_CURVE('',#199,#199,#249,.T.);
#221=EDGE_CURVE('',#200,#201,#69,.T.);
#222=EDGE_CURVE('',#201,#202,#70,.T.);
#223=EDGE_CURVE('',#202,#203,#71,.T.);
#224=EDGE_CURVE('',#203,#200,#72,.T.);
#225=EDGE_CURVE('',#204,#205,#73,.T.);
#226=EDGE_CURVE('',#204,#206,#74,.T.);
#227=EDGE_CURVE('INSERT_CORNER_EDGE3',#201,#206,#75,.T.);
#228=EDGE_CURVE('INSERT_CORNER_EDGE4',#200,#207,#76,.T.);
#229=EDGE_CURVE('',#207,#205,#77,.T.);
#230=EDGE_CURVE('INSERT_CORNER_EDGE1',#203,#208,#78,.T.);
#231=EDGE_CURVE('',#208,#209,#79,.T.);
#232=EDGE_CURVE('',#210,#209,#80,.T.);
#233=EDGE_CURVE('',#210,#207,#81,.T.);
#234=EDGE_CURVE('INSERT_CORNER_EDGE2',#202,#211,#82,.T.);
#235=EDGE_CURVE('',#211,#212,#83,.T.);
#236=EDGE_CURVE('',#213,#212,#84,.T.);
#237=EDGE_CURVE('',#213,#208,#85,.T.);
#238=EDGE_CURVE('',#206,#214,#86,.T.);
#239=EDGE_CURVE('',#215,#214,#87,.T.);
#240=EDGE_CURVE('',#215,#211,#88,.T.);
#241=EDGE_CURVE('',#216,#216,#250,.T.);
#242=EDGE_CURVE('',#214,#204,#251,.T.);
#243=EDGE_CURVE('',#205,#210,#252,.T.);
#244=EDGE_CURVE('',#209,#213,#253,.T.);
#245=EDGE_CURVE('',#212,#215,#254,.T.);
#246=EDGE_CURVE('',#217,#217,#255,.T.);
#247=EDGE_CURVE('',#218,#218,#256,.T.);
#248=EDGE_CURVE('',#219,#219,#257,.T.);
#249=CIRCLE('',#288,2.75);
#250=CIRCLE('',#294,4.07132534818238);
#251=CIRCLE('',#295,0.793750000000001);
#252=CIRCLE('',#296,0.79375);
#253=CIRCLE('',#297,0.79375);
#254=CIRCLE('',#298,0.79375);
#255=CIRCLE('',#304,4.00798339541186);
#256=CIRCLE('',#306,3.92089691193805);
#257=CIRCLE('',#307,2.75);
#258=CURVE_STYLE('',#262,POSITIVE_LENGTH_MEASURE(0.18),#261);
#259=CURVE_STYLE('',#263,POSITIVE_LENGTH_MEASURE(0.18),#283);
#260=CURVE_STYLE('',#264,POSITIVE_LENGTH_MEASURE(0.18),#283);
#261=DRAUGHTING_PRE_DEFINED_COLOUR('blue');
#262=DRAUGHTING_PRE_DEFINED_CURVE_FONT('continuous');
#263=DRAUGHTING_PRE_DEFINED_CURVE_FONT('continuous');
#264=DRAUGHTING_PRE_DEFINED_CURVE_FONT('continuous');
#265=B_SPLINE_CURVE_WITH_KNOTS('CUTTING EDGE LINE',5,(#386,#387,#388,#389,#390,#391,
     #392,#393,#394,#395,#396,#397,#398,#399,#400,#401,#402,#403,#404,#405,#406,
     #407,#408,#409,#410,#411,#412,#413,#414,#415,#416,#417,#418,#419,#420,#421,
     #422,#423,#424,#425,#426,#427,#428,#429,#430,#431,#432,#433,#434,#435,#436,
     #437,#438,#439,#440,#441,#442,#443,#444,#445,#446,#447),.UNSPECIFIED.,.T.,.F.,
     (2,4,1,1,1,1,1,1,1,4,4,1,1,1,1,1,1,1,4,4,1,1,1,1,1,1,1,4,4,1,1,1,1,1,1,1,4,
     4,1,1),(-0.224779769,0.0,0.00315252887499995,0.00630505775000001,0.00945758662499996,
     0.0126101155,0.015762644375,0.01891517325,0.022067702125,0.025220231,0.25,0.253152528875,
     0.25630505775,0.259457586625,0.2626101155,0.265762644375,0.26891517325,0.272067702125,
     0.275220231,0.5,0.503152528875,0.50630505775,0.509457586625,0.5126101155,0.515762644375,
     0.51891517325,0.522067702125,0.525220231,0.75,0.753152528875,0.75630505775,
     0.759457586625,0.7626101155,0.765762644375,0.76891517325,0.772067702125,0.775220231,
     1.0,1.003152528875,1.00630505775),.UNSPECIFIED.);
#266=PRESENTATION_LAYER_ASSIGNMENT('1','Layer 1',(#265,#286,#287,#31));
#269=STYLED_ITEM('',(#275),#265);
#270=STYLED_ITEM('',(#276),#286);
#271=STYLED_ITEM('',(#277),#287);
#272=STYLED_ITEM('',(#278),#31);
#273=PRESENTATION_STYLE_ASSIGNMENT((#279));
#274=PRESENTATION_STYLE_ASSIGNMENT((#280));
#275=PRESENTATION_STYLE_ASSIGNMENT((#258));
#276=PRESENTATION_STYLE_ASSIGNMENT((#259));
#277=PRESENTATION_STYLE_ASSIGNMENT((#260));
#278=PRESENTATION_STYLE_ASSIGNMENT((#26));
#279=POINT_STYLE('',#281,POSITIVE_LENGTH_MEASURE(3.0),#283);
#280=POINT_STYLE('',#282,POSITIVE_LENGTH_MEASURE(3.0),#283);
#281=PRE_DEFINED_POINT_MARKER_SYMBOL('plus');
#282=PRE_DEFINED_POINT_MARKER_SYMBOL('plus');
#283=COLOUR_RGB('Medium Maroon',0.6,0.4,0.4);
#284=COLOUR_RGB('IsoInsertColor',0.8,0.8,0.8);
#285=AXIS2_PLACEMENT_3D('',#383,#311,#312);
#286=AXIS2_PLACEMENT_3D('PCS',#448,#313,#314);
#287=AXIS2_PLACEMENT_3D('MCS',#449,#315,#316);
#288=AXIS2_PLACEMENT_3D('',#450,#317,#318);
#289=AXIS2_PLACEMENT_3D('',#460,#323,#324);
#290=AXIS2_PLACEMENT_3D('',#470,#330,#331);
#291=AXIS2_PLACEMENT_3D('',#478,#336,#337);
#292=AXIS2_PLACEMENT_3D('',#486,#342,#343);
#293=AXIS2_PLACEMENT_3D('',#492,#347,#348);
#294=AXIS2_PLACEMENT_3D('',#493,#349,#350);
#295=AXIS2_PLACEMENT_3D('',#495,#351,#352);
#296=AXIS2_PLACEMENT_3D('',#496,#353,#354);
#297=AXIS2_PLACEMENT_3D('',#497,#355,#356);
#298=AXIS2_PLACEMENT_3D('',#498,#357,#358);
#299=AXIS2_PLACEMENT_3D('',#499,#359,#360);
#300=AXIS2_PLACEMENT_3D('',#500,#361,#362);
#301=AXIS2_PLACEMENT_3D('',#501,#363,#364);
#302=AXIS2_PLACEMENT_3D('',#502,#365,#366);
#303=AXIS2_PLACEMENT_3D('',#503,#367,#368);
#304=AXIS2_PLACEMENT_3D('',#504,#369,#370);
#305=AXIS2_PLACEMENT_3D('',#506,#371,#372);
#306=AXIS2_PLACEMENT_3D('',#507,#373,#374);
#307=AXIS2_PLACEMENT_3D('',#509,#375,#376);
#308=AXIS2_PLACEMENT_3D('',#511,#377,#378);
#309=AXIS2_PLACEMENT_3D('',#512,#379,#380);
#310=AXIS2_PLACEMENT_3D('',#513,#381,#382);
#311=DIRECTION('',(0.0,0.0,1.0));
#312=DIRECTION('',(1.0,0.0,0.0));
#313=DIRECTION('',(0.0,0.0,1.0));
#314=DIRECTION('',(1.0,0.0,0.0));
#315=DIRECTION('',(0.0,0.0,1.0));
#316=DIRECTION('',(1.0,0.0,0.0));
#317=DIRECTION('',(0.0,0.0,1.0));
#318=DIRECTION('',(-0.707106781186547,-0.707106781186547,0.0));
#319=DIRECTION('',(1.0,-4.44089209850063E-16,0.0));
#320=DIRECTION('',(0.0,-1.0,0.0));
#321=DIRECTION('',(-1.0,0.0,0.0));
#322=DIRECTION('',(0.0,1.0,0.0));
#323=DIRECTION('',(0.0,0.0,1.0));
#324=DIRECTION('',(-0.707106781186548,-0.707106781186547,0.0));
#325=DIRECTION('',(-1.0,3.33066907387547E-16,-1.11873922990115E-16));
#326=DIRECTION('',(1.38777878078145E-17,-0.190808995376545,-0.981627183447664));
#327=DIRECTION('',(0.187427559991896,0.187427559991896,0.964231206459824));
#328=DIRECTION('',(-0.187427559991896,0.187427559991896,0.964231206459824));
#329=DIRECTION('',(-1.38777878078145E-17,0.190808995376545,0.981627183447664));
#330=DIRECTION('',(-4.44089209850063E-16,-0.981627183447664,0.190808995376545));
#331=DIRECTION('',(1.0,-4.44089209850063E-16,0.0));
#332=DIRECTION('',(-0.187427559991896,-0.187427559991896,0.964231206459825));
#333=DIRECTION('',(-0.190808995376545,3.88578058618805E-16,0.981627183447664));
#334=DIRECTION('',(-1.11022302462516E-16,-1.0,3.656359982924E-16));
#335=DIRECTION('',(0.190808995376545,-3.88578058618805E-16,-0.981627183447664));
#336=DIRECTION('',(0.981627183447664,0.0,0.190808995376545));
#337=DIRECTION('',(0.0,1.0,0.0));
#338=DIRECTION('',(0.187427559991896,-0.187427559991896,0.964231206459825));
#339=DIRECTION('',(-1.11022302462516E-16,-0.190808995376545,0.981627183447664));
#340=DIRECTION('',(1.0,1.11022302462516E-16,1.22664197727037E-16));
#341=DIRECTION('',(1.11022302462516E-16,0.190808995376545,-0.981627183447664));
#342=DIRECTION('',(0.0,0.981627183447664,0.190808995376545));
#343=DIRECTION('',(-1.0,0.0,0.0));
#344=DIRECTION('',(0.190808995376545,3.7470027081099E-16,0.981627183447664));
#345=DIRECTION('',(-1.11022302462516E-16,1.0,-3.76426273029322E-16));
#346=DIRECTION('',(-0.190808995376545,-3.7470027081099E-16,-0.981627183447664));
#347=DIRECTION('',(-0.981627183447664,0.0,0.190808995376545));
#348=DIRECTION('',(0.0,-1.0,0.0));
#349=DIRECTION('',(0.0,0.0,1.0));
#350=DIRECTION('',(-0.707106781186548,-0.707106781186547,0.0));
#351=DIRECTION('',(-1.04902962956707E-16,3.68253109545942E-16,1.0));
#352=DIRECTION('',(-0.707106781186547,0.707106781186549,-3.34571867426217E-16));
#353=DIRECTION('',(-1.04902962956707E-16,3.68253109545942E-16,1.0));
#354=DIRECTION('',(-0.707106781186547,0.707106781186547,-3.34571867426217E-16));
#355=DIRECTION('',(-1.04902962956707E-16,3.68253109545942E-16,1.0));
#356=DIRECTION('',(-0.707106781186547,0.707106781186548,-3.34571867426217E-16));
#357=DIRECTION('',(-1.04902962956707E-16,3.68253109545942E-16,1.0));
#358=DIRECTION('',(-0.707106781186547,0.707106781186548,-3.34571867426217E-16));
#359=DIRECTION('',(-1.04902962956707E-16,3.68253109545942E-16,1.0));
#360=DIRECTION('',(-0.707106781186547,0.707106781186548,-3.34571867426218E-16));
#361=DIRECTION('',(-1.04902962956707E-16,3.68253109545942E-16,1.0));
#362=DIRECTION('',(-0.707106781186548,0.707106781186548,-5.46617179782557E-16));
#363=DIRECTION('',(-1.04902962956707E-16,3.68253109545942E-16,1.0));
#364=DIRECTION('',(-0.707106781186548,0.707106781186548,-5.68837390342823E-16));
#365=DIRECTION('',(-1.04902962956707E-16,3.68253109545942E-16,1.0));
#366=DIRECTION('',(-0.707106781186548,0.707106781186548,-5.6439334823077E-16));
#367=DIRECTION('',(-1.04902962956707E-16,3.68253109545942E-16,1.0));
#368=DIRECTION('',(-0.707106781186548,0.707106781186548,-5.42173137670503E-16));
#369=DIRECTION('',(0.0,0.0,-1.0));
#370=DIRECTION('',(0.707106781186548,0.707106781186548,0.0));
#371=DIRECTION('',(0.0,0.0,1.0));
#372=DIRECTION('',(-0.707106781186547,-0.707106781186547,0.0));
#373=DIRECTION('',(0.0,0.0,1.0));
#374=DIRECTION('',(0.707106781186547,0.707106781186547,0.0));
#375=DIRECTION('',(0.0,0.0,-1.0));
#376=DIRECTION('',(-0.707106781186548,-0.707106781186548,0.0));
#377=DIRECTION('',(0.0,0.0,1.0));
#378=DIRECTION('',(-0.707106781186548,-0.707106781186547,0.0));
#379=DIRECTION('',(0.0,0.0,1.0));
#380=DIRECTION('',(-0.707106781186547,-0.707106781186547,0.0));
#381=DIRECTION('',(0.0,0.0,-1.0));
#382=DIRECTION('',(0.707106781186548,0.707106781186547,0.0));
#383=CARTESIAN_POINT('',(0.0,0.0,0.0));
#386=CARTESIAN_POINT('',(9.68375,-7.105427357601E-15,0.0));
#387=CARTESIAN_POINT('',(11.9343133003783,-7.105427357601E-15,2.95244829062124E-16));
#388=CARTESIAN_POINT('',(11.990439901135,0.00248046874998931,3.00089131191171E-16));
#389=CARTESIAN_POINT('',(12.0808258150766,0.0141836652852882,3.04647292861139E-16));
#390=CARTESIAN_POINT('',(12.1991390324252,0.0477401224125664,3.02941344345989E-16));
#391=CARTESIAN_POINT('',(12.3447503789823,0.121768687071426,2.87072249021023E-16));
#392=CARTESIAN_POINT('',(12.4735178297016,0.226426072614499,2.56550493551287E-16));
#393=CARTESIAN_POINT('',(12.5782636665322,0.35536873898362,2.13291870471797E-16));
#394=CARTESIAN_POINT('',(12.652239931909,0.500645099579529,1.5993376802829E-16));
#395=CARTESIAN_POINT('',(12.6858231852527,0.61940696910202,1.13493087063026E-16));
#396=CARTESIAN_POINT('',(12.69751953125,0.70956009886497,7.67922328274326E-17));
#397=CARTESIAN_POINT('',(12.7,0.765686699621653,5.34397227319051E-17));
#398=CARTESIAN_POINT('',(12.7,3.01624999999999,2.49800180540659E-17));
#399=CARTESIAN_POINT('',(12.7,5.23874999999999,1.66533453693773E-17));
#400=CARTESIAN_POINT('',(12.7,7.46124999999999,1.66533453693773E-17));
#401=CARTESIAN_POINT('',(12.7,9.68374999999999,2.49800180540659E-17));
#402=CARTESIAN_POINT('',(12.7,11.9343133003783,3.27709274750133E-17));
#403=CARTESIAN_POINT('',(12.69751953125,11.990439901135,1.52425672219166E-17));
#404=CARTESIAN_POINT('',(12.6858163347147,12.0808258150766,-1.23742822899668E-17));
#405=CARTESIAN_POINT('',(12.6522598775874,12.1991390324252,-4.70793258883131E-17));
#406=CARTESIAN_POINT('',(12.5782313129286,12.3447503789823,-8.71988174068688E-17));
#407=CARTESIAN_POINT('',(12.4735739273855,12.4735178297016,-1.19572453993325E-16));
#408=CARTESIAN_POINT('',(12.3446312610164,12.5782636665322,-1.42436058629603E-16));
#409=CARTESIAN_POINT('',(12.1993549004205,12.652239931909,-1.54288568581543E-16));
#410=CARTESIAN_POINT('',(12.080593030898,12.6858231852527,-1.55485472788895E-16));
#411=CARTESIAN_POINT('',(11.990439901135,12.69751953125,-1.52036943143998E-16));
#412=CARTESIAN_POINT('',(11.9343133003783,12.7,-1.48373728305237E-16));
#413=CARTESIAN_POINT('',(9.68375,12.7,-8.76902717106276E-17));
#414=CARTESIAN_POINT('',(7.46125,12.7,-5.84601811404184E-17));
#415=CARTESIAN_POINT('',(5.23875,12.7,-5.84601811404184E-17));
#416=CARTESIAN_POINT('',(3.01625,12.7,-8.76902717106276E-17));
#417=CARTESIAN_POINT('',(0.765686699621654,12.7,-1.54261575025301E-16));
#418=CARTESIAN_POINT('',(0.709560098864972,12.69751953125,-1.69440274782794E-16));
#419=CARTESIAN_POINT('',(0.619174184923351,12.6858163347147,-1.90640883386839E-16));
#420=CARTESIAN_POINT('',(0.500860967574757,12.6522598775874,-2.1071953996619E-16));
#421=CARTESIAN_POINT('',(0.355249621017714,12.5782313129286,-2.21661360218627E-16));
#422=CARTESIAN_POINT('',(0.226482170298366,12.4735739273855,-2.14849111816741E-16));
#423=CARTESIAN_POINT('',(0.121736333467777,12.3446312610164,-1.90876978799681E-16));
#424=CARTESIAN_POINT('',(0.0477600680910051,12.1993549004205,-1.51139871234969E-16));
#425=CARTESIAN_POINT('',(0.0141768147473345,12.080593030898,-1.10882759005944E-16));
#426=CARTESIAN_POINT('',(0.00248046874999552,11.990439901135,-7.63355126622729E-17));
#427=CARTESIAN_POINT('',(-3.5527136788005E-15,11.9343133003783,-5.34397227319051E-17));
#428=CARTESIAN_POINT('',(-5.32907051820075E-15,9.68375,-2.49800180540659E-17));
#429=CARTESIAN_POINT('',(-5.32907051820075E-15,7.46124999999999,-1.66533453693773E-17));
#430=CARTESIAN_POINT('',(-4.44089209850063E-15,5.23874999999999,-1.66533453693773E-17));
#431=CARTESIAN_POINT('',(-3.5527136788005E-15,3.01624999999999,-2.49800180540659E-17));
#432=CARTESIAN_POINT('',(-3.5527136788005E-15,0.765686699621653,-3.27709274750133E-17));
#433=CARTESIAN_POINT('',(0.00248046874999819,0.709560098864971,-1.52425672219165E-17));
#434=CARTESIAN_POINT('',(0.01418366528529,0.619174184923349,1.23742822899668E-17));
#435=CARTESIAN_POINT('',(0.0477401224125771,0.500860967574766,4.70793258883131E-17));
#436=CARTESIAN_POINT('',(0.121768687071421,0.355249621017704,8.71988174068688E-17));
#437=CARTESIAN_POINT('',(0.226426072614514,0.226482170298373,1.19572453993325E-16));
#438=CARTESIAN_POINT('',(0.355368738983619,0.121736333467771,1.42436058629603E-16));
#439=CARTESIAN_POINT('',(0.500645099579534,0.0477600680910051,1.54288568581543E-16));
#440=CARTESIAN_POINT('',(0.619406969102023,0.0141768147473273,1.55485472788895E-16));
#441=CARTESIAN_POINT('',(0.709560098864975,0.00248046874999464,1.52036943143998E-16));
#442=CARTESIAN_POINT('',(0.765686699621655,-6.21724893790088E-15,1.48373728305237E-16));
#443=CARTESIAN_POINT('',(3.01625,-7.105427357601E-15,8.76902717106275E-17));
#444=CARTESIAN_POINT('',(5.23875,-7.105427357601E-15,4.38451358553138E-17));
#445=CARTESIAN_POINT('',(7.46125,-7.105427357601E-15,1.46150452851046E-17));
#446=CARTESIAN_POINT('',(9.68375,-7.105427357601E-15,0.0));
#447=CARTESIAN_POINT('',(11.9343133003783,-7.105427357601E-15,2.95244829062124E-16));
#448=CARTESIAN_POINT('',(0.0,0.0,0.0));
#449=CARTESIAN_POINT('',(6.35,6.35,0.0));
#450=CARTESIAN_POINT('',(6.35,6.35,-4.7625));
#451=CARTESIAN_POINT('',(4.405456351737,4.40545635173699,-4.7625));
#452=CARTESIAN_POINT('',(6.35,11.7742637777316,-4.7625));
#453=CARTESIAN_POINT('',(0.92573622226838,11.7742637777316,-4.7625));
#454=CARTESIAN_POINT('',(11.7742637777316,11.7742637777316,-4.7625));
#455=CARTESIAN_POINT('',(11.7742637777316,6.35,-4.7625));
#456=CARTESIAN_POINT('',(11.7742637777316,0.925736222268375,-4.7625));
#457=CARTESIAN_POINT('',(6.35,0.925736222268376,-4.7625));
#458=CARTESIAN_POINT('',(0.925736222268379,0.925736222268376,-4.7625));
#459=CARTESIAN_POINT('',(0.92573622226838,6.35,-4.7625));
#460=CARTESIAN_POINT('',(6.35,5.81966991411009,-4.7625));
#461=CARTESIAN_POINT('',(6.35,12.7,-5.27182464349352E-15));
#462=CARTESIAN_POINT('',(11.90625,12.7,-4.68895755556531E-15));
#463=CARTESIAN_POINT('',(0.793749999999994,12.7,-5.85469173142172E-15));
#464=CARTESIAN_POINT('',(11.90625,12.7,-4.21748787157985E-15));
#465=CARTESIAN_POINT('',(11.90625,11.90625,-4.08348975017643));
#466=CARTESIAN_POINT('',(12.4769302769473,12.4769302769473,-1.14759423957203));
#467=CARTESIAN_POINT('',(0.22306972305267,12.4769302769473,-1.14759423957203));
#468=CARTESIAN_POINT('',(0.793749999999994,11.90625,-4.08348975017643));
#469=CARTESIAN_POINT('',(0.793749999999994,12.7,-5.34179114143995E-15));
#470=CARTESIAN_POINT('',(6.35,12.7,-5.27182464349352E-15));
#471=CARTESIAN_POINT('',(0.223069723052671,0.22306972305267,-1.14759423957203));
#472=CARTESIAN_POINT('',(0.793749999999997,0.793749999999992,-4.08348975017643));
#473=CARTESIAN_POINT('',(-4.33680868994202E-15,0.793749999999994,-1.06268759649146E-15));
#474=CARTESIAN_POINT('',(-4.33680868994202E-15,0.793749999999994,-1.55344487273723E-15));
#475=CARTESIAN_POINT('',(-5.20417042793042E-15,6.35,-3.59955121265187E-15));
#476=CARTESIAN_POINT('',(-3.46944695195361E-15,11.90625,-5.64565755256652E-15));
#477=CARTESIAN_POINT('',(-3.46944695195361E-15,11.90625,-5.46178657662363E-15));
#478=CARTESIAN_POINT('',(-4.33680868994202E-15,6.35,-3.59955121265187E-15));
#479=CARTESIAN_POINT('',(12.4769302769473,0.223069723052668,-1.14759423957202));
#480=CARTESIAN_POINT('',(11.90625,0.793749999999992,-4.08348975017643));
#481=CARTESIAN_POINT('',(11.90625,-6.07153216591882E-15,2.23365471539292E-16));
#482=CARTESIAN_POINT('',(11.90625,-6.07153216591882E-15,-1.21430643318393E-17));
#483=CARTESIAN_POINT('',(6.35,-6.93889390390723E-15,-5.95010152260046E-16));
#484=CARTESIAN_POINT('',(0.793749999999996,-6.07153216591882E-15,-1.17787724018825E-15));
#485=CARTESIAN_POINT('',(0.793749999999996,-6.93889390390723E-15,-7.68153725117074E-16));
#486=CARTESIAN_POINT('',(6.35,-6.93889390390723E-15,-5.95010152260046E-16));
#487=CARTESIAN_POINT('',(12.7,11.90625,-4.64092587381526E-15));
#488=CARTESIAN_POINT('',(12.7,11.90625,-4.31338992301633E-15));
#489=CARTESIAN_POINT('',(12.7,6.35,-2.26728358310169E-15));
#490=CARTESIAN_POINT('',(12.7,0.793749999999993,-2.21177243187045E-16));
#491=CARTESIAN_POINT('',(12.7,0.793749999999993,-1.6208945845301E-16));
#492=CARTESIAN_POINT('',(12.7,6.35,-2.26728358310169E-15));
#493=CARTESIAN_POINT('',(6.35,6.35,0.0));
#494=CARTESIAN_POINT('',(3.47113823788356,3.47113823788355,0.0));
#495=CARTESIAN_POINT('',(11.90625,11.90625,-4.39665664986322E-15));
#496=CARTESIAN_POINT('',(0.793749999999996,11.90625,-5.56239082571963E-15));
#497=CARTESIAN_POINT('',(0.793749999999997,0.793749999999994,-1.47017814589034E-15));
#498=CARTESIAN_POINT('',(11.90625,0.793749999999993,-3.04443970033931E-16));
#499=CARTESIAN_POINT('',(6.35,6.35,-2.93341739787678E-15));
#500=CARTESIAN_POINT('',(11.90625,11.90625,-4.33680868994202E-15));
#501=CARTESIAN_POINT('',(11.90625,0.793749999999993,0.0));
#502=CARTESIAN_POINT('',(0.793749999999997,0.793749999999994,-8.67361737988404E-16));
#503=CARTESIAN_POINT('',(0.793749999999996,11.90625,-5.20417042793042E-15));
#504=CARTESIAN_POINT('',(6.35,6.35,-0.905832126939239));
#505=CARTESIAN_POINT('',(9.18407223777881,9.18407223777881,-0.905832126939239));
#506=CARTESIAN_POINT('',(6.35,6.35,-1.01999999997449));
#507=CARTESIAN_POINT('',(6.35,6.35,-1.09698650981164));
#508=CARTESIAN_POINT('',(9.12249279476479,9.12249279476478,-1.09698650981164));
#509=CARTESIAN_POINT('',(6.35,6.35,-3.92473750965557));
#510=CARTESIAN_POINT('',(4.405456351737,4.40545635173699,-3.92473750965557));
#511=CARTESIAN_POINT('',(6.35,6.35,-3.92473750965556));
#512=CARTESIAN_POINT('',(6.35,6.35,-33.3676978394524));
#513=CARTESIAN_POINT('',(6.35,6.35,-0.884905184823342));
#514=MECHANICAL_DESIGN_GEOMETRIC_PRESENTATION_REPRESENTATION('',(#269,#270,#271,
     #272),#515);
#515=(GEOMETRIC_REPRESENTATION_CONTEXT(3)GLOBAL_UNCERTAINTY_ASSIGNED_CONTEXT((#516))
     GLOBAL_UNIT_ASSIGNED_CONTEXT((#522,#518,#517))REPRESENTATION_CONTEXT('SPMT120408',
     'TOP_LEVEL_ASSEMBLY_PART'));
#516=UNCERTAINTY_MEASURE_WITH_UNIT(LENGTH_MEASURE(2.0E-5),#522,'DISTANCE_ACCURACY_VALUE',
     'Maximum Tolerance applied to model');
#517=(NAMED_UNIT(*)SI_UNIT($,.STERADIAN.)SOLID_ANGLE_UNIT());
#518=(CONVERSION_BASED_UNIT('DEGREE',#520)NAMED_UNIT(#519)PLANE_ANGLE_UNIT());
#519=DIMENSIONAL_EXPONENTS(0.0,0.0,0.0,0.0,0.0,0.0,0.0);
#520=PLANE_ANGLE_MEASURE_WITH_UNIT(PLANE_ANGLE_MEASURE(0.0174532925),#521);
#521=(NAMED_UNIT(*)PLANE_ANGLE_UNIT()SI_UNIT($,.RADIAN.));
#522=(LENGTH_UNIT()NAMED_UNIT(*)SI_UNIT(.MILLI.,.METRE.));
#523=CONSTRUCTIVE_GEOMETRY_REPRESENTATION('supplemental geometry',(#286,#287),#515);
#524=CONSTRUCTIVE_GEOMETRY_REPRESENTATION_RELATIONSHIP('supplemental geometry','contains PCS and MCS coordinate systems',
     #24,#523);
ENDSEC;
END-ISO-10303-21;
