ISO-10303-21;
HEADER;
FILE_DESCRIPTION(
/* description */ (''),
/* implementation_level */ '2;1');
FILE_NAME(
/* name */ 'CNMA160612.stp',
/* time_stamp */ '2017-03-21T10:53:56',
/* author */ ('Sandvik Coromant R&D'),
/* organization */ ('Sandvik Machining Solutions'),
/* preprocessor_version */ 'ST-DEVELOPER v15',
/* originating_system */ 'SIEMENS PLM Software NX v8.5.3.3(64 bits)',
/* authorization */ '');
FILE_SCHEMA(('AUTOMOTIVE_DESIGN'));
ENDSEC;
DATA;
#10=GEOMETRICALLY_BOUNDED_WIREFRAME_SHAPE_REPRESENTATION('IsoTurningInsert-None',
     (#25),#459);
#11=SHAPE_REPRESENTATION_RELATIONSHIP('None','relationship between IsoTurningInsert-None and IsoTurningInsert-None',
     #24,#13);
#12=SHAPE_REPRESENTATION_RELATIONSHIP('None','relationship between IsoTurningInsert-None and IsoTurningInsert-None',
     #24,#10);
#13=ADVANCED_BREP_SHAPE_REPRESENTATION('IsoTurningInsert-None',(#31),#459);
#14=SHAPE_DEFINITION_REPRESENTATION(#15,#24);
#15=PRODUCT_DEFINITION_SHAPE('','',#16);
#16=PRODUCT_DEFINITION(' ','',#18,#17);
#17=PRODUCT_DEFINITION_CONTEXT('part definition',#23,'design');
#18=PRODUCT_DEFINITION_FORMATION_WITH_SPECIFIED_SOURCE(' ',' ',#20,.NOT_KNOWN.);
#19=PRODUCT_RELATED_PRODUCT_CATEGORY('part','',(#20));
#20=PRODUCT('IsoTurningInsert','IsoTurningInsert',' ',(#21));
#21=PRODUCT_CONTEXT(' ',#23,'mechanical');
#22=APPLICATION_PROTOCOL_DEFINITION('international standard','automotive_design',
     2010,#23);
#23=APPLICATION_CONTEXT('core data for automotive mechanical design processes');
#24=SHAPE_REPRESENTATION('IsoTurningInsert-None',(#248),#459);
#25=GEOMETRIC_CURVE_SET('geometric curve set',(#228));
#26=SURFACE_STYLE_USAGE(.BOTH.,#27);
#27=SURFACE_SIDE_STYLE('',(#28));
#28=SURFACE_STYLE_FILL_AREA(#29);
#29=FILL_AREA_STYLE('',(#30));
#30=FILL_AREA_STYLE_COLOUR('',#247);
#31=MANIFOLD_SOLID_BREP('CUT',#32);
#32=CLOSED_SHELL('',(#46,#47,#48,#49,#50,#51,#52,#53,#54,#55,#56));
#33=CYLINDRICAL_SURFACE('',#267,1.190625);
#34=CYLINDRICAL_SURFACE('',#268,1.190625);
#35=CYLINDRICAL_SURFACE('',#269,1.190625);
#36=CYLINDRICAL_SURFACE('',#270,1.190625);
#37=CYLINDRICAL_SURFACE('',#271,3.175);
#38=FACE_OUTER_BOUND('',#103,.T.);
#39=FACE_OUTER_BOUND('',#104,.T.);
#40=FACE_OUTER_BOUND('',#105,.T.);
#41=FACE_OUTER_BOUND('',#106,.T.);
#42=FACE_OUTER_BOUND('',#109,.T.);
#43=FACE_OUTER_BOUND('',#110,.T.);
#44=FACE_OUTER_BOUND('',#111,.T.);
#45=FACE_OUTER_BOUND('',#112,.T.);
#46=ADVANCED_FACE('',(#95,#96),#57,.F.);
#47=ADVANCED_FACE('',(#38),#58,.T.);
#48=ADVANCED_FACE('',(#39),#59,.T.);
#49=ADVANCED_FACE('',(#40),#60,.T.);
#50=ADVANCED_FACE('',(#41),#61,.T.);
#51=ADVANCED_FACE('',(#97,#98),#62,.T.);
#52=ADVANCED_FACE('',(#42),#33,.T.);
#53=ADVANCED_FACE('',(#43),#34,.T.);
#54=ADVANCED_FACE('',(#44),#35,.T.);
#55=ADVANCED_FACE('',(#45),#36,.T.);
#56=ADVANCED_FACE('',(#99,#100),#37,.F.);
#57=PLANE('',#256);
#58=PLANE('',#257);
#59=PLANE('',#258);
#60=PLANE('',#259);
#61=PLANE('',#260);
#62=PLANE('',#266);
#63=LINE('',#405,#79);
#64=LINE('',#410,#80);
#65=LINE('',#414,#81);
#66=LINE('',#418,#82);
#67=LINE('',#422,#83);
#68=LINE('',#425,#84);
#69=LINE('',#426,#85);
#70=LINE('',#428,#86);
#71=LINE('',#430,#87);
#72=LINE('',#432,#88);
#73=LINE('',#434,#89);
#74=LINE('',#436,#90);
#75=LINE('',#438,#91);
#76=LINE('',#440,#92);
#77=LINE('',#442,#93);
#78=LINE('',#444,#94);
#79=VECTOR('',#280,1.0);
#80=VECTOR('',#283,1.0);
#81=VECTOR('',#286,1.0);
#82=VECTOR('',#289,1.0);
#83=VECTOR('',#294,1.0);
#84=VECTOR('',#295,1.0);
#85=VECTOR('',#296,1.0);
#86=VECTOR('',#299,1.0);
#87=VECTOR('',#300,1.0);
#88=VECTOR('',#301,1.0);
#89=VECTOR('',#304,1.0);
#90=VECTOR('',#305,1.0);
#91=VECTOR('',#306,1.0);
#92=VECTOR('',#309,1.0);
#93=VECTOR('',#310,1.0);
#94=VECTOR('',#311,1.0);
#95=FACE_BOUND('',#101,.T.);
#96=FACE_BOUND('',#102,.T.);
#97=FACE_BOUND('',#107,.T.);
#98=FACE_BOUND('',#108,.T.);
#99=FACE_BOUND('',#113,.T.);
#100=FACE_BOUND('',#114,.T.);
#101=EDGE_LOOP('',(#115));
#102=EDGE_LOOP('',(#116,#117,#118,#119,#120,#121,#122,#123));
#103=EDGE_LOOP('',(#124,#125,#126,#127));
#104=EDGE_LOOP('',(#128,#129,#130,#131));
#105=EDGE_LOOP('',(#132,#133,#134,#135));
#106=EDGE_LOOP('',(#136,#137,#138,#139));
#107=EDGE_LOOP('',(#140));
#108=EDGE_LOOP('',(#141,#142,#143,#144,#145,#146,#147,#148));
#109=EDGE_LOOP('',(#149,#150,#151,#152));
#110=EDGE_LOOP('',(#153,#154,#155,#156));
#111=EDGE_LOOP('',(#157,#158,#159,#160));
#112=EDGE_LOOP('',(#161,#162,#163,#164));
#113=EDGE_LOOP('',(#165));
#114=EDGE_LOOP('',(#166));
#115=ORIENTED_EDGE('',*,*,#185,.T.);
#116=ORIENTED_EDGE('',*,*,#186,.T.);
#117=ORIENTED_EDGE('',*,*,#187,.T.);
#118=ORIENTED_EDGE('',*,*,#188,.T.);
#119=ORIENTED_EDGE('',*,*,#189,.T.);
#120=ORIENTED_EDGE('',*,*,#190,.T.);
#121=ORIENTED_EDGE('',*,*,#191,.T.);
#122=ORIENTED_EDGE('',*,*,#192,.T.);
#123=ORIENTED_EDGE('',*,*,#193,.T.);
#124=ORIENTED_EDGE('',*,*,#194,.F.);
#125=ORIENTED_EDGE('',*,*,#195,.T.);
#126=ORIENTED_EDGE('',*,*,#186,.F.);
#127=ORIENTED_EDGE('',*,*,#196,.T.);
#128=ORIENTED_EDGE('',*,*,#192,.F.);
#129=ORIENTED_EDGE('',*,*,#197,.T.);
#130=ORIENTED_EDGE('',*,*,#198,.F.);
#131=ORIENTED_EDGE('',*,*,#199,.T.);
#132=ORIENTED_EDGE('',*,*,#190,.F.);
#133=ORIENTED_EDGE('',*,*,#200,.T.);
#134=ORIENTED_EDGE('',*,*,#201,.F.);
#135=ORIENTED_EDGE('',*,*,#202,.T.);
#136=ORIENTED_EDGE('',*,*,#188,.F.);
#137=ORIENTED_EDGE('',*,*,#203,.T.);
#138=ORIENTED_EDGE('',*,*,#204,.F.);
#139=ORIENTED_EDGE('',*,*,#205,.T.);
#140=ORIENTED_EDGE('',*,*,#206,.F.);
#141=ORIENTED_EDGE('',*,*,#204,.T.);
#142=ORIENTED_EDGE('',*,*,#207,.T.);
#143=ORIENTED_EDGE('',*,*,#194,.T.);
#144=ORIENTED_EDGE('',*,*,#208,.T.);
#145=ORIENTED_EDGE('',*,*,#198,.T.);
#146=ORIENTED_EDGE('',*,*,#209,.T.);
#147=ORIENTED_EDGE('',*,*,#201,.T.);
#148=ORIENTED_EDGE('',*,*,#210,.T.);
#149=ORIENTED_EDGE('',*,*,#187,.F.);
#150=ORIENTED_EDGE('',*,*,#195,.F.);
#151=ORIENTED_EDGE('',*,*,#207,.F.);
#152=ORIENTED_EDGE('',*,*,#203,.F.);
#153=ORIENTED_EDGE('',*,*,#189,.F.);
#154=ORIENTED_EDGE('',*,*,#205,.F.);
#155=ORIENTED_EDGE('',*,*,#210,.F.);
#156=ORIENTED_EDGE('',*,*,#200,.F.);
#157=ORIENTED_EDGE('',*,*,#191,.F.);
#158=ORIENTED_EDGE('',*,*,#202,.F.);
#159=ORIENTED_EDGE('',*,*,#209,.F.);
#160=ORIENTED_EDGE('',*,*,#197,.F.);
#161=ORIENTED_EDGE('',*,*,#193,.F.);
#162=ORIENTED_EDGE('',*,*,#199,.F.);
#163=ORIENTED_EDGE('',*,*,#208,.F.);
#164=ORIENTED_EDGE('',*,*,#196,.F.);
#165=ORIENTED_EDGE('',*,*,#185,.F.);
#166=ORIENTED_EDGE('',*,*,#206,.T.);
#167=VERTEX_POINT('',#404);
#168=VERTEX_POINT('',#406);
#169=VERTEX_POINT('',#407);
#170=VERTEX_POINT('',#409);
#171=VERTEX_POINT('',#411);
#172=VERTEX_POINT('',#413);
#173=VERTEX_POINT('',#415);
#174=VERTEX_POINT('',#417);
#175=VERTEX_POINT('',#419);
#176=VERTEX_POINT('',#423);
#177=VERTEX_POINT('',#424);
#178=VERTEX_POINT('',#429);
#179=VERTEX_POINT('',#431);
#180=VERTEX_POINT('',#435);
#181=VERTEX_POINT('',#437);
#182=VERTEX_POINT('',#441);
#183=VERTEX_POINT('',#443);
#184=VERTEX_POINT('',#447);
#185=EDGE_CURVE('',#167,#167,#211,.T.);
#186=EDGE_CURVE('',#168,#169,#63,.T.);
#187=EDGE_CURVE('',#169,#170,#212,.T.);
#188=EDGE_CURVE('',#170,#171,#64,.T.);
#189=EDGE_CURVE('',#171,#172,#213,.T.);
#190=EDGE_CURVE('',#172,#173,#65,.T.);
#191=EDGE_CURVE('',#173,#174,#214,.T.);
#192=EDGE_CURVE('',#174,#175,#66,.T.);
#193=EDGE_CURVE('',#175,#168,#215,.T.);
#194=EDGE_CURVE('',#176,#177,#67,.T.);
#195=EDGE_CURVE('',#176,#169,#68,.T.);
#196=EDGE_CURVE('',#168,#177,#69,.T.);
#197=EDGE_CURVE('',#174,#178,#70,.T.);
#198=EDGE_CURVE('',#179,#178,#71,.T.);
#199=EDGE_CURVE('',#179,#175,#72,.T.);
#200=EDGE_CURVE('',#172,#180,#73,.T.);
#201=EDGE_CURVE('',#181,#180,#74,.T.);
#202=EDGE_CURVE('',#181,#173,#75,.T.);
#203=EDGE_CURVE('',#170,#182,#76,.T.);
#204=EDGE_CURVE('',#183,#182,#77,.T.);
#205=EDGE_CURVE('',#183,#171,#78,.T.);
#206=EDGE_CURVE('',#184,#184,#216,.T.);
#207=EDGE_CURVE('',#182,#176,#217,.T.);
#208=EDGE_CURVE('',#177,#179,#218,.T.);
#209=EDGE_CURVE('',#178,#181,#219,.T.);
#210=EDGE_CURVE('',#180,#183,#220,.T.);
#211=CIRCLE('',#251,3.175);
#212=CIRCLE('',#252,1.190625);
#213=CIRCLE('',#253,1.190625);
#214=CIRCLE('',#254,1.190625);
#215=CIRCLE('',#255,1.190625);
#216=CIRCLE('',#261,3.175);
#217=CIRCLE('',#262,1.190625);
#218=CIRCLE('',#263,1.190625);
#219=CIRCLE('',#264,1.190625);
#220=CIRCLE('',#265,1.190625);
#221=CURVE_STYLE('',#225,POSITIVE_LENGTH_MEASURE(0.18),#224);
#222=CURVE_STYLE('',#226,POSITIVE_LENGTH_MEASURE(0.18),#246);
#223=CURVE_STYLE('',#227,POSITIVE_LENGTH_MEASURE(0.18),#246);
#224=DRAUGHTING_PRE_DEFINED_COLOUR('blue');
#225=DRAUGHTING_PRE_DEFINED_CURVE_FONT('continuous');
#226=DRAUGHTING_PRE_DEFINED_CURVE_FONT('continuous');
#227=DRAUGHTING_PRE_DEFINED_CURVE_FONT('continuous');
#228=B_SPLINE_CURVE_WITH_KNOTS('CUTTING EDGE LINE',5,(#339,#340,#341,#342,#343,#344,
     #345,#346,#347,#348,#349,#350,#351,#352,#353,#354,#355,#356,#357,#358,#359,
     #360,#361,#362,#363,#364,#365,#366,#367,#368,#369,#370,#371,#372,#373,#374,
     #375,#376,#377,#378,#379,#380,#381,#382,#383,#384,#385,#386,#387,#388,#389,
     #390,#391,#392,#393,#394,#395,#396,#397,#398,#399,#400),.UNSPECIFIED.,.T.,.F.,
     (2,4,1,1,1,1,1,1,1,4,4,1,1,1,1,1,1,1,4,4,1,1,1,1,1,1,1,4,4,1,1,1,1,1,1,1,4,
     4,1,1),(-0.2199747577,0.0,0.00333613803749999,0.00667227607499998,0.0100084141125,
     0.01334455215,0.0166806901875,0.0200168282250001,0.0233529662625001,0.0266891043,
     0.2466638619,0.25083403445,0.255004207,0.25917437955,0.2633445521,0.26751472465,
     0.2716848972,0.27585506975,0.2800252423,0.5,0.5033361380375,0.506672276075,
     0.5100084141125,0.51334455215,0.5166806901875,0.520016828225,0.5233529662625,
     0.5266891043,0.7466638619,0.75083403445,0.755004207,0.75917437955,0.7633445521,
     0.76751472465,0.7716848972,0.77585506975,0.7800252423,1.0,1.0033361380375,1.006672276075),
     .UNSPECIFIED.);
#229=PRESENTATION_LAYER_ASSIGNMENT('1','Layer 1',(#228,#249,#250,#31));
#232=STYLED_ITEM('',(#238),#228);
#233=STYLED_ITEM('',(#239),#249);
#234=STYLED_ITEM('',(#240),#250);
#235=STYLED_ITEM('',(#241),#31);
#236=PRESENTATION_STYLE_ASSIGNMENT((#242));
#237=PRESENTATION_STYLE_ASSIGNMENT((#243));
#238=PRESENTATION_STYLE_ASSIGNMENT((#221));
#239=PRESENTATION_STYLE_ASSIGNMENT((#222));
#240=PRESENTATION_STYLE_ASSIGNMENT((#223));
#241=PRESENTATION_STYLE_ASSIGNMENT((#26));
#242=POINT_STYLE('',#244,POSITIVE_LENGTH_MEASURE(3.0),#246);
#243=POINT_STYLE('',#245,POSITIVE_LENGTH_MEASURE(3.0),#246);
#244=PRE_DEFINED_POINT_MARKER_SYMBOL('plus');
#245=PRE_DEFINED_POINT_MARKER_SYMBOL('plus');
#246=COLOUR_RGB('Medium Maroon',0.6,0.4,0.4);
#247=COLOUR_RGB('IsoInsertColor',0.8,0.8,0.8);
#248=AXIS2_PLACEMENT_3D('',#336,#272,#273);
#249=AXIS2_PLACEMENT_3D('PCS',#401,#274,#275);
#250=AXIS2_PLACEMENT_3D('MCS',#402,#276,#277);
#251=AXIS2_PLACEMENT_3D('',#403,#278,#279);
#252=AXIS2_PLACEMENT_3D('',#408,#281,#282);
#253=AXIS2_PLACEMENT_3D('',#412,#284,#285);
#254=AXIS2_PLACEMENT_3D('',#416,#287,#288);
#255=AXIS2_PLACEMENT_3D('',#420,#290,#291);
#256=AXIS2_PLACEMENT_3D('',#421,#292,#293);
#257=AXIS2_PLACEMENT_3D('',#427,#297,#298);
#258=AXIS2_PLACEMENT_3D('',#433,#302,#303);
#259=AXIS2_PLACEMENT_3D('',#439,#307,#308);
#260=AXIS2_PLACEMENT_3D('',#445,#312,#313);
#261=AXIS2_PLACEMENT_3D('',#446,#314,#315);
#262=AXIS2_PLACEMENT_3D('',#448,#316,#317);
#263=AXIS2_PLACEMENT_3D('',#449,#318,#319);
#264=AXIS2_PLACEMENT_3D('',#450,#320,#321);
#265=AXIS2_PLACEMENT_3D('',#451,#322,#323);
#266=AXIS2_PLACEMENT_3D('',#452,#324,#325);
#267=AXIS2_PLACEMENT_3D('',#453,#326,#327);
#268=AXIS2_PLACEMENT_3D('',#454,#328,#329);
#269=AXIS2_PLACEMENT_3D('',#455,#330,#331);
#270=AXIS2_PLACEMENT_3D('',#456,#332,#333);
#271=AXIS2_PLACEMENT_3D('',#457,#334,#335);
#272=DIRECTION('',(0.0,0.0,1.0));
#273=DIRECTION('',(1.0,0.0,0.0));
#274=DIRECTION('',(0.0,0.0,1.0));
#275=DIRECTION('',(1.0,0.0,0.0));
#276=DIRECTION('',(0.0,0.0,1.0));
#277=DIRECTION('',(1.0,0.0,0.0));
#278=DIRECTION('',(0.0,0.0,1.0));
#279=DIRECTION('',(-0.766044443118978,-0.642787609686539,0.0));
#280=DIRECTION('',(1.0,1.22124532708767E-15,0.0));
#281=DIRECTION('',(0.0,0.0,-1.0));
#282=DIRECTION('',(-0.766044443118979,-0.642787609686539,0.0));
#283=DIRECTION('',(-0.173648177666928,-0.984807753012208,0.0));
#284=DIRECTION('',(0.0,0.0,-1.0));
#285=DIRECTION('',(-0.766044443118978,-0.642787609686539,0.0));
#286=DIRECTION('',(-1.0,1.0547118733939E-15,0.0));
#287=DIRECTION('',(0.0,0.0,-1.0));
#288=DIRECTION('',(-0.766044443118978,-0.642787609686539,0.0));
#289=DIRECTION('',(0.173648177666931,0.984807753012208,0.0));
#290=DIRECTION('',(0.0,0.0,-1.0));
#291=DIRECTION('',(-0.766044443118978,-0.642787609686539,0.0));
#292=DIRECTION('',(0.0,0.0,1.0));
#293=DIRECTION('',(-0.766044443118978,-0.642787609686539,0.0));
#294=DIRECTION('',(-1.0,-1.22124532708767E-15,-8.26474009869752E-17));
#295=DIRECTION('',(8.26474009869755E-17,-3.09175454316192E-16,-1.0));
#296=DIRECTION('',(-8.26474009869755E-17,3.09175454316192E-16,1.0));
#297=DIRECTION('',(-1.22124532708767E-15,1.0,-3.09175454316192E-16));
#298=DIRECTION('',(-1.0,-1.22124532708767E-15,0.0));
#299=DIRECTION('',(-8.26474009869755E-17,3.09175454316192E-16,1.0));
#300=DIRECTION('',(-0.173648177666931,-0.984807753012208,2.90126813881361E-16));
#301=DIRECTION('',(8.26474009869755E-17,-3.09175454316192E-16,-1.0));
#302=DIRECTION('',(-0.984807753012208,0.173648177666931,-1.35079555479634E-16));
#303=DIRECTION('',(-0.173648177666931,-0.984807753012208,0.0));
#304=DIRECTION('',(-8.26474009869755E-17,3.09175454316192E-16,1.0));
#305=DIRECTION('',(1.0,-1.0547118733939E-15,8.26474009869758E-17));
#306=DIRECTION('',(8.26474009869755E-17,-3.09175454316192E-16,-1.0));
#307=DIRECTION('',(-1.0547118733939E-15,-1.0,3.09175454316191E-16));
#308=DIRECTION('',(1.0,-1.0547118733939E-15,0.0));
#309=DIRECTION('',(-8.26474009869755E-17,3.09175454316192E-16,1.0));
#310=DIRECTION('',(0.173648177666928,0.984807753012208,-2.90126813881361E-16));
#311=DIRECTION('',(8.26474009869755E-17,-3.09175454316192E-16,-1.0));
#312=DIRECTION('',(0.984807753012208,-0.173648177666928,1.35079555479634E-16));
#313=DIRECTION('',(0.173648177666928,0.984807753012208,0.0));
#314=DIRECTION('',(0.0,0.0,1.0));
#315=DIRECTION('',(-0.766044443118978,-0.642787609686539,0.0));
#316=DIRECTION('',(-8.26474009869755E-17,3.09175454316192E-16,1.0));
#317=DIRECTION('',(-0.642787609686539,0.766044443118978,-2.89966864054927E-16));
#318=DIRECTION('',(-8.26474009869755E-17,3.09175454316192E-16,1.0));
#319=DIRECTION('',(-0.64278760968654,0.766044443118978,-2.89966864054927E-16));
#320=DIRECTION('',(-8.26474009869755E-17,3.09175454316192E-16,1.0));
#321=DIRECTION('',(-0.642787609686539,0.766044443118978,-2.89966864054927E-16));
#322=DIRECTION('',(-8.26474009869755E-17,3.09175454316192E-16,1.0));
#323=DIRECTION('',(-0.642787609686539,0.766044443118978,-2.89966864054927E-16));
#324=DIRECTION('',(-8.26474009869755E-17,3.09175454316192E-16,1.0));
#325=DIRECTION('',(-0.642787609686539,0.766044443118978,-2.89966864054927E-16));
#326=DIRECTION('',(-8.26474009869755E-17,3.09175454316192E-16,1.0));
#327=DIRECTION('',(-0.642787609686539,0.766044443118978,-2.89966864054927E-16));
#328=DIRECTION('',(-8.26474009869755E-17,3.09175454316192E-16,1.0));
#329=DIRECTION('',(-0.642787609686539,0.766044443118978,-2.89966864054927E-16));
#330=DIRECTION('',(-8.26474009869755E-17,3.09175454316192E-16,1.0));
#331=DIRECTION('',(-0.642787609686539,0.766044443118978,-2.89966864054927E-16));
#332=DIRECTION('',(-8.26474009869755E-17,3.09175454316192E-16,1.0));
#333=DIRECTION('',(-0.64278760968654,0.766044443118978,-2.89966864054927E-16));
#334=DIRECTION('',(0.0,0.0,1.0));
#335=DIRECTION('',(-0.766044443118978,-0.642787609686539,0.0));
#336=CARTESIAN_POINT('',(0.0,0.0,0.0));
#339=CARTESIAN_POINT('',(12.380461896489,8.70414851306123E-14,-1.97215226305253E-32));
#340=CARTESIAN_POINT('',(15.1591104152048,8.61533067109121E-14,3.71274606599851E-16));
#341=CARTESIAN_POINT('',(15.2356423149831,0.00307460980779339,3.76397879862883E-16));
#342=CARTESIAN_POINT('',(15.3570999567045,0.0174432807981741,3.80819210890674E-16));
#343=CARTESIAN_POINT('',(15.5166085166459,0.0580398070387647,3.78132674889203E-16));
#344=CARTESIAN_POINT('',(15.7132710031293,0.146355343475984,3.5986307499879E-16));
#345=CARTESIAN_POINT('',(15.8924954203055,0.27100720216216,3.25948107597043E-16));
#346=CARTESIAN_POINT('',(16.0463755306032,0.425863229622808,2.78131450099801E-16));
#347=CARTESIAN_POINT('',(16.1674994379912,0.604202139076304,2.18427932846254E-16));
#348=CARTESIAN_POINT('',(16.2351775825344,0.75423789277686,1.65371190142531E-16));
#349=CARTESIAN_POINT('',(16.2704188592749,0.8713552264739,1.22501695942202E-16));
#350=CARTESIAN_POINT('',(16.2867363837809,0.946190534338181,9.45965818700961E-17));
#351=CARTESIAN_POINT('',(16.7692436354328,3.68262513846538,4.82487287228817E-17));
#352=CARTESIAN_POINT('',(17.2451060746198,6.38137513846536,3.21658191485878E-17));
#353=CARTESIAN_POINT('',(17.7209685138067,9.08012513846535,3.21658191485877E-17));
#354=CARTESIAN_POINT('',(18.1968309529937,11.7788751384653,4.82487287228815E-17));
#355=CARTESIAN_POINT('',(18.6806123713079,14.5225359008194,6.97681993108053E-17));
#356=CARTESIAN_POINT('',(18.6921498745701,14.6131157117721,4.85044493057553E-17));
#357=CARTESIAN_POINT('',(18.6975255508637,14.7634281670748,1.38664928622757E-17));
#358=CARTESIAN_POINT('',(18.6716712104767,14.9664580452035,-3.13610059801916E-17));
#359=CARTESIAN_POINT('',(18.5792096407546,15.2252244937314,-8.62035936652896E-17));
#360=CARTESIAN_POINT('',(18.4247060786179,15.4601640751182,-1.32675495659002E-16));
#361=CARTESIAN_POINT('',(18.2201650193869,15.6531172111481,-1.67187608715438E-16));
#362=CARTESIAN_POINT('',(17.9813855977431,15.7891084040943,-1.87057811122441E-16));
#363=CARTESIAN_POINT('',(17.7859297587637,15.8498257273054,-1.91747748247845E-16));
#364=CARTESIAN_POINT('',(17.6369674110138,15.8706332035577,-1.8949636570092E-16));
#365=CARTESIAN_POINT('',(17.5457602445049,15.875,-1.86202441236846E-16));
#366=CARTESIAN_POINT('',(14.7597740924239,15.875,-1.10433607588564E-16));
#367=CARTESIAN_POINT('',(12.0193915235972,15.875,-7.3622405059043E-17));
#368=CARTESIAN_POINT('',(9.27900895477059,15.875,-7.3622405059043E-17));
#369=CARTESIAN_POINT('',(6.53862638594396,15.875,-1.10433607588564E-16));
#370=CARTESIAN_POINT('',(3.75997786722817,15.875,-1.9426834823781E-16));
#371=CARTESIAN_POINT('',(3.68344596744987,15.8719253901923,-2.13391251974523E-16));
#372=CARTESIAN_POINT('',(3.56198832572847,15.8575567192019,-2.39722019077488E-16));
#373=CARTESIAN_POINT('',(3.40247976578713,15.8169601929613,-2.65103051308117E-16));
#374=CARTESIAN_POINT('',(3.20581727930368,15.7286446565241,-2.80195762640594E-16));
#375=CARTESIAN_POINT('',(3.0265928621275,15.6039927978379,-2.75250104284806E-16));
#376=CARTESIAN_POINT('',(2.87271275182983,15.4491367703773,-2.50752385524738E-16));
#377=CARTESIAN_POINT('',(2.75158884444178,15.2707978609238,-2.0757027922667E-16));
#378=CARTESIAN_POINT('',(2.68391069989861,15.1207621072232,-1.62108031449247E-16));
#379=CARTESIAN_POINT('',(2.64866942315812,15.0036447735262,-1.21926520902679E-16));
#380=CARTESIAN_POINT('',(2.63235189865211,14.9288094656619,-9.45965818700964E-17));
#381=CARTESIAN_POINT('',(2.1498446470002,12.1923748615347,-4.82487287228819E-17));
#382=CARTESIAN_POINT('',(1.67398220781323,9.49362486153472,-3.21658191485879E-17));
#383=CARTESIAN_POINT('',(1.19811976862627,6.79487486153474,-3.21658191485878E-17));
#384=CARTESIAN_POINT('',(0.7222573294393,4.09612486153476,-4.82487287228816E-17));
#385=CARTESIAN_POINT('',(0.23847591112512,1.35246409918069,-6.97681993108054E-17));
#386=CARTESIAN_POINT('',(0.226938407862891,1.26188428822804,-4.85044493057554E-17));
#387=CARTESIAN_POINT('',(0.221562731569279,1.11157183292527,-1.38664928622758E-17));
#388=CARTESIAN_POINT('',(0.247417071956237,0.908541954796639,3.13610059801914E-17));
#389=CARTESIAN_POINT('',(0.339878641678364,0.649775506268691,8.62035936652894E-17));
#390=CARTESIAN_POINT('',(0.494382203815054,0.414835924881917,1.32675495659002E-16));
#391=CARTESIAN_POINT('',(0.698923263046073,0.221882788852014,1.67187608715437E-16));
#392=CARTESIAN_POINT('',(0.937702684689876,0.0858915959058244,1.8705781112244E-16));
#393=CARTESIAN_POINT('',(1.13315852366932,0.0251742726947271,1.91747748247845E-16));
#394=CARTESIAN_POINT('',(1.28212087141921,0.00436679644239391,1.8949636570092E-16));
#395=CARTESIAN_POINT('',(1.37332803792806,9.76996261670138E-14,1.86202441236846E-16));
#396=CARTESIAN_POINT('',(4.15931419000913,9.41469124882133E-14,1.10433607588564E-16));
#397=CARTESIAN_POINT('',(6.89969675883577,9.2370555648813E-14,5.52168037942822E-17));
#398=CARTESIAN_POINT('',(9.64007932766241,8.97060203897126E-14,1.84056012647607E-17));
#399=CARTESIAN_POINT('',(12.380461896489,8.70414851306123E-14,-1.97215226305253E-32));
#400=CARTESIAN_POINT('',(15.1591104152048,8.61533067109121E-14,3.71274606599851E-16));
#401=CARTESIAN_POINT('',(0.0,0.0,0.0));
#402=CARTESIAN_POINT('',(9.45954414121654,7.9375,0.0));
#403=CARTESIAN_POINT('',(9.45954414121654,7.9375,-6.35));
#404=CARTESIAN_POINT('',(7.02735303431379,5.89664933924524,-6.35));
#405=CARTESIAN_POINT('',(9.45954414121649,15.875,-6.35));
#406=CARTESIAN_POINT('',(3.79824381711733,15.875,-6.35));
#407=CARTESIAN_POINT('',(17.5001566612505,15.875,-6.35));
#408=CARTESIAN_POINT('',(17.5001566612505,14.684375,-6.35));
#409=CARTESIAN_POINT('',(18.6726933921806,14.4776251384653,-6.35));
#410=CARTESIAN_POINT('',(17.2764556807509,6.5591675897688,-6.35));
#411=CARTESIAN_POINT('',(16.2933811962458,0.983875138465395,-6.35));
#412=CARTESIAN_POINT('',(15.1208444653157,1.19062500000008,-6.35));
#413=CARTESIAN_POINT('',(15.1208444653157,8.15320033709099E-14,-6.35));
#414=CARTESIAN_POINT('',(9.45954414121649,8.67361737988404E-14,-6.35));
#415=CARTESIAN_POINT('',(1.41893162118249,9.71445146547012E-14,-6.35));
#416=CARTESIAN_POINT('',(1.41893162118249,1.1906250000001,-6.35));
#417=CARTESIAN_POINT('',(0.246394890252336,1.39737486153478,-6.35));
#418=CARTESIAN_POINT('',(1.64263260168215,9.31583241023129,-6.35));
#419=CARTESIAN_POINT('',(2.62570708618717,14.8911248615347,-6.35));
#420=CARTESIAN_POINT('',(3.79824381711733,14.684375,-6.35));
#421=CARTESIAN_POINT('',(9.41332282867938,7.40918798019793,-6.35));
#422=CARTESIAN_POINT('',(9.45954414121653,15.875,-5.38749756651153E-15));
#423=CARTESIAN_POINT('',(17.5001566612505,15.875,-4.72296183938739E-15));
#424=CARTESIAN_POINT('',(3.79824381711733,15.875,-5.85538932450505E-15));
#425=CARTESIAN_POINT('',(17.5001566612505,15.875,-4.33680868994202E-15));
#426=CARTESIAN_POINT('',(3.79824381711733,15.875,-5.20417042793042E-15));
#427=CARTESIAN_POINT('',(9.45954414121649,15.875,-5.38749756651153E-15));
#428=CARTESIAN_POINT('',(0.246394890252336,1.39737486153478,-1.73472347597681E-15));
#429=CARTESIAN_POINT('',(0.246394890252336,1.39737486153478,-1.67281407740432E-15));
#430=CARTESIAN_POINT('',(1.64263260168214,9.31583241023126,-4.00561136949636E-15));
#431=CARTESIAN_POINT('',(2.62570708618717,14.8911248615347,-5.64810639495277E-15));
#432=CARTESIAN_POINT('',(2.62570708618717,14.8911248615347,-5.20417042793042E-15));
#433=CARTESIAN_POINT('',(1.64263260168214,9.31583241023129,-4.00561136949637E-15));
#434=CARTESIAN_POINT('',(15.1208444653157,8.32667268468867E-14,4.81482486096809E-31));
#435=CARTESIAN_POINT('',(15.1208444653157,8.32667268468867E-14,-1.14454712484993E-17));
#436=CARTESIAN_POINT('',(9.45954414121653,8.84708972748172E-14,-4.79337229242018E-16));
#437=CARTESIAN_POINT('',(1.41893162118249,9.8879238130678E-14,-1.14387295636617E-15));
#438=CARTESIAN_POINT('',(1.41893162118249,9.8879238130678E-14,-8.67361737988403E-16));
#439=CARTESIAN_POINT('',(9.45954414121649,9.0205620750794E-14,-4.79337229242022E-16));
#440=CARTESIAN_POINT('',(18.6726933921806,14.4776251384653,-3.46944695195361E-15));
#441=CARTESIAN_POINT('',(18.6726933921806,14.4776251384653,-4.19402071834924E-15));
#442=CARTESIAN_POINT('',(17.2764556807508,6.55916758976877,-1.86122342625718E-15));
#443=CARTESIAN_POINT('',(16.2933811962458,0.983875138465396,-2.18728400800776E-16));
#444=CARTESIAN_POINT('',(16.2933811962458,0.983875138465396,0.0));
#445=CARTESIAN_POINT('',(17.2764556807509,6.5591675897688,-1.86122342625719E-15));
#446=CARTESIAN_POINT('',(9.45954414121654,7.9375,0.0));
#447=CARTESIAN_POINT('',(7.02735303431379,5.89664933924524,0.0));
#448=CARTESIAN_POINT('',(17.5001566612505,14.684375,-4.35484981409217E-15));
#449=CARTESIAN_POINT('',(3.79824381711733,14.684375,-5.48727729920983E-15));
#450=CARTESIAN_POINT('',(1.41893162118249,1.1906250000001,-1.51198498166139E-15));
#451=CARTESIAN_POINT('',(15.1208444653157,1.19062500000008,-3.79557496543715E-16));
#452=CARTESIAN_POINT('',(9.45954414121654,7.9375,-2.93341739787676E-15));
#453=CARTESIAN_POINT('',(17.5001566612505,14.684375,-4.33680868994202E-15));
#454=CARTESIAN_POINT('',(15.1208444653157,1.19062500000008,0.0));
#455=CARTESIAN_POINT('',(1.41893162118249,1.1906250000001,-8.67361737988404E-16));
#456=CARTESIAN_POINT('',(3.79824381711733,14.684375,-5.20417042793042E-15));
#457=CARTESIAN_POINT('',(9.45954414121654,7.9375,-33.3676978394524));
#458=MECHANICAL_DESIGN_GEOMETRIC_PRESENTATION_REPRESENTATION('',(#232,#233,#234,
     #235),#459);
#459=(GEOMETRIC_REPRESENTATION_CONTEXT(3)GLOBAL_UNCERTAINTY_ASSIGNED_CONTEXT((#460))
     GLOBAL_UNIT_ASSIGNED_CONTEXT((#466,#462,#461))REPRESENTATION_CONTEXT('CNMA160612',
     'TOP_LEVEL_ASSEMBLY_PART'));
#460=UNCERTAINTY_MEASURE_WITH_UNIT(LENGTH_MEASURE(2.0E-5),#466,'DISTANCE_ACCURACY_VALUE',
     'Maximum Tolerance applied to model');
#461=(NAMED_UNIT(*)SI_UNIT($,.STERADIAN.)SOLID_ANGLE_UNIT());
#462=(CONVERSION_BASED_UNIT('DEGREE',#464)NAMED_UNIT(#463)PLANE_ANGLE_UNIT());
#463=DIMENSIONAL_EXPONENTS(0.0,0.0,0.0,0.0,0.0,0.0,0.0);
#464=PLANE_ANGLE_MEASURE_WITH_UNIT(PLANE_ANGLE_MEASURE(0.0174532925),#465);
#465=(NAMED_UNIT(*)PLANE_ANGLE_UNIT()SI_UNIT($,.RADIAN.));
#466=(LENGTH_UNIT()NAMED_UNIT(*)SI_UNIT(.MILLI.,.METRE.));
#467=CONSTRUCTIVE_GEOMETRY_REPRESENTATION('supplemental geometry',(#249,#250),#459);
#468=CONSTRUCTIVE_GEOMETRY_REPRESENTATION_RELATIONSHIP('supplemental geometry','contains PCS and MCS coordinate systems',
     #24,#467);
ENDSEC;
END-ISO-10303-21;
