ISO-10303-21;
HEADER;
FILE_DESCRIPTION(
/* description */ (''),
/* implementation_level */ '2;1');
FILE_NAME(
/* name */ 'RNGN190700.stp',
/* time_stamp */ '2017-03-21T10:54:15',
/* author */ ('Sandvik Coromant R&D'),
/* organization */ ('Sandvik Machining Solutions'),
/* preprocessor_version */ 'ST-DEVELOPER v15',
/* originating_system */ 'SIEMENS PLM Software NX v8.5.3.3(64 bits)',
/* authorization */ '');
FILE_SCHEMA(('AUTOMOTIVE_DESIGN'));
ENDSEC;
DATA;
#10=GEOMETRICALLY_BOUNDED_WIREFRAME_SHAPE_REPRESENTATION('IsoTurningInsert-None',
     (#25),#190);
#11=SHAPE_REPRESENTATION_RELATIONSHIP('None','relationship between IsoTurningInsert-None and IsoTurningInsert-None',
     #24,#13);
#12=SHAPE_REPRESENTATION_RELATIONSHIP('None','relationship between IsoTurningInsert-None and IsoTurningInsert-None',
     #24,#10);
#13=ADVANCED_BREP_SHAPE_REPRESENTATION('IsoTurningInsert-None',(#31),#190);
#14=SHAPE_DEFINITION_REPRESENTATION(#15,#24);
#15=PRODUCT_DEFINITION_SHAPE('','',#16);
#16=PRODUCT_DEFINITION(' ','',#18,#17);
#17=PRODUCT_DEFINITION_CONTEXT('part definition',#23,'design');
#18=PRODUCT_DEFINITION_FORMATION_WITH_SPECIFIED_SOURCE(' ',' ',#20,.NOT_KNOWN.);
#19=PRODUCT_RELATED_PRODUCT_CATEGORY('part','',(#20));
#20=PRODUCT('IsoTurningInsert','IsoTurningInsert',' ',(#21));
#21=PRODUCT_CONTEXT(' ',#23,'mechanical');
#22=APPLICATION_PROTOCOL_DEFINITION('international standard','automotive_design',
     2010,#23);
#23=APPLICATION_CONTEXT('core data for automotive mechanical design processes');
#24=SHAPE_REPRESENTATION('IsoTurningInsert-None',(#84),#190);
#25=GEOMETRIC_CURVE_SET('geometric curve set',(#64));
#26=SURFACE_STYLE_USAGE(.BOTH.,#27);
#27=SURFACE_SIDE_STYLE('',(#28));
#28=SURFACE_STYLE_FILL_AREA(#29);
#29=FILL_AREA_STYLE('',(#30));
#30=FILL_AREA_STYLE_COLOUR('',#83);
#31=MANIFOLD_SOLID_BREP('CUT',#32);
#32=CLOSED_SHELL('',(#36,#37,#38));
#33=CYLINDRICAL_SURFACE('',#91,9.52499999999998);
#34=FACE_BOUND('',#45,.T.);
#35=FACE_BOUND('',#46,.T.);
#36=ADVANCED_FACE('',(#41),#39,.F.);
#37=ADVANCED_FACE('',(#42),#40,.F.);
#38=ADVANCED_FACE('',(#34,#35),#33,.T.);
#39=PLANE('',#88);
#40=PLANE('',#90);
#41=FACE_OUTER_BOUND('',#43,.T.);
#42=FACE_OUTER_BOUND('',#44,.T.);
#43=EDGE_LOOP('',(#47));
#44=EDGE_LOOP('',(#48));
#45=EDGE_LOOP('',(#49));
#46=EDGE_LOOP('',(#50));
#47=ORIENTED_EDGE('',*,*,#53,.F.);
#48=ORIENTED_EDGE('',*,*,#54,.F.);
#49=ORIENTED_EDGE('',*,*,#53,.T.);
#50=ORIENTED_EDGE('',*,*,#54,.T.);
#51=VERTEX_POINT('',#183);
#52=VERTEX_POINT('',#186);
#53=EDGE_CURVE('',#51,#51,#55,.T.);
#54=EDGE_CURVE('',#52,#52,#56,.T.);
#55=CIRCLE('',#87,9.52499999999998);
#56=CIRCLE('',#89,9.52499999999998);
#57=CURVE_STYLE('',#61,POSITIVE_LENGTH_MEASURE(0.18),#60);
#58=CURVE_STYLE('',#62,POSITIVE_LENGTH_MEASURE(0.18),#82);
#59=CURVE_STYLE('',#63,POSITIVE_LENGTH_MEASURE(0.18),#82);
#60=DRAUGHTING_PRE_DEFINED_COLOUR('blue');
#61=DRAUGHTING_PRE_DEFINED_CURVE_FONT('continuous');
#62=DRAUGHTING_PRE_DEFINED_CURVE_FONT('continuous');
#63=DRAUGHTING_PRE_DEFINED_CURVE_FONT('continuous');
#64=B_SPLINE_CURVE_WITH_KNOTS('CUTTING EDGE LINE',5,(#111,#112,#113,#114,#115,#116,
     #117,#118,#119,#120,#121,#122,#123,#124,#125,#126,#127,#128,#129,#130,#131,
     #132,#133,#134,#135,#136,#137,#138,#139,#140,#141,#142,#143,#144,#145,#146,
     #147,#148,#149,#150,#151,#152,#153,#154,#155,#156,#157,#158,#159,#160,#161,
     #162,#163,#164,#165,#166,#167,#168,#169,#170,#171,#172,#173,#174,#175,#176,
     #177,#178,#179),.UNSPECIFIED.,.T.,.F.,(1,1,1,1,1,1,1,1,1,1,1,1,1,1,1,1,1,1,
     1,1,1,1,1,1,1,1,1,1,1,1,1,1,1,1,1,1,1,1,1,1,1,1,1,1,1,1,1,1,1,1,1,1,1,1,1,1,
     1,1,1,1,1,1,1,1,1,1,1,1,1,1,1,1,1,1,1),(-0.078125,-0.0625,-0.046875,-0.03125,
     -0.015625,0.0,0.015625,0.03125,0.046875,0.0625,0.078125,0.09375,0.109375,0.125,
     0.140625,0.15625,0.171875,0.1875,0.203125,0.21875,0.234375,0.25,0.265625,0.28125,
     0.296875,0.3125,0.328125,0.34375,0.359375,0.375,0.390625,0.40625,0.421875,0.4375,
     0.453125,0.46875,0.484375,0.5,0.515625,0.53125,0.546875,0.5625,0.578125,0.59375,
     0.609375,0.625,0.640625,0.65625,0.671875,0.6875,0.703125,0.71875,0.734375,0.75,
     0.765625,0.78125,0.796875,0.8125,0.828125,0.84375,0.859375,0.875,0.890625,0.90625,
     0.921875,0.9375,0.953125,0.96875,0.984375,1.0,1.015625,1.03125,1.046875,1.0625,
     1.078125),.UNSPECIFIED.);
#65=PRESENTATION_LAYER_ASSIGNMENT('1','Layer 1',(#64,#85,#86,#31));
#68=STYLED_ITEM('',(#74),#64);
#69=STYLED_ITEM('',(#75),#85);
#70=STYLED_ITEM('',(#76),#86);
#71=STYLED_ITEM('',(#77),#31);
#72=PRESENTATION_STYLE_ASSIGNMENT((#78));
#73=PRESENTATION_STYLE_ASSIGNMENT((#79));
#74=PRESENTATION_STYLE_ASSIGNMENT((#57));
#75=PRESENTATION_STYLE_ASSIGNMENT((#58));
#76=PRESENTATION_STYLE_ASSIGNMENT((#59));
#77=PRESENTATION_STYLE_ASSIGNMENT((#26));
#78=POINT_STYLE('',#80,POSITIVE_LENGTH_MEASURE(3.0),#82);
#79=POINT_STYLE('',#81,POSITIVE_LENGTH_MEASURE(3.0),#82);
#80=PRE_DEFINED_POINT_MARKER_SYMBOL('plus');
#81=PRE_DEFINED_POINT_MARKER_SYMBOL('plus');
#82=COLOUR_RGB('Medium Maroon',0.6,0.4,0.4);
#83=COLOUR_RGB('IsoInsertColor',0.8,0.8,0.8);
#84=AXIS2_PLACEMENT_3D('',#108,#92,#93);
#85=AXIS2_PLACEMENT_3D('PCS',#180,#94,#95);
#86=AXIS2_PLACEMENT_3D('MCS',#181,#96,#97);
#87=AXIS2_PLACEMENT_3D('',#182,#98,#99);
#88=AXIS2_PLACEMENT_3D('',#184,#100,#101);
#89=AXIS2_PLACEMENT_3D('',#185,#102,#103);
#90=AXIS2_PLACEMENT_3D('',#187,#104,#105);
#91=AXIS2_PLACEMENT_3D('',#188,#106,#107);
#92=DIRECTION('',(0.0,0.0,1.0));
#93=DIRECTION('',(1.0,0.0,0.0));
#94=DIRECTION('',(0.0,0.0,1.0));
#95=DIRECTION('',(1.0,0.0,0.0));
#96=DIRECTION('',(0.0,0.0,1.0));
#97=DIRECTION('',(1.0,0.0,0.0));
#98=DIRECTION('',(0.0,0.0,1.0));
#99=DIRECTION('',(-0.707106781186547,-0.707106781186548,0.0));
#100=DIRECTION('',(0.0,0.0,1.0));
#101=DIRECTION('',(-0.707106781186547,-0.707106781186548,0.0));
#102=DIRECTION('',(0.0,0.0,-1.0));
#103=DIRECTION('',(-0.882015164970351,-0.471221019015838,0.0));
#104=DIRECTION('',(0.0,0.0,-1.0));
#105=DIRECTION('',(0.707106781186547,0.707106781186548,0.0));
#106=DIRECTION('',(0.0,0.0,1.0));
#107=DIRECTION('',(-0.707106781186547,-0.707106781186548,0.0));
#108=CARTESIAN_POINT('',(0.0,0.0,0.0));
#111=CARTESIAN_POINT('',(2.06048446720009,3.57394236923234,0.0));
#112=CARTESIAN_POINT('',(1.53886356646971,4.29751043834189,0.0));
#113=CARTESIAN_POINT('',(1.10777388011526,5.02805479200898,0.0));
#114=CARTESIAN_POINT('',(0.740153627648519,5.79250800853361,0.0));
#115=CARTESIAN_POINT('',(0.428658837007514,6.6283370043093,0.0));
#116=CARTESIAN_POINT('',(0.192460777456882,7.51077776071321,0.0));
#117=CARTESIAN_POINT('',(0.0386269476753256,8.43672371060606,0.0));
#118=CARTESIAN_POINT('',(-0.023505332977102,9.3924779535226,0.0));
#119=CARTESIAN_POINT('',(0.0119150216639117,10.3650764112437,0.0));
#120=CARTESIAN_POINT('',(0.148396457332467,11.3392257377345,0.0));
#121=CARTESIAN_POINT('',(0.38615201650547,12.2992276601922,0.0));
#122=CARTESIAN_POINT('',(0.72218465419299,13.2293961736622,0.0));
#123=CARTESIAN_POINT('',(1.15026578483216,14.1150262534198,0.0));
#124=CARTESIAN_POINT('',(1.6614916238258,14.9431871695706,0.0));
#125=CARTESIAN_POINT('',(2.24444418801461,15.7031167064542,0.0));
#126=CARTESIAN_POINT('',(2.88705302224569,16.3872911254133,0.0));
#127=CARTESIAN_POINT('',(3.57394236931317,16.9895155328495,0.0));
#128=CARTESIAN_POINT('',(4.2975104386038,17.5111364336877,0.0));
#129=CARTESIAN_POINT('',(5.02805479195032,17.9422261198454,0.0));
#130=CARTESIAN_POINT('',(5.79250800855865,18.3098463723675,0.0));
#131=CARTESIAN_POINT('',(6.62833700430083,18.6213411629871,0.0));
#132=CARTESIAN_POINT('',(7.51077776071596,18.8575392225448,0.0));
#133=CARTESIAN_POINT('',(8.43672371060512,19.0113730523241,0.0));
#134=CARTESIAN_POINT('',(9.39247795352295,19.0735053329772,0.0));
#135=CARTESIAN_POINT('',(10.3650764112435,19.0380849783361,0.0));
#136=CARTESIAN_POINT('',(11.3392257377347,18.9016035426673,0.0));
#137=CARTESIAN_POINT('',(12.2992276601919,18.663847983495,0.0));
#138=CARTESIAN_POINT('',(13.2293961736629,18.3278153458059,0.0));
#139=CARTESIAN_POINT('',(14.1150262534181,17.8997342151706,0.0));
#140=CARTESIAN_POINT('',(14.9431871695753,17.3885083761666,0.0));
#141=CARTESIAN_POINT('',(15.7031167064406,16.8055558120074,0.0));
#142=CARTESIAN_POINT('',(16.3872911254536,16.1629469776891,0.0));
#143=CARTESIAN_POINT('',(16.9895155327778,15.4760576308012,0.0));
#144=CARTESIAN_POINT('',(17.511136433338,14.7524895619828,0.0));
#145=CARTESIAN_POINT('',(17.9422261199935,14.0219452078041,0.0));
#146=CARTESIAN_POINT('',(18.3098463723156,13.2574919915261,0.0));
#147=CARTESIAN_POINT('',(18.6213411630043,12.4216629956709,0.0));
#148=CARTESIAN_POINT('',(18.8575392225392,11.5392222392931,0.0));
#149=CARTESIAN_POINT('',(19.0113730523259,10.6132762893919,0.0));
#150=CARTESIAN_POINT('',(19.0735053329766,9.65752204647806,0.0));
#151=CARTESIAN_POINT('',(19.0380849783363,8.68492358875605,0.0));
#152=CARTESIAN_POINT('',(18.9016035426673,7.7107742622655,0.0));
#153=CARTESIAN_POINT('',(18.6638479834948,6.75077233980789,0.0));
#154=CARTESIAN_POINT('',(18.3278153458063,5.8206038263374,0.0));
#155=CARTESIAN_POINT('',(17.8997342151696,4.93497374658123,0.0));
#156=CARTESIAN_POINT('',(17.3885083761695,4.10681283042648,0.0));
#157=CARTESIAN_POINT('',(16.8055558119991,3.34688329355418,0.0));
#158=CARTESIAN_POINT('',(16.1629469777098,2.66270887455957,0.0));
#159=CARTESIAN_POINT('',(15.4760576309174,2.06048446729099,0.0));
#160=CARTESIAN_POINT('',(14.7524895615479,1.53886356640281,0.0));
#161=CARTESIAN_POINT('',(14.0219452080211,1.10777388013451,0.0));
#162=CARTESIAN_POINT('',(13.257491991442,0.740153627635202,0.0));
#163=CARTESIAN_POINT('',(12.4216629956991,0.428658837012131,0.0));
#164=CARTESIAN_POINT('',(11.539222239284,0.192460777455361,0.0));
#165=CARTESIAN_POINT('',(10.6132762893949,0.0386269476758638,0.0));
#166=CARTESIAN_POINT('',(9.65752204647705,-0.0235053329773152,0.0));
#167=CARTESIAN_POINT('',(8.68492358875636,0.0119150216640325,0.0));
#168=CARTESIAN_POINT('',(7.7107742622655,0.148396457332328,0.0));
#169=CARTESIAN_POINT('',(6.75077233980762,0.386152016505735,0.0));
#170=CARTESIAN_POINT('',(5.82060382633814,0.722184654192409,0.0));
#171=CARTESIAN_POINT('',(4.93497374657932,1.15026578483362,0.0));
#172=CARTESIAN_POINT('',(4.10681283043173,1.66149162382183,0.0));
#173=CARTESIAN_POINT('',(3.34688329353886,2.24444418802607,0.0));
#174=CARTESIAN_POINT('',(2.66270887460516,2.88705302221504,0.0));
#175=CARTESIAN_POINT('',(2.06048446720009,3.57394236923234,0.0));
#176=CARTESIAN_POINT('',(1.53886356646971,4.29751043834189,0.0));
#177=CARTESIAN_POINT('',(1.10777388011526,5.02805479200898,0.0));
#178=CARTESIAN_POINT('',(0.740153627648519,5.79250800853361,0.0));
#179=CARTESIAN_POINT('',(0.428658837007514,6.6283370043093,0.0));
#180=CARTESIAN_POINT('',(0.0,0.0,0.0));
#181=CARTESIAN_POINT('',(9.525,9.525,0.0));
#182=CARTESIAN_POINT('',(9.52499999999998,9.52499999999999,-7.9375));
#183=CARTESIAN_POINT('',(2.78980790919813,2.78980790919813,-7.9375));
#184=CARTESIAN_POINT('',(9.525,8.99466991411009,-7.9375));
#185=CARTESIAN_POINT('',(9.52499999999998,9.52499999999999,4.26685108753951E-15));
#186=CARTESIAN_POINT('',(1.12380555365741,5.03661979387414,4.26685108753951E-15));
#187=CARTESIAN_POINT('',(9.52499999999998,9.52499999999999,4.26685108753951E-15));
#188=CARTESIAN_POINT('',(9.52499999999998,9.52499999999999,3.46944695195361E-15));
#189=MECHANICAL_DESIGN_GEOMETRIC_PRESENTATION_REPRESENTATION('',(#68,#69,#70,#71),
     #190);
#190=(GEOMETRIC_REPRESENTATION_CONTEXT(3)GLOBAL_UNCERTAINTY_ASSIGNED_CONTEXT((#191))
     GLOBAL_UNIT_ASSIGNED_CONTEXT((#197,#193,#192))REPRESENTATION_CONTEXT('RNGN190700',
     'TOP_LEVEL_ASSEMBLY_PART'));
#191=UNCERTAINTY_MEASURE_WITH_UNIT(LENGTH_MEASURE(2.0E-5),#197,'DISTANCE_ACCURACY_VALUE',
     'Maximum Tolerance applied to model');
#192=(NAMED_UNIT(*)SI_UNIT($,.STERADIAN.)SOLID_ANGLE_UNIT());
#193=(CONVERSION_BASED_UNIT('DEGREE',#195)NAMED_UNIT(#194)PLANE_ANGLE_UNIT());
#194=DIMENSIONAL_EXPONENTS(0.0,0.0,0.0,0.0,0.0,0.0,0.0);
#195=PLANE_ANGLE_MEASURE_WITH_UNIT(PLANE_ANGLE_MEASURE(0.0174532925),#196);
#196=(NAMED_UNIT(*)PLANE_ANGLE_UNIT()SI_UNIT($,.RADIAN.));
#197=(LENGTH_UNIT()NAMED_UNIT(*)SI_UNIT(.MILLI.,.METRE.));
#198=CONSTRUCTIVE_GEOMETRY_REPRESENTATION('supplemental geometry',(#85,#86),#190);
#199=CONSTRUCTIVE_GEOMETRY_REPRESENTATION_RELATIONSHIP('supplemental geometry','contains PCS and MCS coordinate systems',
     #24,#198);
ENDSEC;
END-ISO-10303-21;
