ISO-10303-21;
HEADER;
FILE_DESCRIPTION(
/* description */ (''),
/* implementation_level */ '2;1');
FILE_NAME(
/* name */ 'RCMT10T3M0.stp',
/* time_stamp */ '2017-03-21T10:54:12',
/* author */ ('Sandvik Coromant R&D'),
/* organization */ ('Sandvik Machining Solutions'),
/* preprocessor_version */ 'ST-DEVELOPER v15',
/* originating_system */ 'SIEMENS PLM Software NX v8.5.3.3(64 bits)',
/* authorization */ '');
FILE_SCHEMA(('AUTOMOTIVE_DESIGN'));
ENDSEC;
DATA;
#10=GEOMETRICALLY_BOUNDED_WIREFRAME_SHAPE_REPRESENTATION('IsoTurningInsert-None',
     (#25),#284);
#11=SHAPE_REPRESENTATION_RELATIONSHIP('None','relationship between IsoTurningInsert-None and IsoTurningInsert-None',
     #24,#13);
#12=SHAPE_REPRESENTATION_RELATIONSHIP('None','relationship between IsoTurningInsert-None and IsoTurningInsert-None',
     #24,#10);
#13=ADVANCED_BREP_SHAPE_REPRESENTATION('IsoTurningInsert-None',(#31),#284);
#14=SHAPE_DEFINITION_REPRESENTATION(#15,#24);
#15=PRODUCT_DEFINITION_SHAPE('','',#16);
#16=PRODUCT_DEFINITION(' ','',#18,#17);
#17=PRODUCT_DEFINITION_CONTEXT('part definition',#23,'design');
#18=PRODUCT_DEFINITION_FORMATION_WITH_SPECIFIED_SOURCE(' ',' ',#20,.NOT_KNOWN.);
#19=PRODUCT_RELATED_PRODUCT_CATEGORY('part','',(#20));
#20=PRODUCT('IsoTurningInsert','IsoTurningInsert',' ',(#21));
#21=PRODUCT_CONTEXT(' ',#23,'mechanical');
#22=APPLICATION_PROTOCOL_DEFINITION('international standard','automotive_design',
     2010,#23);
#23=APPLICATION_CONTEXT('core data for automotive mechanical design processes');
#24=SHAPE_REPRESENTATION('IsoTurningInsert-None',(#137),#284);
#25=GEOMETRIC_CURVE_SET('geometric curve set',(#117));
#26=SURFACE_STYLE_USAGE(.BOTH.,#27);
#27=SURFACE_SIDE_STYLE('',(#28));
#28=SURFACE_STYLE_FILL_AREA(#29);
#29=FILL_AREA_STYLE('',(#30));
#30=FILL_AREA_STYLE_COLOUR('',#136);
#31=MANIFOLD_SOLID_BREP('CUT',#32);
#32=CLOSED_SHELL('',(#38,#39,#40,#41,#42,#43,#44));
#33=CYLINDRICAL_SURFACE('',#152,2.2);
#34=TOROIDAL_SURFACE('',#151,6.19999999999999,4.0);
#35=TOROIDAL_SURFACE('',#153,2.70391407811456,0.3);
#36=CONICAL_SURFACE('',#146,4.99999999999999,6.99999999999999);
#37=CONICAL_SURFACE('',#148,2.99999999999613,2.30000000021626);
#38=ADVANCED_FACE('',(#47,#48),#45,.F.);
#39=ADVANCED_FACE('',(#49,#50),#46,.F.);
#40=ADVANCED_FACE('',(#51,#52),#36,.T.);
#41=ADVANCED_FACE('',(#53,#54),#37,.F.);
#42=ADVANCED_FACE('',(#55,#56),#34,.T.);
#43=ADVANCED_FACE('',(#57,#58),#33,.F.);
#44=ADVANCED_FACE('',(#59,#60),#35,.F.);
#45=PLANE('',#142);
#46=PLANE('',#145);
#47=FACE_BOUND('',#61,.T.);
#48=FACE_BOUND('',#62,.T.);
#49=FACE_BOUND('',#63,.T.);
#50=FACE_BOUND('',#64,.T.);
#51=FACE_BOUND('',#65,.T.);
#52=FACE_BOUND('',#66,.T.);
#53=FACE_BOUND('',#67,.T.);
#54=FACE_BOUND('',#68,.T.);
#55=FACE_BOUND('',#69,.T.);
#56=FACE_BOUND('',#70,.T.);
#57=FACE_BOUND('',#71,.T.);
#58=FACE_BOUND('',#72,.T.);
#59=FACE_BOUND('',#73,.T.);
#60=FACE_BOUND('',#74,.T.);
#61=EDGE_LOOP('',(#75));
#62=EDGE_LOOP('',(#76));
#63=EDGE_LOOP('',(#77));
#64=EDGE_LOOP('',(#78));
#65=EDGE_LOOP('',(#79));
#66=EDGE_LOOP('',(#80));
#67=EDGE_LOOP('',(#81));
#68=EDGE_LOOP('',(#82));
#69=EDGE_LOOP('',(#83));
#70=EDGE_LOOP('',(#84));
#71=EDGE_LOOP('',(#85));
#72=EDGE_LOOP('',(#86));
#73=EDGE_LOOP('',(#87));
#74=EDGE_LOOP('',(#88));
#75=ORIENTED_EDGE('',*,*,#96,.F.);
#76=ORIENTED_EDGE('',*,*,#97,.F.);
#77=ORIENTED_EDGE('',*,*,#98,.T.);
#78=ORIENTED_EDGE('',*,*,#99,.F.);
#79=ORIENTED_EDGE('',*,*,#99,.T.);
#80=ORIENTED_EDGE('',*,*,#96,.T.);
#81=ORIENTED_EDGE('',*,*,#100,.T.);
#82=ORIENTED_EDGE('',*,*,#97,.T.);
#83=ORIENTED_EDGE('',*,*,#101,.T.);
#84=ORIENTED_EDGE('',*,*,#102,.T.);
#85=ORIENTED_EDGE('',*,*,#102,.F.);
#86=ORIENTED_EDGE('',*,*,#98,.F.);
#87=ORIENTED_EDGE('',*,*,#101,.F.);
#88=ORIENTED_EDGE('',*,*,#100,.F.);
#89=VERTEX_POINT('',#263);
#90=VERTEX_POINT('',#265);
#91=VERTEX_POINT('',#268);
#92=VERTEX_POINT('',#270);
#93=VERTEX_POINT('',#274);
#94=VERTEX_POINT('',#277);
#95=VERTEX_POINT('',#279);
#96=EDGE_CURVE('',#89,#89,#103,.T.);
#97=EDGE_CURVE('',#90,#90,#104,.T.);
#98=EDGE_CURVE('',#91,#91,#105,.T.);
#99=EDGE_CURVE('',#92,#92,#106,.T.);
#100=EDGE_CURVE('',#93,#93,#107,.T.);
#101=EDGE_CURVE('',#94,#94,#108,.T.);
#102=EDGE_CURVE('',#95,#95,#109,.T.);
#103=CIRCLE('',#140,4.99999999999999);
#104=CIRCLE('',#141,3.03895922449818);
#105=CIRCLE('',#143,2.2);
#106=CIRCLE('',#144,4.51269877391659);
#107=CIRCLE('',#147,3.00367239664884);
#108=CIRCLE('',#149,2.94782704940889);
#109=CIRCLE('',#150,2.2);
#110=CURVE_STYLE('',#114,POSITIVE_LENGTH_MEASURE(0.18),#113);
#111=CURVE_STYLE('',#115,POSITIVE_LENGTH_MEASURE(0.18),#135);
#112=CURVE_STYLE('',#116,POSITIVE_LENGTH_MEASURE(0.18),#135);
#113=DRAUGHTING_PRE_DEFINED_COLOUR('blue');
#114=DRAUGHTING_PRE_DEFINED_CURVE_FONT('continuous');
#115=DRAUGHTING_PRE_DEFINED_CURVE_FONT('continuous');
#116=DRAUGHTING_PRE_DEFINED_CURVE_FONT('continuous');
#117=B_SPLINE_CURVE_WITH_KNOTS('CUTTING EDGE LINE',5,(#191,#192,#193,#194,#195,#196,
     #197,#198,#199,#200,#201,#202,#203,#204,#205,#206,#207,#208,#209,#210,#211,
     #212,#213,#214,#215,#216,#217,#218,#219,#220,#221,#222,#223,#224,#225,#226,
     #227,#228,#229,#230,#231,#232,#233,#234,#235,#236,#237,#238,#239,#240,#241,
     #242,#243,#244,#245,#246,#247,#248,#249,#250,#251,#252,#253,#254,#255,#256,
     #257,#258,#259),.UNSPECIFIED.,.T.,.F.,(1,1,1,1,1,1,1,1,1,1,1,1,1,1,1,1,1,1,
     1,1,1,1,1,1,1,1,1,1,1,1,1,1,1,1,1,1,1,1,1,1,1,1,1,1,1,1,1,1,1,1,1,1,1,1,1,1,
     1,1,1,1,1,1,1,1,1,1,1,1,1,1,1,1,1,1,1),(-0.078125,-0.0625,-0.046875,-0.03125,
     -0.015625,0.0,0.015625,0.03125,0.046875,0.0625,0.078125,0.09375,0.109375,0.125,
     0.140625,0.15625,0.171875,0.1875,0.203125,0.21875,0.234375,0.25,0.265625,0.28125,
     0.296875,0.3125,0.328125,0.34375,0.359375,0.375,0.390625,0.40625,0.421875,0.4375,
     0.453125,0.46875,0.484375,0.5,0.515625,0.53125,0.546875,0.5625,0.578125,0.59375,
     0.609375,0.625,0.640625,0.65625,0.671875,0.6875,0.703125,0.71875,0.734375,0.75,
     0.765625,0.78125,0.796875,0.8125,0.828125,0.84375,0.859375,0.875,0.890625,0.90625,
     0.921875,0.9375,0.953125,0.96875,0.984375,1.0,1.015625,1.03125,1.046875,1.0625,
     1.078125),.UNSPECIFIED.);
#118=PRESENTATION_LAYER_ASSIGNMENT('1','Layer 1',(#117,#138,#139,#31));
#121=STYLED_ITEM('',(#127),#117);
#122=STYLED_ITEM('',(#128),#138);
#123=STYLED_ITEM('',(#129),#139);
#124=STYLED_ITEM('',(#130),#31);
#125=PRESENTATION_STYLE_ASSIGNMENT((#131));
#126=PRESENTATION_STYLE_ASSIGNMENT((#132));
#127=PRESENTATION_STYLE_ASSIGNMENT((#110));
#128=PRESENTATION_STYLE_ASSIGNMENT((#111));
#129=PRESENTATION_STYLE_ASSIGNMENT((#112));
#130=PRESENTATION_STYLE_ASSIGNMENT((#26));
#131=POINT_STYLE('',#133,POSITIVE_LENGTH_MEASURE(3.0),#135);
#132=POINT_STYLE('',#134,POSITIVE_LENGTH_MEASURE(3.0),#135);
#133=PRE_DEFINED_POINT_MARKER_SYMBOL('plus');
#134=PRE_DEFINED_POINT_MARKER_SYMBOL('plus');
#135=COLOUR_RGB('Medium Maroon',0.6,0.4,0.4);
#136=COLOUR_RGB('IsoInsertColor',0.8,0.8,0.8);
#137=AXIS2_PLACEMENT_3D('',#188,#154,#155);
#138=AXIS2_PLACEMENT_3D('PCS',#260,#156,#157);
#139=AXIS2_PLACEMENT_3D('MCS',#261,#158,#159);
#140=AXIS2_PLACEMENT_3D('',#262,#160,#161);
#141=AXIS2_PLACEMENT_3D('',#264,#162,#163);
#142=AXIS2_PLACEMENT_3D('',#266,#164,#165);
#143=AXIS2_PLACEMENT_3D('',#267,#166,#167);
#144=AXIS2_PLACEMENT_3D('',#269,#168,#169);
#145=AXIS2_PLACEMENT_3D('',#271,#170,#171);
#146=AXIS2_PLACEMENT_3D('',#272,#172,#173);
#147=AXIS2_PLACEMENT_3D('',#273,#174,#175);
#148=AXIS2_PLACEMENT_3D('',#275,#176,#177);
#149=AXIS2_PLACEMENT_3D('',#276,#178,#179);
#150=AXIS2_PLACEMENT_3D('',#278,#180,#181);
#151=AXIS2_PLACEMENT_3D('',#280,#182,#183);
#152=AXIS2_PLACEMENT_3D('',#281,#184,#185);
#153=AXIS2_PLACEMENT_3D('',#282,#186,#187);
#154=DIRECTION('',(0.0,0.0,1.0));
#155=DIRECTION('',(1.0,0.0,0.0));
#156=DIRECTION('',(0.0,0.0,1.0));
#157=DIRECTION('',(1.0,0.0,0.0));
#158=DIRECTION('',(0.0,0.0,1.0));
#159=DIRECTION('',(1.0,0.0,0.0));
#160=DIRECTION('',(0.0,0.0,-1.0));
#161=DIRECTION('',(-0.882015164970351,-0.471221019015837,0.0));
#162=DIRECTION('',(0.0,0.0,1.0));
#163=DIRECTION('',(-0.707106781186548,-0.707106781186547,0.0));
#164=DIRECTION('',(0.0,0.0,-1.0));
#165=DIRECTION('',(0.707106781186548,0.707106781186547,0.0));
#166=DIRECTION('',(0.0,0.0,1.0));
#167=DIRECTION('',(-0.707106781186548,-0.707106781186547,0.0));
#168=DIRECTION('',(0.0,0.0,1.0));
#169=DIRECTION('',(-0.707106781186548,-0.707106781186547,0.0));
#170=DIRECTION('',(0.0,0.0,1.0));
#171=DIRECTION('',(-0.707106781186548,-0.707106781186547,0.0));
#172=DIRECTION('',(0.0,0.0,1.0));
#173=DIRECTION('',(-0.707106781186548,-0.707106781186547,-3.39384402880821E-17));
#174=DIRECTION('',(0.0,0.0,-1.0));
#175=DIRECTION('',(0.707106781186547,0.707106781186547,0.0));
#176=DIRECTION('',(0.0,0.0,1.0));
#177=DIRECTION('',(-0.707106781186548,-0.707106781186547,4.82267859044844E-16));
#178=DIRECTION('',(0.0,0.0,1.0));
#179=DIRECTION('',(0.707106781186547,0.707106781186547,0.0));
#180=DIRECTION('',(0.0,0.0,-1.0));
#181=DIRECTION('',(-0.707106781186548,-0.707106781186548,0.0));
#182=DIRECTION('',(0.0,0.0,1.0));
#183=DIRECTION('',(-0.707106781186548,-0.707106781186547,0.0));
#184=DIRECTION('',(0.0,0.0,1.0));
#185=DIRECTION('',(-0.707106781186548,-0.707106781186547,0.0));
#186=DIRECTION('',(0.0,0.0,-1.0));
#187=DIRECTION('',(0.707106781186548,0.707106781186547,0.0));
#188=CARTESIAN_POINT('',(0.0,0.0,0.0));
#191=CARTESIAN_POINT('',(1.08161914288719,1.87608523319283,0.0));
#192=CARTESIAN_POINT('',(0.807802397096959,2.25591099125558,0.0));
#193=CARTESIAN_POINT('',(0.581508598485703,2.6393988409496,0.0));
#194=CARTESIAN_POINT('',(0.388532088004467,3.04068661865281,0.0));
#195=CARTESIAN_POINT('',(0.22501776220868,3.47944199701276,0.0));
#196=CARTESIAN_POINT('',(0.10102927950492,3.94266549118803,0.0));
#197=CARTESIAN_POINT('',(0.020276612952931,4.42872635727353,0.0));
#198=CARTESIAN_POINT('',(-0.0123387574682949,4.9304346212717,0.0));
#199=CARTESIAN_POINT('',(0.00625460454798787,5.44098499277885,0.0));
#200=CARTESIAN_POINT('',(0.077898402799188,5.95234946862703,0.0));
#201=CARTESIAN_POINT('',(0.202704470606575,6.45628748566522,0.0));
#202=CARTESIAN_POINT('',(0.379099556006762,6.94456492055754,0.0));
#203=CARTESIAN_POINT('',(0.603814060279506,7.40946260022045,0.0));
#204=CARTESIAN_POINT('',(0.872174080748027,7.84419273993183,0.0));
#205=CARTESIAN_POINT('',(1.17818592546823,8.24310588265388,0.0));
#206=CARTESIAN_POINT('',(1.51551339750073,8.60225255926989,0.0));
#207=CARTESIAN_POINT('',(1.8760852332374,8.91838085714013,0.0));
#208=CARTESIAN_POINT('',(2.25591099139195,9.19219760298499,0.0));
#209=CARTESIAN_POINT('',(2.63939884091929,9.41849140149392,0.0));
#210=CARTESIAN_POINT('',(3.04068661866578,9.61146791200381,0.0));
#211=CARTESIAN_POINT('',(3.47944199700837,9.77498223778852,0.0));
#212=CARTESIAN_POINT('',(3.94266549118946,9.89897072049596,0.0));
#213=CARTESIAN_POINT('',(4.42872635727305,9.97972338704677,0.0));
#214=CARTESIAN_POINT('',(4.93043462127189,10.0123387574684,0.0));
#215=CARTESIAN_POINT('',(5.44098499277875,9.99374539545202,0.0));
#216=CARTESIAN_POINT('',(5.95234946862714,9.92210159720068,0.0));
#217=CARTESIAN_POINT('',(6.45628748566504,9.79729552939368,0.0));
#218=CARTESIAN_POINT('',(6.94456492055794,9.62090044399259,0.0));
#219=CARTESIAN_POINT('',(7.40946260021945,9.3961859397221,0.0));
#220=CARTESIAN_POINT('',(7.84419273993456,9.12782591924755,0.0));
#221=CARTESIAN_POINT('',(8.24310588264596,8.8218140745446,0.0));
#222=CARTESIAN_POINT('',(8.60225255929328,8.48448660246136,0.0));
#223=CARTESIAN_POINT('',(8.91838085710117,8.12391476682486,0.0));
#224=CARTESIAN_POINT('',(9.19219760280213,7.74408900891479,0.0));
#225=CARTESIAN_POINT('',(9.4184914015714,7.36060115895229,0.0));
#226=CARTESIAN_POINT('',(9.61146791197673,6.95931338137854,0.0));
#227=CARTESIAN_POINT('',(9.77498223779754,6.52055800297687,0.0));
#228=CARTESIAN_POINT('',(9.89897072049305,6.05733450881528,0.0));
#229=CARTESIAN_POINT('',(9.97972338704772,5.57127364272539,0.0));
#230=CARTESIAN_POINT('',(10.012338757468,5.06956537872863,0.0));
#231=CARTESIAN_POINT('',(9.99374539545212,4.55901500722103,0.0));
#232=CARTESIAN_POINT('',(9.92210159720069,4.04765053137295,0.0));
#233=CARTESIAN_POINT('',(9.79729552939361,3.54371251433485,0.0));
#234=CARTESIAN_POINT('',(9.6209004439928,3.0554350794422,0.0));
#235=CARTESIAN_POINT('',(9.39618593972154,2.59053739978018,0.0));
#236=CARTESIAN_POINT('',(9.12782591924907,2.15580726006639,0.0));
#237=CARTESIAN_POINT('',(8.82181407454023,1.75689411735127,0.0));
#238=CARTESIAN_POINT('',(8.48448660247237,1.3977474407137,0.0));
#239=CARTESIAN_POINT('',(8.12391476688584,1.08161914293493,0.0));
#240=CARTESIAN_POINT('',(7.74408900868655,0.807802397061821,0.0));
#241=CARTESIAN_POINT('',(7.36060115906623,0.581508598495813,0.0));
#242=CARTESIAN_POINT('',(6.9593133813344,0.388532087997478,0.0));
#243=CARTESIAN_POINT('',(6.52055800299167,0.225017762211091,0.0));
#244=CARTESIAN_POINT('',(6.0573345088105,0.101029279504125,0.0));
#245=CARTESIAN_POINT('',(5.57127364272696,0.0202766129532082,0.0));
#246=CARTESIAN_POINT('',(5.06956537872811,-0.0123387574684095,0.0));
#247=CARTESIAN_POINT('',(4.55901500722118,0.00625460454805271,0.0));
#248=CARTESIAN_POINT('',(4.04765053137297,0.077898402799117,0.0));
#249=CARTESIAN_POINT('',(3.54371251433471,0.202704470606686,0.0));
#250=CARTESIAN_POINT('',(3.05543507944259,0.379099556006509,0.0));
#251=CARTESIAN_POINT('',(2.59053739977917,0.603814060280119,0.0));
#252=CARTESIAN_POINT('',(2.15580726006915,0.872174080746363,0.0));
#253=CARTESIAN_POINT('',(1.75689411734323,1.178185925473,0.0));
#254=CARTESIAN_POINT('',(1.39774744073762,1.51551339748821,0.0));
#255=CARTESIAN_POINT('',(1.08161914288719,1.87608523319283,0.0));
#256=CARTESIAN_POINT('',(0.807802397096959,2.25591099125558,0.0));
#257=CARTESIAN_POINT('',(0.581508598485703,2.6393988409496,0.0));
#258=CARTESIAN_POINT('',(0.388532088004467,3.04068661865281,0.0));
#259=CARTESIAN_POINT('',(0.22501776220868,3.47944199701276,0.0));
#260=CARTESIAN_POINT('',(0.0,0.0,0.0));
#261=CARTESIAN_POINT('',(5.0,5.0,0.0));
#262=CARTESIAN_POINT('',(4.99999999999999,4.99999999999999,4.26685108753951E-15));
#263=CARTESIAN_POINT('',(0.589924175148244,2.64389490492081,4.26685108753951E-15));
#264=CARTESIAN_POINT('',(5.0,5.0,-3.46944695195361E-15));
#265=CARTESIAN_POINT('',(2.85113132460793,2.85113132460793,-3.46944695195361E-15));
#266=CARTESIAN_POINT('',(4.99999999999999,4.99999999999999,4.26685108753951E-15));
#267=CARTESIAN_POINT('',(5.0,5.0,-3.96875));
#268=CARTESIAN_POINT('',(3.4443650813896,3.44436508138959,-3.96875));
#269=CARTESIAN_POINT('',(4.99999999999999,4.99999999999999,-3.96875));
#270=CARTESIAN_POINT('',(1.80904009551136,1.80904009551135,-3.96875));
#271=CARTESIAN_POINT('',(5.0,4.46966991411009,-3.96875));
#272=CARTESIAN_POINT('',(4.99999999999999,4.99999999999999,4.33680868994202E-15));
#273=CARTESIAN_POINT('',(5.0,5.0,-0.878565306458634));
#274=CARTESIAN_POINT('',(7.12391712013325,7.12391712013325,-0.878565306458634));
#275=CARTESIAN_POINT('',(5.0,5.0,-0.970000000005154));
#276=CARTESIAN_POINT('',(5.0,5.0,-1.04118676157929));
#277=CARTESIAN_POINT('',(7.08442849640216,7.08442849640216,-1.04118676157929));
#278=CARTESIAN_POINT('',(5.0,5.0,-3.36999999999999));
#279=CARTESIAN_POINT('',(3.4443650813896,3.4443650813896,-3.36999999999999));
#280=CARTESIAN_POINT('',(5.0,5.0,-3.36999999999999));
#281=CARTESIAN_POINT('',(5.0,5.0,-29.1328042564319));
#282=CARTESIAN_POINT('',(5.0,5.0,-0.866525768697737));
#283=MECHANICAL_DESIGN_GEOMETRIC_PRESENTATION_REPRESENTATION('',(#121,#122,#123,
     #124),#284);
#284=(GEOMETRIC_REPRESENTATION_CONTEXT(3)GLOBAL_UNCERTAINTY_ASSIGNED_CONTEXT((#285))
     GLOBAL_UNIT_ASSIGNED_CONTEXT((#291,#287,#286))REPRESENTATION_CONTEXT('RCMT10T3M0',
     'TOP_LEVEL_ASSEMBLY_PART'));
#285=UNCERTAINTY_MEASURE_WITH_UNIT(LENGTH_MEASURE(2.0E-5),#291,'DISTANCE_ACCURACY_VALUE',
     'Maximum Tolerance applied to model');
#286=(NAMED_UNIT(*)SI_UNIT($,.STERADIAN.)SOLID_ANGLE_UNIT());
#287=(CONVERSION_BASED_UNIT('DEGREE',#289)NAMED_UNIT(#288)PLANE_ANGLE_UNIT());
#288=DIMENSIONAL_EXPONENTS(0.0,0.0,0.0,0.0,0.0,0.0,0.0);
#289=PLANE_ANGLE_MEASURE_WITH_UNIT(PLANE_ANGLE_MEASURE(0.0174532925),#290);
#290=(NAMED_UNIT(*)PLANE_ANGLE_UNIT()SI_UNIT($,.RADIAN.));
#291=(LENGTH_UNIT()NAMED_UNIT(*)SI_UNIT(.MILLI.,.METRE.));
#292=CONSTRUCTIVE_GEOMETRY_REPRESENTATION('supplemental geometry',(#138,#139),#284);
#293=CONSTRUCTIVE_GEOMETRY_REPRESENTATION_RELATIONSHIP('supplemental geometry','contains PCS and MCS coordinate systems',
     #24,#292);
ENDSEC;
END-ISO-10303-21;
