ISO-10303-21;
HEADER;
FILE_DESCRIPTION(
/* description */ (''),
/* implementation_level */ '2;1');
FILE_NAME(
/* name */ 'DNMX150608.stp',
/* time_stamp */ '2017-03-21T10:54:09',
/* author */ ('Sandvik Coromant R&D'),
/* organization */ ('Sandvik Machining Solutions'),
/* preprocessor_version */ 'ST-DEVELOPER v15',
/* originating_system */ 'SIEMENS PLM Software NX v8.5.3.3(64 bits)',
/* authorization */ '');
FILE_SCHEMA(('AUTOMOTIVE_DESIGN'));
ENDSEC;
DATA;
#10=GEOMETRICALLY_BOUNDED_WIREFRAME_SHAPE_REPRESENTATION('IsoTurningInsert-None',
     (#25),#463);
#11=SHAPE_REPRESENTATION_RELATIONSHIP('None','relationship between IsoTurningInsert-None and IsoTurningInsert-None',
     #24,#13);
#12=SHAPE_REPRESENTATION_RELATIONSHIP('None','relationship between IsoTurningInsert-None and IsoTurningInsert-None',
     #24,#10);
#13=ADVANCED_BREP_SHAPE_REPRESENTATION('IsoTurningInsert-None',(#31),#463);
#14=SHAPE_DEFINITION_REPRESENTATION(#15,#24);
#15=PRODUCT_DEFINITION_SHAPE('','',#16);
#16=PRODUCT_DEFINITION(' ','',#18,#17);
#17=PRODUCT_DEFINITION_CONTEXT('part definition',#23,'design');
#18=PRODUCT_DEFINITION_FORMATION_WITH_SPECIFIED_SOURCE(' ',' ',#20,.NOT_KNOWN.);
#19=PRODUCT_RELATED_PRODUCT_CATEGORY('part','',(#20));
#20=PRODUCT('IsoTurningInsert','IsoTurningInsert',' ',(#21));
#21=PRODUCT_CONTEXT(' ',#23,'mechanical');
#22=APPLICATION_PROTOCOL_DEFINITION('international standard','automotive_design',
     2010,#23);
#23=APPLICATION_CONTEXT('core data for automotive mechanical design processes');
#24=SHAPE_REPRESENTATION('IsoTurningInsert-None',(#248),#463);
#25=GEOMETRIC_CURVE_SET('geometric curve set',(#228));
#26=SURFACE_STYLE_USAGE(.BOTH.,#27);
#27=SURFACE_SIDE_STYLE('',(#28));
#28=SURFACE_STYLE_FILL_AREA(#29);
#29=FILL_AREA_STYLE('',(#30));
#30=FILL_AREA_STYLE_COLOUR('',#247);
#31=MANIFOLD_SOLID_BREP('CUT',#32);
#32=CLOSED_SHELL('',(#46,#47,#48,#49,#50,#51,#52,#53,#54,#55,#56));
#33=CYLINDRICAL_SURFACE('',#267,0.793750000000002);
#34=CYLINDRICAL_SURFACE('',#268,0.793750000000002);
#35=CYLINDRICAL_SURFACE('',#269,0.793750000000002);
#36=CYLINDRICAL_SURFACE('',#270,0.793750000000002);
#37=CYLINDRICAL_SURFACE('',#271,2.578);
#38=FACE_OUTER_BOUND('',#103,.T.);
#39=FACE_OUTER_BOUND('',#104,.T.);
#40=FACE_OUTER_BOUND('',#105,.T.);
#41=FACE_OUTER_BOUND('',#106,.T.);
#42=FACE_OUTER_BOUND('',#109,.T.);
#43=FACE_OUTER_BOUND('',#110,.T.);
#44=FACE_OUTER_BOUND('',#111,.T.);
#45=FACE_OUTER_BOUND('',#112,.T.);
#46=ADVANCED_FACE('',(#95,#96),#57,.F.);
#47=ADVANCED_FACE('',(#38),#58,.T.);
#48=ADVANCED_FACE('',(#39),#59,.T.);
#49=ADVANCED_FACE('',(#40),#60,.T.);
#50=ADVANCED_FACE('',(#41),#61,.T.);
#51=ADVANCED_FACE('',(#97,#98),#62,.T.);
#52=ADVANCED_FACE('',(#42),#33,.T.);
#53=ADVANCED_FACE('',(#43),#34,.T.);
#54=ADVANCED_FACE('',(#44),#35,.T.);
#55=ADVANCED_FACE('',(#45),#36,.T.);
#56=ADVANCED_FACE('',(#99,#100),#37,.F.);
#57=PLANE('',#256);
#58=PLANE('',#257);
#59=PLANE('',#258);
#60=PLANE('',#259);
#61=PLANE('',#260);
#62=PLANE('',#266);
#63=LINE('',#409,#79);
#64=LINE('',#414,#80);
#65=LINE('',#418,#81);
#66=LINE('',#422,#82);
#67=LINE('',#426,#83);
#68=LINE('',#429,#84);
#69=LINE('',#430,#85);
#70=LINE('',#432,#86);
#71=LINE('',#434,#87);
#72=LINE('',#436,#88);
#73=LINE('',#438,#89);
#74=LINE('',#440,#90);
#75=LINE('',#442,#91);
#76=LINE('',#444,#92);
#77=LINE('',#446,#93);
#78=LINE('',#448,#94);
#79=VECTOR('',#280,1.0);
#80=VECTOR('',#283,1.0);
#81=VECTOR('',#286,1.0);
#82=VECTOR('',#289,1.0);
#83=VECTOR('',#294,1.0);
#84=VECTOR('',#295,1.0);
#85=VECTOR('',#296,1.0);
#86=VECTOR('',#299,1.0);
#87=VECTOR('',#300,1.0);
#88=VECTOR('',#301,1.0);
#89=VECTOR('',#304,1.0);
#90=VECTOR('',#305,1.0);
#91=VECTOR('',#306,1.0);
#92=VECTOR('',#309,1.0);
#93=VECTOR('',#310,1.0);
#94=VECTOR('',#311,1.0);
#95=FACE_BOUND('',#101,.T.);
#96=FACE_BOUND('',#102,.T.);
#97=FACE_BOUND('',#107,.T.);
#98=FACE_BOUND('',#108,.T.);
#99=FACE_BOUND('',#113,.T.);
#100=FACE_BOUND('',#114,.T.);
#101=EDGE_LOOP('',(#115));
#102=EDGE_LOOP('',(#116,#117,#118,#119,#120,#121,#122,#123));
#103=EDGE_LOOP('',(#124,#125,#126,#127));
#104=EDGE_LOOP('',(#128,#129,#130,#131));
#105=EDGE_LOOP('',(#132,#133,#134,#135));
#106=EDGE_LOOP('',(#136,#137,#138,#139));
#107=EDGE_LOOP('',(#140));
#108=EDGE_LOOP('',(#141,#142,#143,#144,#145,#146,#147,#148));
#109=EDGE_LOOP('',(#149,#150,#151,#152));
#110=EDGE_LOOP('',(#153,#154,#155,#156));
#111=EDGE_LOOP('',(#157,#158,#159,#160));
#112=EDGE_LOOP('',(#161,#162,#163,#164));
#113=EDGE_LOOP('',(#165));
#114=EDGE_LOOP('',(#166));
#115=ORIENTED_EDGE('',*,*,#185,.T.);
#116=ORIENTED_EDGE('',*,*,#186,.T.);
#117=ORIENTED_EDGE('',*,*,#187,.T.);
#118=ORIENTED_EDGE('',*,*,#188,.T.);
#119=ORIENTED_EDGE('',*,*,#189,.T.);
#120=ORIENTED_EDGE('',*,*,#190,.T.);
#121=ORIENTED_EDGE('',*,*,#191,.T.);
#122=ORIENTED_EDGE('',*,*,#192,.T.);
#123=ORIENTED_EDGE('',*,*,#193,.T.);
#124=ORIENTED_EDGE('',*,*,#194,.F.);
#125=ORIENTED_EDGE('',*,*,#195,.T.);
#126=ORIENTED_EDGE('',*,*,#186,.F.);
#127=ORIENTED_EDGE('',*,*,#196,.T.);
#128=ORIENTED_EDGE('',*,*,#192,.F.);
#129=ORIENTED_EDGE('',*,*,#197,.T.);
#130=ORIENTED_EDGE('',*,*,#198,.F.);
#131=ORIENTED_EDGE('',*,*,#199,.T.);
#132=ORIENTED_EDGE('',*,*,#190,.F.);
#133=ORIENTED_EDGE('',*,*,#200,.T.);
#134=ORIENTED_EDGE('',*,*,#201,.F.);
#135=ORIENTED_EDGE('',*,*,#202,.T.);
#136=ORIENTED_EDGE('',*,*,#188,.F.);
#137=ORIENTED_EDGE('',*,*,#203,.T.);
#138=ORIENTED_EDGE('',*,*,#204,.F.);
#139=ORIENTED_EDGE('',*,*,#205,.T.);
#140=ORIENTED_EDGE('',*,*,#206,.F.);
#141=ORIENTED_EDGE('',*,*,#204,.T.);
#142=ORIENTED_EDGE('',*,*,#207,.T.);
#143=ORIENTED_EDGE('',*,*,#194,.T.);
#144=ORIENTED_EDGE('',*,*,#208,.T.);
#145=ORIENTED_EDGE('',*,*,#198,.T.);
#146=ORIENTED_EDGE('',*,*,#209,.T.);
#147=ORIENTED_EDGE('',*,*,#201,.T.);
#148=ORIENTED_EDGE('',*,*,#210,.T.);
#149=ORIENTED_EDGE('',*,*,#187,.F.);
#150=ORIENTED_EDGE('',*,*,#195,.F.);
#151=ORIENTED_EDGE('',*,*,#207,.F.);
#152=ORIENTED_EDGE('',*,*,#203,.F.);
#153=ORIENTED_EDGE('',*,*,#189,.F.);
#154=ORIENTED_EDGE('',*,*,#205,.F.);
#155=ORIENTED_EDGE('',*,*,#210,.F.);
#156=ORIENTED_EDGE('',*,*,#200,.F.);
#157=ORIENTED_EDGE('',*,*,#191,.F.);
#158=ORIENTED_EDGE('',*,*,#202,.F.);
#159=ORIENTED_EDGE('',*,*,#209,.F.);
#160=ORIENTED_EDGE('',*,*,#197,.F.);
#161=ORIENTED_EDGE('',*,*,#193,.F.);
#162=ORIENTED_EDGE('',*,*,#199,.F.);
#163=ORIENTED_EDGE('',*,*,#208,.F.);
#164=ORIENTED_EDGE('',*,*,#196,.F.);
#165=ORIENTED_EDGE('',*,*,#185,.F.);
#166=ORIENTED_EDGE('',*,*,#206,.T.);
#167=VERTEX_POINT('',#408);
#168=VERTEX_POINT('',#410);
#169=VERTEX_POINT('',#411);
#170=VERTEX_POINT('',#413);
#171=VERTEX_POINT('',#415);
#172=VERTEX_POINT('',#417);
#173=VERTEX_POINT('',#419);
#174=VERTEX_POINT('',#421);
#175=VERTEX_POINT('',#423);
#176=VERTEX_POINT('',#427);
#177=VERTEX_POINT('',#428);
#178=VERTEX_POINT('',#433);
#179=VERTEX_POINT('',#435);
#180=VERTEX_POINT('',#439);
#181=VERTEX_POINT('',#441);
#182=VERTEX_POINT('',#445);
#183=VERTEX_POINT('',#447);
#184=VERTEX_POINT('',#451);
#185=EDGE_CURVE('',#167,#167,#211,.T.);
#186=EDGE_CURVE('',#168,#169,#63,.T.);
#187=EDGE_CURVE('',#169,#170,#212,.T.);
#188=EDGE_CURVE('',#170,#171,#64,.T.);
#189=EDGE_CURVE('',#171,#172,#213,.T.);
#190=EDGE_CURVE('',#172,#173,#65,.T.);
#191=EDGE_CURVE('',#173,#174,#214,.T.);
#192=EDGE_CURVE('',#174,#175,#66,.T.);
#193=EDGE_CURVE('',#175,#168,#215,.T.);
#194=EDGE_CURVE('',#176,#177,#67,.T.);
#195=EDGE_CURVE('',#176,#169,#68,.T.);
#196=EDGE_CURVE('',#168,#177,#69,.T.);
#197=EDGE_CURVE('',#174,#178,#70,.T.);
#198=EDGE_CURVE('',#179,#178,#71,.T.);
#199=EDGE_CURVE('',#179,#175,#72,.T.);
#200=EDGE_CURVE('',#172,#180,#73,.T.);
#201=EDGE_CURVE('',#181,#180,#74,.T.);
#202=EDGE_CURVE('',#181,#173,#75,.T.);
#203=EDGE_CURVE('',#170,#182,#76,.T.);
#204=EDGE_CURVE('',#183,#182,#77,.T.);
#205=EDGE_CURVE('',#183,#171,#78,.T.);
#206=EDGE_CURVE('',#184,#184,#216,.T.);
#207=EDGE_CURVE('',#182,#176,#217,.T.);
#208=EDGE_CURVE('',#177,#179,#218,.T.);
#209=EDGE_CURVE('',#178,#181,#219,.T.);
#210=EDGE_CURVE('',#180,#183,#220,.T.);
#211=CIRCLE('',#251,2.578);
#212=CIRCLE('',#252,0.793750000000002);
#213=CIRCLE('',#253,0.793750000000002);
#214=CIRCLE('',#254,0.793750000000002);
#215=CIRCLE('',#255,0.793750000000002);
#216=CIRCLE('',#261,2.578);
#217=CIRCLE('',#262,0.793750000000002);
#218=CIRCLE('',#263,0.793750000000002);
#219=CIRCLE('',#264,0.793750000000002);
#220=CIRCLE('',#265,0.793750000000002);
#221=CURVE_STYLE('',#225,POSITIVE_LENGTH_MEASURE(0.18),#224);
#222=CURVE_STYLE('',#226,POSITIVE_LENGTH_MEASURE(0.18),#246);
#223=CURVE_STYLE('',#227,POSITIVE_LENGTH_MEASURE(0.18),#246);
#224=DRAUGHTING_PRE_DEFINED_COLOUR('blue');
#225=DRAUGHTING_PRE_DEFINED_CURVE_FONT('continuous');
#226=DRAUGHTING_PRE_DEFINED_CURVE_FONT('continuous');
#227=DRAUGHTING_PRE_DEFINED_CURVE_FONT('continuous');
#228=B_SPLINE_CURVE_WITH_KNOTS('CUTTING EDGE LINE',5,(#339,#340,#341,#342,#343,#344,
     #345,#346,#347,#348,#349,#350,#351,#352,#353,#354,#355,#356,#357,#358,#359,
     #360,#361,#362,#363,#364,#365,#366,#367,#368,#369,#370,#371,#372,#373,#374,
     #375,#376,#377,#378,#379,#380,#381,#382,#383,#384,#385,#386,#387,#388,#389,
     #390,#391,#392,#393,#394,#395,#396,#397,#398,#399,#400,#401,#402,#403,#404),
     .UNSPECIFIED.,.T.,.F.,(2,4,1,4,4,1,1,1,1,1,1,1,1,1,1,1,1,1,1,1,4,4,1,4,4,1,
     1,1,1,1,1,1,1,1,1,1,1,1,1,1,4,4,1,1),(-0.2289568833,0.0,0.00642984120000001,
     0.0128596824,0.2418165656,0.24364322504375,0.2454698844875,0.24729654393125,
     0.249123203375006,0.25094986281875,0.2527765222625,0.25460318170625,0.25642984115,
     0.25825650059375,0.2600831600375,0.26190981948125,0.263736478925017,0.26556313836875,
     0.2673897978125,0.26921645725625,0.2710431167,0.5,0.5064298412,0.5128596824,
     0.7418165656,0.74364322504375,0.7454698844875,0.74729654393125,0.749123203375,
     0.75094986281875,0.7527765222625,0.75460318170625,0.75642984115,0.75825650059375,
     0.7600831600375,0.76190981948125,0.763736478925017,0.76556313836875,0.7673897978125,
     0.76921645725625,0.7710431167,1.0,1.0064298412,1.0128596824),.UNSPECIFIED.);
#229=PRESENTATION_LAYER_ASSIGNMENT('1','Layer 1',(#228,#249,#250,#31));
#232=STYLED_ITEM('',(#238),#228);
#233=STYLED_ITEM('',(#239),#249);
#234=STYLED_ITEM('',(#240),#250);
#235=STYLED_ITEM('',(#241),#31);
#236=PRESENTATION_STYLE_ASSIGNMENT((#242));
#237=PRESENTATION_STYLE_ASSIGNMENT((#243));
#238=PRESENTATION_STYLE_ASSIGNMENT((#221));
#239=PRESENTATION_STYLE_ASSIGNMENT((#222));
#240=PRESENTATION_STYLE_ASSIGNMENT((#223));
#241=PRESENTATION_STYLE_ASSIGNMENT((#26));
#242=POINT_STYLE('',#244,POSITIVE_LENGTH_MEASURE(3.0),#246);
#243=POINT_STYLE('',#245,POSITIVE_LENGTH_MEASURE(3.0),#246);
#244=PRE_DEFINED_POINT_MARKER_SYMBOL('plus');
#245=PRE_DEFINED_POINT_MARKER_SYMBOL('plus');
#246=COLOUR_RGB('Medium Maroon',0.6,0.4,0.4);
#247=COLOUR_RGB('IsoInsertColor',0.8,0.8,0.8);
#248=AXIS2_PLACEMENT_3D('',#336,#272,#273);
#249=AXIS2_PLACEMENT_3D('PCS',#405,#274,#275);
#250=AXIS2_PLACEMENT_3D('MCS',#406,#276,#277);
#251=AXIS2_PLACEMENT_3D('',#407,#278,#279);
#252=AXIS2_PLACEMENT_3D('',#412,#281,#282);
#253=AXIS2_PLACEMENT_3D('',#416,#284,#285);
#254=AXIS2_PLACEMENT_3D('',#420,#287,#288);
#255=AXIS2_PLACEMENT_3D('',#424,#290,#291);
#256=AXIS2_PLACEMENT_3D('',#425,#292,#293);
#257=AXIS2_PLACEMENT_3D('',#431,#297,#298);
#258=AXIS2_PLACEMENT_3D('',#437,#302,#303);
#259=AXIS2_PLACEMENT_3D('',#443,#307,#308);
#260=AXIS2_PLACEMENT_3D('',#449,#312,#313);
#261=AXIS2_PLACEMENT_3D('',#450,#314,#315);
#262=AXIS2_PLACEMENT_3D('',#452,#316,#317);
#263=AXIS2_PLACEMENT_3D('',#453,#318,#319);
#264=AXIS2_PLACEMENT_3D('',#454,#320,#321);
#265=AXIS2_PLACEMENT_3D('',#455,#322,#323);
#266=AXIS2_PLACEMENT_3D('',#456,#324,#325);
#267=AXIS2_PLACEMENT_3D('',#457,#326,#327);
#268=AXIS2_PLACEMENT_3D('',#458,#328,#329);
#269=AXIS2_PLACEMENT_3D('',#459,#330,#331);
#270=AXIS2_PLACEMENT_3D('',#460,#332,#333);
#271=AXIS2_PLACEMENT_3D('',#461,#334,#335);
#272=DIRECTION('',(0.0,0.0,1.0));
#273=DIRECTION('',(1.0,0.0,0.0));
#274=DIRECTION('',(0.0,0.0,1.0));
#275=DIRECTION('',(1.0,0.0,0.0));
#276=DIRECTION('',(0.0,0.0,1.0));
#277=DIRECTION('',(1.0,0.0,0.0));
#278=DIRECTION('',(0.0,0.0,1.0));
#279=DIRECTION('',(-0.887010833178222,-0.461748613235034,0.0));
#280=DIRECTION('',(1.0,-2.22044604925031E-16,0.0));
#281=DIRECTION('',(0.0,0.0,-1.0));
#282=DIRECTION('',(-0.887010833178222,-0.461748613235033,0.0));
#283=DIRECTION('',(-0.573576436351046,-0.819152044288992,0.0));
#284=DIRECTION('',(0.0,0.0,-1.0));
#285=DIRECTION('',(-0.887010833178222,-0.461748613235034,0.0));
#286=DIRECTION('',(-1.0,2.22044604925031E-16,0.0));
#287=DIRECTION('',(0.0,0.0,-1.0));
#288=DIRECTION('',(-0.887010833178222,-0.461748613235034,0.0));
#289=DIRECTION('',(0.573576436351046,0.819152044288992,0.0));
#290=DIRECTION('',(0.0,0.0,-1.0));
#291=DIRECTION('',(-0.887010833178222,-0.461748613235033,0.0));
#292=DIRECTION('',(0.0,0.0,1.0));
#293=DIRECTION('',(-0.887010833178222,-0.461748613235034,0.0));
#294=DIRECTION('',(-1.0,2.22044604925031E-16,-8.59314765579595E-17));
#295=DIRECTION('',(8.59314765579594E-17,-4.28422977201317E-16,-1.0));
#296=DIRECTION('',(-8.59314765579594E-17,4.28422977201317E-16,1.0));
#297=DIRECTION('',(2.22044604925031E-16,1.0,-4.28422977201317E-16));
#298=DIRECTION('',(-1.0,2.22044604925031E-16,0.0));
#299=DIRECTION('',(-8.59314765579594E-17,4.28422977201317E-16,1.0));
#300=DIRECTION('',(-0.573576436351046,-0.819152044288992,3.01655287500337E-16));
#301=DIRECTION('',(8.59314765579594E-17,-4.28422977201317E-16,-1.0));
#302=DIRECTION('',(-0.819152044288992,0.573576436351046,-3.16124269205261E-16));
#303=DIRECTION('',(-0.573576436351046,-0.819152044288992,0.0));
#304=DIRECTION('',(-8.59314765579594E-17,4.28422977201317E-16,1.0));
#305=DIRECTION('',(1.0,-2.22044604925031E-16,8.59314765579595E-17));
#306=DIRECTION('',(8.59314765579594E-17,-4.28422977201317E-16,-1.0));
#307=DIRECTION('',(-2.22044604925031E-16,-1.0,4.28422977201317E-16));
#308=DIRECTION('',(1.0,-2.22044604925031E-16,0.0));
#309=DIRECTION('',(-8.59314765579594E-17,4.28422977201317E-16,1.0));
#310=DIRECTION('',(0.573576436351046,0.819152044288992,-3.01655287500337E-16));
#311=DIRECTION('',(8.59314765579594E-17,-4.28422977201317E-16,-1.0));
#312=DIRECTION('',(0.819152044288992,-0.573576436351046,3.16124269205261E-16));
#313=DIRECTION('',(0.573576436351046,0.819152044288992,0.0));
#314=DIRECTION('',(0.0,0.0,1.0));
#315=DIRECTION('',(-0.887010833178221,-0.461748613235034,0.0));
#316=DIRECTION('',(-8.59314765579594E-17,4.28422977201317E-16,1.0));
#317=DIRECTION('',(-0.461748613235036,0.887010833178222,-4.19694562093911E-16));
#318=DIRECTION('',(-8.59314765579594E-17,4.28422977201317E-16,1.0));
#319=DIRECTION('',(-0.461748613235033,0.887010833178222,-4.19694562093911E-16));
#320=DIRECTION('',(-8.59314765579594E-17,4.28422977201317E-16,1.0));
#321=DIRECTION('',(-0.461748613235034,0.887010833178222,-4.19694562093911E-16));
#322=DIRECTION('',(-8.59314765579594E-17,4.28422977201317E-16,1.0));
#323=DIRECTION('',(-0.461748613235033,0.887010833178222,-4.19694562093911E-16));
#324=DIRECTION('',(-8.59314765579594E-17,4.28422977201317E-16,1.0));
#325=DIRECTION('',(-0.461748613235034,0.887010833178222,-4.19694562093911E-16));
#326=DIRECTION('',(-8.59314765579594E-17,4.28422977201317E-16,1.0));
#327=DIRECTION('',(-0.461748613235036,0.887010833178222,-4.19694562093911E-16));
#328=DIRECTION('',(-8.59314765579594E-17,4.28422977201317E-16,1.0));
#329=DIRECTION('',(-0.461748613235033,0.887010833178222,-4.19694562093911E-16));
#330=DIRECTION('',(-8.59314765579594E-17,4.28422977201317E-16,1.0));
#331=DIRECTION('',(-0.461748613235034,0.887010833178222,-4.19694562093911E-16));
#332=DIRECTION('',(-8.59314765579594E-17,4.28422977201317E-16,1.0));
#333=DIRECTION('',(-0.461748613235033,0.887010833178222,-4.19694562093911E-16));
#334=DIRECTION('',(0.0,0.0,1.0));
#335=DIRECTION('',(-0.887010833178222,-0.461748613235034,0.0));
#336=CARTESIAN_POINT('',(0.0,0.0,0.0));
#339=CARTESIAN_POINT('',(12.3774656573727,-6.21724893790088E-15,0.0));
#340=CARTESIAN_POINT('',(15.1639397732461,-4.44089209850063E-15,3.46359738149799E-16));
#341=CARTESIAN_POINT('',(15.3105449579482,0.0169236851823147,3.51707242551278E-16));
#342=CARTESIAN_POINT('',(15.467686616404,0.0694447734028483,3.44871837045425E-16));
#343=CARTESIAN_POINT('',(15.6008421256474,0.168042825554987,2.94950893435237E-16));
#344=CARTESIAN_POINT('',(15.6987944763534,0.278427735270292,1.949234963603E-16));
#345=CARTESIAN_POINT('',(17.2970503697205,2.56097370364635,2.50923638681676E-17));
#346=CARTESIAN_POINT('',(18.8532616233916,4.78347370364635,1.4791141972894E-32));
#347=CARTESIAN_POINT('',(20.4094728770627,7.00597370364634,-2.36658271566304E-31));
#348=CARTESIAN_POINT('',(21.9656841307337,9.22847370364634,2.50923638681677E-17));
#349=CARTESIAN_POINT('',(23.5337046427859,11.4678390724645,1.31797276764012E-16));
#350=CARTESIAN_POINT('',(23.5562294967567,11.5023356010316,1.41433169222588E-16));
#351=CARTESIAN_POINT('',(23.5878886809828,11.5582798940184,1.48225741798592E-16));
#352=CARTESIAN_POINT('',(23.6223537243181,11.6370986993528,1.43125145783996E-16));
#353=CARTESIAN_POINT('',(23.6525977468429,11.7436536014598,1.19858766908569E-16));
#354=CARTESIAN_POINT('',(23.6676346070412,11.8540198169659,8.43184336605031E-17));
#355=CARTESIAN_POINT('',(23.6670874749081,11.9656999287677,4.12043457636984E-17));
#356=CARTESIAN_POINT('',(23.6512227939653,12.0747535358164,-5.35163951810588E-18));
#357=CARTESIAN_POINT('',(23.6208003559573,12.179295966339,-5.25804931846487E-17));
#358=CARTESIAN_POINT('',(23.5786568014088,12.2742718270849,-9.6913909696695E-17));
#359=CARTESIAN_POINT('',(23.5250296807613,12.3632697216794,-1.39696401835336E-16));
#360=CARTESIAN_POINT('',(23.4568431286548,12.4481533987239,-1.81680114587477E-16));
#361=CARTESIAN_POINT('',(23.3766112506656,12.5236995638476,-2.18871545556399E-16));
#362=CARTESIAN_POINT('',(23.2854420808746,12.5882048287935,-2.47863287343305E-16));
#363=CARTESIAN_POINT('',(23.1864105811365,12.6391908146049,-2.64053749725011E-16));
#364=CARTESIAN_POINT('',(23.0817786565855,12.6755337427529,-2.61801135006191E-16));
#365=CARTESIAN_POINT('',(22.9974457343328,12.6925102415291,-2.41484099593489E-16));
#366=CARTESIAN_POINT('',(22.9334598903002,12.6986648842555,-2.11618626841801E-16));
#367=CARTESIAN_POINT('',(22.8922822629337,12.7,-1.85264178824072E-16));
#368=CARTESIAN_POINT('',(20.1585219257281,12.7,-3.40060738153546E-17));
#369=CARTESIAN_POINT('',(17.4453504022058,12.7,-9.86076131526265E-33));
#370=CARTESIAN_POINT('',(14.7321788786834,12.7,-7.88860905221012E-32));
#371=CARTESIAN_POINT('',(12.0190073551611,12.7,-3.40060738153546E-17));
#372=CARTESIAN_POINT('',(9.23253323928769,12.7,-2.40499198756458E-16));
#373=CARTESIAN_POINT('',(9.08592805458557,12.6830763148177,-3.28723658570922E-16));
#374=CARTESIAN_POINT('',(8.92878639612983,12.6305552265971,-3.47802427385212E-16));
#375=CARTESIAN_POINT('',(8.79563088688641,12.531957174445,-2.94950893435238E-16));
#376=CARTESIAN_POINT('',(8.69767853618038,12.4215722647297,-1.949234963603E-16));
#377=CARTESIAN_POINT('',(7.09942264281329,10.1390262963536,-2.50923638681676E-17));
#378=CARTESIAN_POINT('',(5.54321138914221,7.91652629635364,0.0));
#379=CARTESIAN_POINT('',(3.98700013547113,5.69402629635364,0.0));
#380=CARTESIAN_POINT('',(2.43078888180005,3.47152629635364,-2.50923638681676E-17));
#381=CARTESIAN_POINT('',(0.86276836974784,1.23216092753552,-1.31797276764011E-16));
#382=CARTESIAN_POINT('',(0.840243515777049,1.19766439896843,-1.41433169222587E-16));
#383=CARTESIAN_POINT('',(0.808584331551048,1.14172010598157,-1.48225741798592E-16));
#384=CARTESIAN_POINT('',(0.774119288215717,1.06290130064725,-1.43125145783999E-16));
#385=CARTESIAN_POINT('',(0.743875265690871,0.956346398540218,-1.19858766908586E-16));
#386=CARTESIAN_POINT('',(0.728838405492612,0.84598018303415,-8.43184336605279E-17));
#387=CARTESIAN_POINT('',(0.729385537625642,0.734300071232319,-4.12043457637279E-17));
#388=CARTESIAN_POINT('',(0.745250218568509,0.625246464183656,5.3516395180763E-18));
#389=CARTESIAN_POINT('',(0.775672656576438,0.520704033661031,5.25804931846495E-17));
#390=CARTESIAN_POINT('',(0.817816211125013,0.425728172915066,9.69139096966958E-17));
#391=CARTESIAN_POINT('',(0.87144333177249,0.336730278320607,1.39696401835337E-16));
#392=CARTESIAN_POINT('',(0.939629883878967,0.251846601276112,1.81680114587477E-16));
#393=CARTESIAN_POINT('',(1.01986176186816,0.176300436152405,2.18871545556399E-16));
#394=CARTESIAN_POINT('',(1.11103093165916,0.111795171206536,2.47863287343305E-16));
#395=CARTESIAN_POINT('',(1.21006243139732,0.060809185395045,2.64053749725012E-16));
#396=CARTESIAN_POINT('',(1.3146943559483,0.0244662572471261,2.61801135006191E-16));
#397=CARTESIAN_POINT('',(1.39902727820096,0.00748975847087507,2.4148409959349E-16));
#398=CARTESIAN_POINT('',(1.46301312223362,0.00133511574451184,2.11618626841801E-16));
#399=CARTESIAN_POINT('',(1.50419074960011,-8.88178419700125E-16,1.85264178824072E-16));
#400=CARTESIAN_POINT('',(4.23795108680569,-2.66453525910038E-15,3.40060738153546E-17));
#401=CARTESIAN_POINT('',(6.95112261032803,-3.5527136788005E-15,6.90253292068385E-32));
#402=CARTESIAN_POINT('',(9.66429413385037,-5.32907051820075E-15,0.0));
#403=CARTESIAN_POINT('',(12.3774656573727,-6.21724893790088E-15,0.0));
#404=CARTESIAN_POINT('',(15.1639397732461,-4.44089209850063E-15,3.46359738149799E-16));
#405=CARTESIAN_POINT('',(0.0,0.0,0.0));
#406=CARTESIAN_POINT('',(12.1982365062669,6.35,0.0));
#407=CARTESIAN_POINT('',(12.1982365062669,6.35,-6.35));
#408=CARTESIAN_POINT('',(9.91152257833345,5.15961207508008,-6.35));
#409=CARTESIAN_POINT('',(12.1982365062669,12.7,-6.35));
#410=CARTESIAN_POINT('',(9.30583583163876,12.7,-6.35));
#411=CARTESIAN_POINT('',(22.8716934492504,12.7,-6.35));
#412=CARTESIAN_POINT('',(22.8716934492504,11.90625,-6.35));
#413=CARTESIAN_POINT('',(23.5218953844048,11.4509737036463,-6.35));
#414=CARTESIAN_POINT('',(17.399851987502,2.70778962917085,-6.35));
#415=CARTESIAN_POINT('',(15.7408391160494,0.338473703646348,-6.35));
#416=CARTESIAN_POINT('',(15.090637180895,0.793749999999993,-6.35));
#417=CARTESIAN_POINT('',(15.090637180895,-8.67361737988404E-15,-6.35));
#418=CARTESIAN_POINT('',(12.1982365062669,-7.80625564189563E-15,-6.35));
#419=CARTESIAN_POINT('',(1.52477956328336,-4.33680868994202E-15,-6.35));
#420=CARTESIAN_POINT('',(1.52477956328336,0.793749999999998,-6.35));
#421=CARTESIAN_POINT('',(0.874577628128976,1.24902629635364,-6.35));
#422=CARTESIAN_POINT('',(6.9966210250318,9.99221037082914,-6.35));
#423=CARTESIAN_POINT('',(8.65563389648437,12.3615262963536,-6.35));
#424=CARTESIAN_POINT('',(9.30583583163876,11.90625,-6.35));
#425=CARTESIAN_POINT('',(12.0387631737882,5.84421520759503,-6.35));
#426=CARTESIAN_POINT('',(12.1982365062669,12.7,-5.65390330310514E-15));
#427=CARTESIAN_POINT('',(22.8716934492504,12.7,-4.73671738801676E-15));
#428=CARTESIAN_POINT('',(9.30583583163876,12.7,-5.90245156387318E-15));
#429=CARTESIAN_POINT('',(22.8716934492504,12.7,-4.33680868994202E-15));
#430=CARTESIAN_POINT('',(9.30583583163876,12.7,-5.20417042793042E-15));
#431=CARTESIAN_POINT('',(12.1982365062669,12.7,-5.65390330310514E-15));
#432=CARTESIAN_POINT('',(0.874577628128974,1.24902629635364,-1.73472347597681E-15));
#433=CARTESIAN_POINT('',(0.874577628128974,1.24902629635364,-1.72110178457202E-15));
#434=CARTESIAN_POINT('',(6.9966210250318,9.99221037082914,-4.94080650733019E-15));
#435=CARTESIAN_POINT('',(8.65563389648437,12.3615262963536,-5.81331446440131E-15));
#436=CARTESIAN_POINT('',(8.65563389648437,12.3615262963536,-5.20417042793042E-15));
#437=CARTESIAN_POINT('',(6.9966210250318,9.99221037082914,-4.94080650733019E-15));
#438=CARTESIAN_POINT('',(15.090637180895,-6.07153216591882E-15,2.88889491658085E-31));
#439=CARTESIAN_POINT('',(15.090637180895,-6.07153216591882E-15,3.5616768119616E-17));
#440=CARTESIAN_POINT('',(12.1982365062669,-5.20417042793042E-15,-2.12931492648418E-16));
#441=CARTESIAN_POINT('',(1.52477956328336,-1.73472347597681E-15,-1.1301174077368E-15));
#442=CARTESIAN_POINT('',(1.52477956328336,-1.73472347597681E-15,-8.67361737988404E-16));
#443=CARTESIAN_POINT('',(12.1982365062669,-4.33680868994202E-15,-2.12931492648419E-16));
#444=CARTESIAN_POINT('',(23.5218953844048,11.4509737036463,-3.46944695195361E-15));
#445=CARTESIAN_POINT('',(23.5218953844048,11.4509737036463,-4.14573301118154E-15));
#446=CARTESIAN_POINT('',(17.399851987502,2.70778962917086,-9.26028288423377E-16));
#447=CARTESIAN_POINT('',(15.7408391160494,0.338473703646351,-5.35203313522531E-17));
#448=CARTESIAN_POINT('',(15.7408391160494,0.338473703646351,1.92592994438724E-31));
#449=CARTESIAN_POINT('',(17.399851987502,2.70778962917086,-9.26028288423375E-16));
#450=CARTESIAN_POINT('',(12.1982365062669,6.35,0.0));
#451=CARTESIAN_POINT('',(9.91152257833346,5.15961207508008,0.0));
#452=CARTESIAN_POINT('',(22.8716934492504,11.90625,-4.39665664986322E-15));
#453=CARTESIAN_POINT('',(9.30583583163876,11.90625,-5.56239082571963E-15));
#454=CARTESIAN_POINT('',(1.52477956328336,0.79375,-1.47017814589034E-15));
#455=CARTESIAN_POINT('',(15.090637180895,0.793749999999996,-3.0444397003393E-16));
#456=CARTESIAN_POINT('',(12.1982365062669,6.35,-2.93341739787678E-15));
#457=CARTESIAN_POINT('',(22.8716934492504,11.90625,-4.33680868994202E-15));
#458=CARTESIAN_POINT('',(15.090637180895,0.793749999999996,0.0));
#459=CARTESIAN_POINT('',(1.52477956328336,0.79375,-8.67361737988404E-16));
#460=CARTESIAN_POINT('',(9.30583583163876,11.90625,-5.20417042793042E-15));
#461=CARTESIAN_POINT('',(12.1982365062669,6.35,-33.3676978394524));
#462=MECHANICAL_DESIGN_GEOMETRIC_PRESENTATION_REPRESENTATION('',(#232,#233,#234,
     #235),#463);
#463=(GEOMETRIC_REPRESENTATION_CONTEXT(3)GLOBAL_UNCERTAINTY_ASSIGNED_CONTEXT((#464))
     GLOBAL_UNIT_ASSIGNED_CONTEXT((#470,#466,#465))REPRESENTATION_CONTEXT('DNMX150608',
     'TOP_LEVEL_ASSEMBLY_PART'));
#464=UNCERTAINTY_MEASURE_WITH_UNIT(LENGTH_MEASURE(2.0E-5),#470,'DISTANCE_ACCURACY_VALUE',
     'Maximum Tolerance applied to model');
#465=(NAMED_UNIT(*)SI_UNIT($,.STERADIAN.)SOLID_ANGLE_UNIT());
#466=(CONVERSION_BASED_UNIT('DEGREE',#468)NAMED_UNIT(#467)PLANE_ANGLE_UNIT());
#467=DIMENSIONAL_EXPONENTS(0.0,0.0,0.0,0.0,0.0,0.0,0.0);
#468=PLANE_ANGLE_MEASURE_WITH_UNIT(PLANE_ANGLE_MEASURE(0.0174532925),#469);
#469=(NAMED_UNIT(*)PLANE_ANGLE_UNIT()SI_UNIT($,.RADIAN.));
#470=(LENGTH_UNIT()NAMED_UNIT(*)SI_UNIT(.MILLI.,.METRE.));
#471=CONSTRUCTIVE_GEOMETRY_REPRESENTATION('supplemental geometry',(#249,#250),#463);
#472=CONSTRUCTIVE_GEOMETRY_REPRESENTATION_RELATIONSHIP('supplemental geometry','contains PCS and MCS coordinate systems',
     #24,#471);
ENDSEC;
END-ISO-10303-21;
