ISO-10303-21;
HEADER;
FILE_DESCRIPTION(
/* description */ (''),
/* implementation_level */ '2;1');
FILE_NAME(
/* name */ 'CNGN120416.stp',
/* time_stamp */ '2017-03-21T10:53:54',
/* author */ ('Sandvik Coromant R&D'),
/* organization */ ('Sandvik Machining Solutions'),
/* preprocessor_version */ 'ST-DEVELOPER v15',
/* originating_system */ 'SIEMENS PLM Software NX v8.5.3.3(64 bits)',
/* authorization */ '');
FILE_SCHEMA(('AUTOMOTIVE_DESIGN'));
ENDSEC;
DATA;
#10=GEOMETRICALLY_BOUNDED_WIREFRAME_SHAPE_REPRESENTATION('IsoTurningInsert-None',
     (#25),#441);
#11=SHAPE_REPRESENTATION_RELATIONSHIP('None','relationship between IsoTurningInsert-None and IsoTurningInsert-None',
     #24,#13);
#12=SHAPE_REPRESENTATION_RELATIONSHIP('None','relationship between IsoTurningInsert-None and IsoTurningInsert-None',
     #24,#10);
#13=ADVANCED_BREP_SHAPE_REPRESENTATION('IsoTurningInsert-None',(#31),#441);
#14=SHAPE_DEFINITION_REPRESENTATION(#15,#24);
#15=PRODUCT_DEFINITION_SHAPE('','',#16);
#16=PRODUCT_DEFINITION(' ','',#18,#17);
#17=PRODUCT_DEFINITION_CONTEXT('part definition',#23,'design');
#18=PRODUCT_DEFINITION_FORMATION_WITH_SPECIFIED_SOURCE(' ',' ',#20,.NOT_KNOWN.);
#19=PRODUCT_RELATED_PRODUCT_CATEGORY('part','',(#20));
#20=PRODUCT('IsoTurningInsert','IsoTurningInsert',' ',(#21));
#21=PRODUCT_CONTEXT(' ',#23,'mechanical');
#22=APPLICATION_PROTOCOL_DEFINITION('international standard','automotive_design',
     2010,#23);
#23=APPLICATION_CONTEXT('core data for automotive mechanical design processes');
#24=SHAPE_REPRESENTATION('IsoTurningInsert-None',(#228),#441);
#25=GEOMETRIC_CURVE_SET('geometric curve set',(#208));
#26=SURFACE_STYLE_USAGE(.BOTH.,#27);
#27=SURFACE_SIDE_STYLE('',(#28));
#28=SURFACE_STYLE_FILL_AREA(#29);
#29=FILL_AREA_STYLE('',(#30));
#30=FILL_AREA_STYLE_COLOUR('',#227);
#31=MANIFOLD_SOLID_BREP('CUT',#32);
#32=CLOSED_SHELL('',(#37,#38,#39,#40,#41,#42,#43,#44,#45,#46));
#33=CYLINDRICAL_SURFACE('',#245,1.5875);
#34=CYLINDRICAL_SURFACE('',#246,1.5875);
#35=CYLINDRICAL_SURFACE('',#247,1.5875);
#36=CYLINDRICAL_SURFACE('',#248,1.5875);
#37=ADVANCED_FACE('',(#53),#47,.F.);
#38=ADVANCED_FACE('',(#54),#48,.T.);
#39=ADVANCED_FACE('',(#55),#49,.T.);
#40=ADVANCED_FACE('',(#56),#50,.T.);
#41=ADVANCED_FACE('',(#57),#51,.T.);
#42=ADVANCED_FACE('',(#58),#52,.T.);
#43=ADVANCED_FACE('',(#59),#33,.T.);
#44=ADVANCED_FACE('',(#60),#34,.T.);
#45=ADVANCED_FACE('',(#61),#35,.T.);
#46=ADVANCED_FACE('',(#62),#36,.T.);
#47=PLANE('',#235);
#48=PLANE('',#236);
#49=PLANE('',#237);
#50=PLANE('',#238);
#51=PLANE('',#239);
#52=PLANE('',#244);
#53=FACE_OUTER_BOUND('',#63,.T.);
#54=FACE_OUTER_BOUND('',#64,.T.);
#55=FACE_OUTER_BOUND('',#65,.T.);
#56=FACE_OUTER_BOUND('',#66,.T.);
#57=FACE_OUTER_BOUND('',#67,.T.);
#58=FACE_OUTER_BOUND('',#68,.T.);
#59=FACE_OUTER_BOUND('',#69,.T.);
#60=FACE_OUTER_BOUND('',#70,.T.);
#61=FACE_OUTER_BOUND('',#71,.T.);
#62=FACE_OUTER_BOUND('',#72,.T.);
#63=EDGE_LOOP('',(#81,#82,#83,#84,#85,#86,#87,#88));
#64=EDGE_LOOP('',(#89,#90,#91,#92));
#65=EDGE_LOOP('',(#93,#94,#95,#96));
#66=EDGE_LOOP('',(#97,#98,#99,#100));
#67=EDGE_LOOP('',(#101,#102,#103,#104));
#68=EDGE_LOOP('',(#105,#106,#107,#108,#109,#110,#111,#112));
#69=EDGE_LOOP('',(#113,#114,#115,#116));
#70=EDGE_LOOP('',(#117,#118,#119,#120));
#71=EDGE_LOOP('',(#121,#122,#123,#124));
#72=EDGE_LOOP('',(#125,#126,#127,#128));
#73=CIRCLE('',#231,1.5875);
#74=CIRCLE('',#232,1.5875);
#75=CIRCLE('',#233,1.5875);
#76=CIRCLE('',#234,1.5875);
#77=CIRCLE('',#240,1.5875);
#78=CIRCLE('',#241,1.5875);
#79=CIRCLE('',#242,1.5875);
#80=CIRCLE('',#243,1.5875);
#81=ORIENTED_EDGE('',*,*,#145,.T.);
#82=ORIENTED_EDGE('',*,*,#146,.T.);
#83=ORIENTED_EDGE('',*,*,#147,.T.);
#84=ORIENTED_EDGE('',*,*,#148,.T.);
#85=ORIENTED_EDGE('',*,*,#149,.T.);
#86=ORIENTED_EDGE('',*,*,#150,.T.);
#87=ORIENTED_EDGE('',*,*,#151,.T.);
#88=ORIENTED_EDGE('',*,*,#152,.T.);
#89=ORIENTED_EDGE('',*,*,#153,.F.);
#90=ORIENTED_EDGE('',*,*,#154,.T.);
#91=ORIENTED_EDGE('',*,*,#145,.F.);
#92=ORIENTED_EDGE('',*,*,#155,.T.);
#93=ORIENTED_EDGE('',*,*,#151,.F.);
#94=ORIENTED_EDGE('',*,*,#156,.T.);
#95=ORIENTED_EDGE('',*,*,#157,.F.);
#96=ORIENTED_EDGE('',*,*,#158,.T.);
#97=ORIENTED_EDGE('',*,*,#149,.F.);
#98=ORIENTED_EDGE('',*,*,#159,.T.);
#99=ORIENTED_EDGE('',*,*,#160,.F.);
#100=ORIENTED_EDGE('',*,*,#161,.T.);
#101=ORIENTED_EDGE('',*,*,#147,.F.);
#102=ORIENTED_EDGE('',*,*,#162,.T.);
#103=ORIENTED_EDGE('',*,*,#163,.F.);
#104=ORIENTED_EDGE('',*,*,#164,.T.);
#105=ORIENTED_EDGE('',*,*,#163,.T.);
#106=ORIENTED_EDGE('',*,*,#165,.T.);
#107=ORIENTED_EDGE('',*,*,#153,.T.);
#108=ORIENTED_EDGE('',*,*,#166,.T.);
#109=ORIENTED_EDGE('',*,*,#157,.T.);
#110=ORIENTED_EDGE('',*,*,#167,.T.);
#111=ORIENTED_EDGE('',*,*,#160,.T.);
#112=ORIENTED_EDGE('',*,*,#168,.T.);
#113=ORIENTED_EDGE('',*,*,#146,.F.);
#114=ORIENTED_EDGE('',*,*,#154,.F.);
#115=ORIENTED_EDGE('',*,*,#165,.F.);
#116=ORIENTED_EDGE('',*,*,#162,.F.);
#117=ORIENTED_EDGE('',*,*,#148,.F.);
#118=ORIENTED_EDGE('',*,*,#164,.F.);
#119=ORIENTED_EDGE('',*,*,#168,.F.);
#120=ORIENTED_EDGE('',*,*,#159,.F.);
#121=ORIENTED_EDGE('',*,*,#150,.F.);
#122=ORIENTED_EDGE('',*,*,#161,.F.);
#123=ORIENTED_EDGE('',*,*,#167,.F.);
#124=ORIENTED_EDGE('',*,*,#156,.F.);
#125=ORIENTED_EDGE('',*,*,#152,.F.);
#126=ORIENTED_EDGE('',*,*,#158,.F.);
#127=ORIENTED_EDGE('',*,*,#166,.F.);
#128=ORIENTED_EDGE('',*,*,#155,.F.);
#129=VERTEX_POINT('',#391);
#130=VERTEX_POINT('',#392);
#131=VERTEX_POINT('',#394);
#132=VERTEX_POINT('',#396);
#133=VERTEX_POINT('',#398);
#134=VERTEX_POINT('',#400);
#135=VERTEX_POINT('',#402);
#136=VERTEX_POINT('',#404);
#137=VERTEX_POINT('',#408);
#138=VERTEX_POINT('',#409);
#139=VERTEX_POINT('',#414);
#140=VERTEX_POINT('',#416);
#141=VERTEX_POINT('',#420);
#142=VERTEX_POINT('',#422);
#143=VERTEX_POINT('',#426);
#144=VERTEX_POINT('',#428);
#145=EDGE_CURVE('',#129,#130,#169,.T.);
#146=EDGE_CURVE('',#130,#131,#73,.T.);
#147=EDGE_CURVE('',#131,#132,#170,.T.);
#148=EDGE_CURVE('',#132,#133,#74,.T.);
#149=EDGE_CURVE('',#133,#134,#171,.T.);
#150=EDGE_CURVE('',#134,#135,#75,.T.);
#151=EDGE_CURVE('',#135,#136,#172,.T.);
#152=EDGE_CURVE('',#136,#129,#76,.T.);
#153=EDGE_CURVE('',#137,#138,#173,.T.);
#154=EDGE_CURVE('',#137,#130,#174,.T.);
#155=EDGE_CURVE('',#129,#138,#175,.T.);
#156=EDGE_CURVE('',#135,#139,#176,.T.);
#157=EDGE_CURVE('',#140,#139,#177,.T.);
#158=EDGE_CURVE('',#140,#136,#178,.T.);
#159=EDGE_CURVE('',#133,#141,#179,.T.);
#160=EDGE_CURVE('',#142,#141,#180,.T.);
#161=EDGE_CURVE('',#142,#134,#181,.T.);
#162=EDGE_CURVE('',#131,#143,#182,.T.);
#163=EDGE_CURVE('',#144,#143,#183,.T.);
#164=EDGE_CURVE('',#144,#132,#184,.T.);
#165=EDGE_CURVE('',#143,#137,#77,.T.);
#166=EDGE_CURVE('',#138,#140,#78,.T.);
#167=EDGE_CURVE('',#139,#142,#79,.T.);
#168=EDGE_CURVE('',#141,#144,#80,.T.);
#169=LINE('',#390,#185);
#170=LINE('',#395,#186);
#171=LINE('',#399,#187);
#172=LINE('',#403,#188);
#173=LINE('',#407,#189);
#174=LINE('',#410,#190);
#175=LINE('',#411,#191);
#176=LINE('',#413,#192);
#177=LINE('',#415,#193);
#178=LINE('',#417,#194);
#179=LINE('',#419,#195);
#180=LINE('',#421,#196);
#181=LINE('',#423,#197);
#182=LINE('',#425,#198);
#183=LINE('',#427,#199);
#184=LINE('',#429,#200);
#185=VECTOR('',#255,1.0);
#186=VECTOR('',#258,1.0);
#187=VECTOR('',#261,1.0);
#188=VECTOR('',#264,1.0);
#189=VECTOR('',#269,1.0);
#190=VECTOR('',#270,1.0);
#191=VECTOR('',#271,1.0);
#192=VECTOR('',#274,1.0);
#193=VECTOR('',#275,1.0);
#194=VECTOR('',#276,1.0);
#195=VECTOR('',#279,1.0);
#196=VECTOR('',#280,1.0);
#197=VECTOR('',#281,1.0);
#198=VECTOR('',#284,1.0);
#199=VECTOR('',#285,1.0);
#200=VECTOR('',#286,1.0);
#201=CURVE_STYLE('',#205,POSITIVE_LENGTH_MEASURE(0.18),#204);
#202=CURVE_STYLE('',#206,POSITIVE_LENGTH_MEASURE(0.18),#226);
#203=CURVE_STYLE('',#207,POSITIVE_LENGTH_MEASURE(0.18),#226);
#204=DRAUGHTING_PRE_DEFINED_COLOUR('blue');
#205=DRAUGHTING_PRE_DEFINED_CURVE_FONT('continuous');
#206=DRAUGHTING_PRE_DEFINED_CURVE_FONT('continuous');
#207=DRAUGHTING_PRE_DEFINED_CURVE_FONT('continuous');
#208=B_SPLINE_CURVE_WITH_KNOTS('CUTTING EDGE LINE',5,(#310,#311,#312,#313,#314,#315,
     #316,#317,#318,#319,#320,#321,#322,#323,#324,#325,#326,#327,#328,#329,#330,
     #331,#332,#333,#334,#335,#336,#337,#338,#339,#340,#341,#342,#343,#344,#345,
     #346,#347,#348,#349,#350,#351,#352,#353,#354,#355,#356,#357,#358,#359,#360,
     #361,#362,#363,#364,#365,#366,#367,#368,#369,#370,#371,#372,#373,#374,#375,
     #376,#377,#378,#379,#380,#381,#382,#383,#384,#385,#386,#387),.UNSPECIFIED.,
     .T.,.F.,(2,4,1,1,1,1,1,1,1,4,4,1,1,1,1,1,1,1,1,1,1,1,1,1,1,1,4,4,1,1,1,1,1,
     1,1,4,4,1,1,1,1,1,1,1,1,1,1,1,1,1,1,1,4,4,1,1),(-0.1987562523,0.0,0.00569374975000003,
     0.0113874995,0.01708124925,0.022774999,0.0284687487500001,0.0341624985,0.03985624825,
     0.045549998,0.2443062502,0.24786484379375,0.2514234373875,0.25498203098125,
     0.258540624575,0.26209921816875,0.2656578117625,0.26921640535625,0.27277499895,
     0.27633359254375,0.2798921861375,0.28345077973125,0.287009373325,0.29056796691875,
     0.2941265605125,0.29768515410625,0.3012437477,0.5,0.50569374975,0.5113874995,
     0.51708124925,0.522774999,0.52846874875,0.5341624985,0.53985624825,0.545549998,
     0.7443062502,0.74786484379375,0.7514234373875,0.75498203098125,0.758540624575,
     0.76209921816875,0.7656578117625,0.76921640535625,0.77277499895,0.77633359254375,
     0.7798921861375,0.78345077973125,0.787009373325,0.79056796691875,0.7941265605125,
     0.79768515410625,0.8012437477,1.0,1.00569374975,1.0113874995),.UNSPECIFIED.);
#209=PRESENTATION_LAYER_ASSIGNMENT('1','Layer 1',(#208,#229,#230,#31));
#212=STYLED_ITEM('',(#218),#208);
#213=STYLED_ITEM('',(#219),#229);
#214=STYLED_ITEM('',(#220),#230);
#215=STYLED_ITEM('',(#221),#31);
#216=PRESENTATION_STYLE_ASSIGNMENT((#222));
#217=PRESENTATION_STYLE_ASSIGNMENT((#223));
#218=PRESENTATION_STYLE_ASSIGNMENT((#201));
#219=PRESENTATION_STYLE_ASSIGNMENT((#202));
#220=PRESENTATION_STYLE_ASSIGNMENT((#203));
#221=PRESENTATION_STYLE_ASSIGNMENT((#26));
#222=POINT_STYLE('',#224,POSITIVE_LENGTH_MEASURE(3.0),#226);
#223=POINT_STYLE('',#225,POSITIVE_LENGTH_MEASURE(3.0),#226);
#224=PRE_DEFINED_POINT_MARKER_SYMBOL('plus');
#225=PRE_DEFINED_POINT_MARKER_SYMBOL('plus');
#226=COLOUR_RGB('Medium Maroon',0.6,0.4,0.4);
#227=COLOUR_RGB('IsoInsertColor',0.8,0.8,0.8);
#228=AXIS2_PLACEMENT_3D('',#307,#249,#250);
#229=AXIS2_PLACEMENT_3D('PCS',#388,#251,#252);
#230=AXIS2_PLACEMENT_3D('MCS',#389,#253,#254);
#231=AXIS2_PLACEMENT_3D('',#393,#256,#257);
#232=AXIS2_PLACEMENT_3D('',#397,#259,#260);
#233=AXIS2_PLACEMENT_3D('',#401,#262,#263);
#234=AXIS2_PLACEMENT_3D('',#405,#265,#266);
#235=AXIS2_PLACEMENT_3D('',#406,#267,#268);
#236=AXIS2_PLACEMENT_3D('',#412,#272,#273);
#237=AXIS2_PLACEMENT_3D('',#418,#277,#278);
#238=AXIS2_PLACEMENT_3D('',#424,#282,#283);
#239=AXIS2_PLACEMENT_3D('',#430,#287,#288);
#240=AXIS2_PLACEMENT_3D('',#431,#289,#290);
#241=AXIS2_PLACEMENT_3D('',#432,#291,#292);
#242=AXIS2_PLACEMENT_3D('',#433,#293,#294);
#243=AXIS2_PLACEMENT_3D('',#434,#295,#296);
#244=AXIS2_PLACEMENT_3D('',#435,#297,#298);
#245=AXIS2_PLACEMENT_3D('',#436,#299,#300);
#246=AXIS2_PLACEMENT_3D('',#437,#301,#302);
#247=AXIS2_PLACEMENT_3D('',#438,#303,#304);
#248=AXIS2_PLACEMENT_3D('',#439,#305,#306);
#249=DIRECTION('',(0.0,0.0,1.0));
#250=DIRECTION('',(1.0,0.0,0.0));
#251=DIRECTION('',(0.0,0.0,1.0));
#252=DIRECTION('',(1.0,0.0,0.0));
#253=DIRECTION('',(0.0,0.0,1.0));
#254=DIRECTION('',(1.0,0.0,0.0));
#255=DIRECTION('',(1.0,6.10622663543836E-16,0.0));
#256=DIRECTION('',(0.0,0.0,-1.0));
#257=DIRECTION('',(-0.766044443118977,-0.642787609686539,0.0));
#258=DIRECTION('',(-0.173648177666928,-0.984807753012209,0.0));
#259=DIRECTION('',(0.0,0.0,-1.0));
#260=DIRECTION('',(-0.766044443118977,-0.64278760968654,0.0));
#261=DIRECTION('',(-1.0,7.7715611723761E-16,0.0));
#262=DIRECTION('',(0.0,0.0,-1.0));
#263=DIRECTION('',(-0.766044443118978,-0.64278760968654,0.0));
#264=DIRECTION('',(0.17364817766693,0.984807753012208,0.0));
#265=DIRECTION('',(0.0,0.0,-1.0));
#266=DIRECTION('',(-0.766044443118978,-0.64278760968654,0.0));
#267=DIRECTION('',(0.0,0.0,1.0));
#268=DIRECTION('',(-0.766044443118978,-0.64278760968654,0.0));
#269=DIRECTION('',(-1.0,-6.10622663543836E-16,-1.03309251233719E-16));
#270=DIRECTION('',(1.03309251233719E-16,-3.86469317895239E-16,-1.0));
#271=DIRECTION('',(-1.03309251233719E-16,3.86469317895239E-16,1.0));
#272=DIRECTION('',(-6.10622663543836E-16,1.0,-3.86469317895239E-16));
#273=DIRECTION('',(-1.0,-6.10622663543836E-16,0.0));
#274=DIRECTION('',(-1.03309251233719E-16,3.86469317895239E-16,1.0));
#275=DIRECTION('',(-0.17364817766693,-0.984807753012208,3.626585173517E-16));
#276=DIRECTION('',(1.03309251233719E-16,-3.86469317895239E-16,-1.0));
#277=DIRECTION('',(-0.984807753012208,0.17364817766693,-1.68849444349542E-16));
#278=DIRECTION('',(-0.17364817766693,-0.984807753012208,0.0));
#279=DIRECTION('',(-1.03309251233719E-16,3.86469317895239E-16,1.0));
#280=DIRECTION('',(1.0,-7.7715611723761E-16,1.03309251233719E-16));
#281=DIRECTION('',(1.03309251233719E-16,-3.86469317895239E-16,-1.0));
#282=DIRECTION('',(-7.7715611723761E-16,-1.0,3.86469317895238E-16));
#283=DIRECTION('',(1.0,-7.7715611723761E-16,0.0));
#284=DIRECTION('',(-1.03309251233719E-16,3.86469317895239E-16,1.0));
#285=DIRECTION('',(0.173648177666928,0.984807753012209,-3.62658517351701E-16));
#286=DIRECTION('',(1.03309251233719E-16,-3.86469317895239E-16,-1.0));
#287=DIRECTION('',(0.984807753012209,-0.173648177666928,1.68849444349541E-16));
#288=DIRECTION('',(0.173648177666928,0.984807753012209,0.0));
#289=DIRECTION('',(-1.03309251233719E-16,3.86469317895239E-16,1.0));
#290=DIRECTION('',(-0.642787609686539,0.766044443118977,-3.62458580068658E-16));
#291=DIRECTION('',(-1.03309251233719E-16,3.86469317895239E-16,1.0));
#292=DIRECTION('',(-0.64278760968654,0.766044443118977,-3.62458580068658E-16));
#293=DIRECTION('',(-1.03309251233719E-16,3.86469317895239E-16,1.0));
#294=DIRECTION('',(-0.64278760968654,0.766044443118978,-3.62458580068658E-16));
#295=DIRECTION('',(-1.03309251233719E-16,3.86469317895239E-16,1.0));
#296=DIRECTION('',(-0.64278760968654,0.766044443118978,-3.62458580068658E-16));
#297=DIRECTION('',(-1.03309251233719E-16,3.86469317895239E-16,1.0));
#298=DIRECTION('',(-0.64278760968654,0.766044443118978,-3.62458580068658E-16));
#299=DIRECTION('',(-1.03309251233719E-16,3.86469317895239E-16,1.0));
#300=DIRECTION('',(-0.642787609686539,0.766044443118977,-3.62458580068658E-16));
#301=DIRECTION('',(-1.03309251233719E-16,3.86469317895239E-16,1.0));
#302=DIRECTION('',(-0.64278760968654,0.766044443118978,-3.62458580068658E-16));
#303=DIRECTION('',(-1.03309251233719E-16,3.86469317895239E-16,1.0));
#304=DIRECTION('',(-0.64278760968654,0.766044443118978,-3.62458580068658E-16));
#305=DIRECTION('',(-1.03309251233719E-16,3.86469317895239E-16,1.0));
#306=DIRECTION('',(-0.64278760968654,0.766044443118977,-3.62458580068658E-16));
#307=CARTESIAN_POINT('',(0.0,0.0,0.0));
#310=CARTESIAN_POINT('',(9.62945961081264,4.9737991503207E-14,0.0));
#311=CARTESIAN_POINT('',(11.6148685729738,5.06261699229071E-14,6.18791010999751E-16));
#312=CARTESIAN_POINT('',(11.7169111060116,0.00409947974365288,6.27329799771471E-16));
#313=CARTESIAN_POINT('',(11.8788546283068,0.0232577077308491,6.34698684817788E-16));
#314=CARTESIAN_POINT('',(12.0915327082286,0.077386409384939,6.30221124815338E-16));
#315=CARTESIAN_POINT('',(12.3537493568732,0.195140457967927,5.99771791664649E-16));
#316=CARTESIAN_POINT('',(12.5927152464414,0.361342936216142,5.4324684599507E-16));
#317=CARTESIAN_POINT('',(12.7978887268383,0.567817639497027,4.63552416833E-16));
#318=CARTESIAN_POINT('',(12.9593872700224,0.805602852101671,3.64046554743757E-16));
#319=CARTESIAN_POINT('',(13.0496247960799,1.00565052370242,2.75618650237551E-16));
#320=CARTESIAN_POINT('',(13.0966131650673,1.16180696863181,2.04169493237002E-16));
#321=CARTESIAN_POINT('',(13.1183698644086,1.26158737911752,1.57660969783493E-16));
#322=CARTESIAN_POINT('',(13.4631325126115,3.21683351795379,8.0414547871469E-17));
#323=CARTESIAN_POINT('',(13.7990354108611,5.12183351795378,5.36096985809793E-17));
#324=CARTESIAN_POINT('',(14.1349383091107,7.02683351795377,5.36096985809794E-17));
#325=CARTESIAN_POINT('',(14.4708412073603,8.93183351795376,8.04145478714692E-17));
#326=CARTESIAN_POINT('',(14.8120234250281,10.8667740261898,1.25152289318562E-16));
#327=CARTESIAN_POINT('',(14.821148578867,10.9269078047434,1.07420436349238E-16));
#328=CARTESIAN_POINT('',(14.8310668725296,11.0220010116534,7.96454278578908E-17));
#329=CARTESIAN_POINT('',(14.8346422738346,11.150943916311,4.25644268036951E-17));
#330=CARTESIAN_POINT('',(14.82201709798,11.3191334503447,-4.78582940807496E-18));
#331=CARTESIAN_POINT('',(14.7903585512822,11.489886248105,-5.17492323542748E-17));
#332=CARTESIAN_POINT('',(14.7386797037158,11.6606046096894,-9.7524916454855E-17));
#333=CARTESIAN_POINT('',(14.6665656711588,11.8276389525018,-1.41044890662717E-16));
#334=CARTESIAN_POINT('',(14.5744521146103,11.9874213945993,-1.81314566736163E-16));
#335=CARTESIAN_POINT('',(14.4636112350312,12.1364108528063,-2.17396236312588E-16));
#336=CARTESIAN_POINT('',(14.3361325782218,12.2714395582758,-2.48507026158446E-16));
#337=CARTESIAN_POINT('',(14.1947729416819,12.3898996328157,-2.7406341827271E-16));
#338=CARTESIAN_POINT('',(14.0427986961988,12.4899233004159,-2.93723503733453E-16));
#339=CARTESIAN_POINT('',(13.8836478678326,12.5704619625494,-3.07389712898387E-16));
#340=CARTESIAN_POINT('',(13.720986637692,12.6312904569491,-3.15213357283999E-16));
#341=CARTESIAN_POINT('',(13.5575446193779,12.6729296341015,-3.17503965513633E-16));
#342=CARTESIAN_POINT('',(13.4299397852588,12.6917992515931,-3.15392160683127E-16));
#343=CARTESIAN_POINT('',(13.3345689642119,12.6985444011859,-3.11709870588106E-16));
#344=CARTESIAN_POINT('',(13.2737641865394,12.7,-3.08548711570377E-16));
#345=CARTESIAN_POINT('',(11.3089741020607,12.7,-1.84056012647607E-16));
#346=CARTESIAN_POINT('',(9.37458640641841,12.7,-1.22704008431738E-16));
#347=CARTESIAN_POINT('',(7.44019871077608,12.7,-1.22704008431738E-16));
#348=CARTESIAN_POINT('',(5.50581101513375,12.7,-1.84056012647607E-16));
#349=CARTESIAN_POINT('',(3.52040205297255,12.7,-3.23780580396351E-16));
#350=CARTESIAN_POINT('',(3.41835951993481,12.6959005202564,-3.55652086624206E-16));
#351=CARTESIAN_POINT('',(3.25641599763962,12.6767422922692,-3.99536698462479E-16));
#352=CARTESIAN_POINT('',(3.04373791771782,12.6226135906151,-4.4183841884686E-16));
#353=CARTESIAN_POINT('',(2.78152126907322,12.5048595420321,-4.66992937734322E-16));
#354=CARTESIAN_POINT('',(2.54255537950498,12.3386570637839,-4.58750173808009E-16));
#355=CARTESIAN_POINT('',(2.33738189910809,12.132182360503,-4.17920642541229E-16));
#356=CARTESIAN_POINT('',(2.17588335592402,11.8943971478984,-3.45950465377782E-16));
#357=CARTESIAN_POINT('',(2.08564582986647,11.6943494762976,-2.70180052415411E-16));
#358=CARTESIAN_POINT('',(2.03865746087914,11.5381930313682,-2.0321086817113E-16));
#359=CARTESIAN_POINT('',(2.0169007615378,11.4384126208825,-1.57660969783493E-16));
#360=CARTESIAN_POINT('',(1.67213811333492,9.48316648204626,-8.04145478714694E-17));
#361=CARTESIAN_POINT('',(1.3362352150853,7.57816648204627,-5.36096985809795E-17));
#362=CARTESIAN_POINT('',(1.00033231683568,5.67316648204628,-5.36096985809794E-17));
#363=CARTESIAN_POINT('',(0.664429418586054,3.76816648204629,-8.04145478714691E-17));
#364=CARTESIAN_POINT('',(0.32324720091829,1.83322597381024,-1.25152289318562E-16));
#365=CARTESIAN_POINT('',(0.314122047079405,1.77309219525663,-1.07420436349238E-16));
#366=CARTESIAN_POINT('',(0.304203753416822,1.67799898834664,-7.96454278578907E-17));
#367=CARTESIAN_POINT('',(0.300628352111808,1.54905608368901,-4.2564426803695E-17));
#368=CARTESIAN_POINT('',(0.313253527966393,1.38086654965535,4.785829408075E-18));
#369=CARTESIAN_POINT('',(0.344912074664221,1.21011375189501,5.1749232354275E-17));
#370=CARTESIAN_POINT('',(0.396590922230621,1.03939539031068,9.75249164548551E-17));
#371=CARTESIAN_POINT('',(0.468704954787563,0.872361047498281,1.41044890662717E-16));
#372=CARTESIAN_POINT('',(0.560818511336063,0.712578605400748,1.81314566736164E-16));
#373=CARTESIAN_POINT('',(0.671659390915193,0.563589147193746,2.17396236312588E-16));
#374=CARTESIAN_POINT('',(0.799138047724612,0.428560441724296,2.48507026158446E-16));
#375=CARTESIAN_POINT('',(0.940497684264444,0.310100367184402,2.7406341827271E-16));
#376=CARTESIAN_POINT('',(1.0924719297476,0.210076699584179,2.93723503733453E-16));
#377=CARTESIAN_POINT('',(1.25162275811376,0.129538037450657,3.07389712898386E-16));
#378=CARTESIAN_POINT('',(1.41428398825435,0.0687095430509199,3.15213357283999E-16));
#379=CARTESIAN_POINT('',(1.57772600656847,0.0270703658985898,3.17503965513634E-16));
#380=CARTESIAN_POINT('',(1.70533084068757,0.00820074840701235,3.15392160683127E-16));
#381=CARTESIAN_POINT('',(1.80070166173446,0.00145559881415736,3.11709870588106E-16));
#382=CARTESIAN_POINT('',(1.86150643940703,5.95079541199084E-14,3.08548711570377E-16));
#383=CARTESIAN_POINT('',(3.82629652388565,5.77315972805081E-14,1.84056012647607E-16));
#384=CARTESIAN_POINT('',(5.76068421952798,5.59552404411079E-14,9.20280063238036E-17));
#385=CARTESIAN_POINT('',(7.69507191517031,5.24025267623074E-14,3.06760021079345E-17));
#386=CARTESIAN_POINT('',(9.62945961081264,4.9737991503207E-14,0.0));
#387=CARTESIAN_POINT('',(11.6148685729738,5.06261699229071E-14,6.18791010999751E-16));
#388=CARTESIAN_POINT('',(0.0,0.0,0.0));
#389=CARTESIAN_POINT('',(7.56763531297323,6.35,0.0));
#390=CARTESIAN_POINT('',(7.5676353129732,12.7,-4.7625));
#391=CARTESIAN_POINT('',(3.57142331949142,12.7,-4.7625));
#392=CARTESIAN_POINT('',(13.2433617977031,12.7,-4.7625));
#393=CARTESIAN_POINT('',(13.2433617977031,11.1125,-4.7625));
#394=CARTESIAN_POINT('',(14.80674410561,10.8368335179538,-4.7625));
#395=CARTESIAN_POINT('',(13.8211645446007,5.24733407181504,-4.7625));
#396=CARTESIAN_POINT('',(13.1272296143619,1.3118335179538,-4.7625));
#397=CARTESIAN_POINT('',(11.563847306455,1.58750000000005,-4.7625));
#398=CARTESIAN_POINT('',(11.563847306455,4.85722573273506E-14,-4.7625));
#399=CARTESIAN_POINT('',(7.5676353129732,5.20417042793042E-14,-4.7625));
#400=CARTESIAN_POINT('',(1.89190882824331,5.72458747072346E-14,-4.7625));
#401=CARTESIAN_POINT('',(1.89190882824331,1.58750000000006,-4.7625));
#402=CARTESIAN_POINT('',(0.328526520336435,1.86316648204631,-4.7625));
#403=CARTESIAN_POINT('',(1.31410608134571,7.45266592818502,-4.7625));
#404=CARTESIAN_POINT('',(2.00804101158454,11.3881664820462,-4.7625));
#405=CARTESIAN_POINT('',(3.57142331949142,11.1125,-4.7625));
#406=CARTESIAN_POINT('',(7.52141400043606,5.82168798019793,-4.7625));
#407=CARTESIAN_POINT('',(7.56763531297323,12.7,-5.38749756651153E-15));
#408=CARTESIAN_POINT('',(13.2433617977031,12.7,-4.8011425131667E-15));
#409=CARTESIAN_POINT('',(3.57142331949142,12.7,-5.80034323532934E-15));
#410=CARTESIAN_POINT('',(13.2433617977031,12.7,-4.33680868994202E-15));
#411=CARTESIAN_POINT('',(3.57142331949142,12.7,-5.20417042793042E-15));
#412=CARTESIAN_POINT('',(7.5676353129732,12.7,-5.38749756651153E-15));
#413=CARTESIAN_POINT('',(0.328526520336434,1.86316648204631,-1.73472347597681E-15));
#414=CARTESIAN_POINT('',(0.328526520336434,1.86316648204631,-1.94726081765045E-15));
#415=CARTESIAN_POINT('',(1.3141060813457,7.452665928185,-4.00561136949636E-15));
#416=CARTESIAN_POINT('',(2.00804101158454,11.3881664820462,-5.45487168607555E-15));
#417=CARTESIAN_POINT('',(2.00804101158454,11.3881664820462,-5.20417042793042E-15));
#418=CARTESIAN_POINT('',(1.31410608134571,7.45266592818502,-4.00561136949636E-15));
#419=CARTESIAN_POINT('',(11.563847306455,5.11743425413158E-14,-3.85185988877447E-31));
#420=CARTESIAN_POINT('',(11.563847306455,5.11743425413158E-14,-6.6491560424213E-17));
#421=CARTESIAN_POINT('',(7.56763531297322,5.46437894932694E-14,-4.79337229242022E-16));
#422=CARTESIAN_POINT('',(1.89190882824331,5.89805981832114E-14,-1.06569228258686E-15));
#423=CARTESIAN_POINT('',(1.89190882824331,5.89805981832114E-14,-8.67361737988404E-16));
#424=CARTESIAN_POINT('',(7.5676353129732,5.3776427755281E-14,-4.79337229242025E-16));
#425=CARTESIAN_POINT('',(14.80674410561,10.8368335179538,-3.46944695195361E-15));
#426=CARTESIAN_POINT('',(14.80674410561,10.8368335179538,-3.91957397810311E-15));
#427=CARTESIAN_POINT('',(13.8211645446007,5.24733407181502,-1.86122342625719E-15));
#428=CARTESIAN_POINT('',(13.1272296143619,1.3118335179538,-4.11963109678007E-16));
#429=CARTESIAN_POINT('',(13.1272296143619,1.3118335179538,0.0));
#430=CARTESIAN_POINT('',(13.8211645446007,5.24733407181504,-1.86122342625719E-15));
#431=CARTESIAN_POINT('',(13.2433617977031,11.1125,-4.18762247100801E-15));
#432=CARTESIAN_POINT('',(3.57142331949142,11.1125,-5.18682319317065E-15));
#433=CARTESIAN_POINT('',(1.89190882824331,1.58750000000006,-1.67921232474555E-15));
#434=CARTESIAN_POINT('',(11.563847306455,1.58750000000005,-6.80011602582904E-16));
#435=CARTESIAN_POINT('',(7.56763531297323,6.35,-2.93341739787677E-15));
#436=CARTESIAN_POINT('',(13.2433617977031,11.1125,-3.46944695195361E-15));
#437=CARTESIAN_POINT('',(11.563847306455,1.58750000000005,0.0));
#438=CARTESIAN_POINT('',(1.89190882824331,1.58750000000006,-1.73472347597681E-15));
#439=CARTESIAN_POINT('',(3.57142331949142,11.1125,-5.20417042793042E-15));
#440=MECHANICAL_DESIGN_GEOMETRIC_PRESENTATION_REPRESENTATION('',(#212,#213,#214,
     #215),#441);
#441=(GEOMETRIC_REPRESENTATION_CONTEXT(3)GLOBAL_UNCERTAINTY_ASSIGNED_CONTEXT((#442))
     GLOBAL_UNIT_ASSIGNED_CONTEXT((#448,#444,#443))REPRESENTATION_CONTEXT('CNGN120416',
     'TOP_LEVEL_ASSEMBLY_PART'));
#442=UNCERTAINTY_MEASURE_WITH_UNIT(LENGTH_MEASURE(2.0E-5),#448,'DISTANCE_ACCURACY_VALUE',
     'Maximum Tolerance applied to model');
#443=(NAMED_UNIT(*)SI_UNIT($,.STERADIAN.)SOLID_ANGLE_UNIT());
#444=(CONVERSION_BASED_UNIT('DEGREE',#446)NAMED_UNIT(#445)PLANE_ANGLE_UNIT());
#445=DIMENSIONAL_EXPONENTS(0.0,0.0,0.0,0.0,0.0,0.0,0.0);
#446=PLANE_ANGLE_MEASURE_WITH_UNIT(PLANE_ANGLE_MEASURE(0.0174532925),#447);
#447=(NAMED_UNIT(*)PLANE_ANGLE_UNIT()SI_UNIT($,.RADIAN.));
#448=(LENGTH_UNIT()NAMED_UNIT(*)SI_UNIT(.MILLI.,.METRE.));
#449=CONSTRUCTIVE_GEOMETRY_REPRESENTATION('supplemental geometry',(#229,#230),#441);
#450=CONSTRUCTIVE_GEOMETRY_REPRESENTATION_RELATIONSHIP('supplemental geometry','contains PCS and MCS coordinate systems',
     #24,#449);
ENDSEC;
END-ISO-10303-21;
