ISO-10303-21;
HEADER;
FILE_DESCRIPTION(
/* description */ (''),
/* implementation_level */ '2;1');
FILE_NAME(
/* name */ 'CNGN120412.stp',
/* time_stamp */ '2017-03-21T10:53:54',
/* author */ ('Sandvik Coromant R&D'),
/* organization */ ('Sandvik Machining Solutions'),
/* preprocessor_version */ 'ST-DEVELOPER v15',
/* originating_system */ 'SIEMENS PLM Software NX v8.5.3.3(64 bits)',
/* authorization */ '');
FILE_SCHEMA(('AUTOMOTIVE_DESIGN'));
ENDSEC;
DATA;
#10=GEOMETRICALLY_BOUNDED_WIREFRAME_SHAPE_REPRESENTATION('IsoTurningInsert-None',
     (#25),#425);
#11=SHAPE_REPRESENTATION_RELATIONSHIP('None','relationship between IsoTurningInsert-None and IsoTurningInsert-None',
     #24,#13);
#12=SHAPE_REPRESENTATION_RELATIONSHIP('None','relationship between IsoTurningInsert-None and IsoTurningInsert-None',
     #24,#10);
#13=ADVANCED_BREP_SHAPE_REPRESENTATION('IsoTurningInsert-None',(#31),#425);
#14=SHAPE_DEFINITION_REPRESENTATION(#15,#24);
#15=PRODUCT_DEFINITION_SHAPE('','',#16);
#16=PRODUCT_DEFINITION(' ','',#18,#17);
#17=PRODUCT_DEFINITION_CONTEXT('part definition',#23,'design');
#18=PRODUCT_DEFINITION_FORMATION_WITH_SPECIFIED_SOURCE(' ',' ',#20,.NOT_KNOWN.);
#19=PRODUCT_RELATED_PRODUCT_CATEGORY('part','',(#20));
#20=PRODUCT('IsoTurningInsert','IsoTurningInsert',' ',(#21));
#21=PRODUCT_CONTEXT(' ',#23,'mechanical');
#22=APPLICATION_PROTOCOL_DEFINITION('international standard','automotive_design',
     2010,#23);
#23=APPLICATION_CONTEXT('core data for automotive mechanical design processes');
#24=SHAPE_REPRESENTATION('IsoTurningInsert-None',(#228),#425);
#25=GEOMETRIC_CURVE_SET('geometric curve set',(#208));
#26=SURFACE_STYLE_USAGE(.BOTH.,#27);
#27=SURFACE_SIDE_STYLE('',(#28));
#28=SURFACE_STYLE_FILL_AREA(#29);
#29=FILL_AREA_STYLE('',(#30));
#30=FILL_AREA_STYLE_COLOUR('',#227);
#31=MANIFOLD_SOLID_BREP('CUT',#32);
#32=CLOSED_SHELL('',(#37,#38,#39,#40,#41,#42,#43,#44,#45,#46));
#33=CYLINDRICAL_SURFACE('',#245,1.190625);
#34=CYLINDRICAL_SURFACE('',#246,1.190625);
#35=CYLINDRICAL_SURFACE('',#247,1.190625);
#36=CYLINDRICAL_SURFACE('',#248,1.190625);
#37=ADVANCED_FACE('',(#53),#47,.F.);
#38=ADVANCED_FACE('',(#54),#48,.T.);
#39=ADVANCED_FACE('',(#55),#49,.T.);
#40=ADVANCED_FACE('',(#56),#50,.T.);
#41=ADVANCED_FACE('',(#57),#51,.T.);
#42=ADVANCED_FACE('',(#58),#52,.T.);
#43=ADVANCED_FACE('',(#59),#33,.T.);
#44=ADVANCED_FACE('',(#60),#34,.T.);
#45=ADVANCED_FACE('',(#61),#35,.T.);
#46=ADVANCED_FACE('',(#62),#36,.T.);
#47=PLANE('',#235);
#48=PLANE('',#236);
#49=PLANE('',#237);
#50=PLANE('',#238);
#51=PLANE('',#239);
#52=PLANE('',#244);
#53=FACE_OUTER_BOUND('',#63,.T.);
#54=FACE_OUTER_BOUND('',#64,.T.);
#55=FACE_OUTER_BOUND('',#65,.T.);
#56=FACE_OUTER_BOUND('',#66,.T.);
#57=FACE_OUTER_BOUND('',#67,.T.);
#58=FACE_OUTER_BOUND('',#68,.T.);
#59=FACE_OUTER_BOUND('',#69,.T.);
#60=FACE_OUTER_BOUND('',#70,.T.);
#61=FACE_OUTER_BOUND('',#71,.T.);
#62=FACE_OUTER_BOUND('',#72,.T.);
#63=EDGE_LOOP('',(#81,#82,#83,#84,#85,#86,#87,#88));
#64=EDGE_LOOP('',(#89,#90,#91,#92));
#65=EDGE_LOOP('',(#93,#94,#95,#96));
#66=EDGE_LOOP('',(#97,#98,#99,#100));
#67=EDGE_LOOP('',(#101,#102,#103,#104));
#68=EDGE_LOOP('',(#105,#106,#107,#108,#109,#110,#111,#112));
#69=EDGE_LOOP('',(#113,#114,#115,#116));
#70=EDGE_LOOP('',(#117,#118,#119,#120));
#71=EDGE_LOOP('',(#121,#122,#123,#124));
#72=EDGE_LOOP('',(#125,#126,#127,#128));
#73=CIRCLE('',#231,1.190625);
#74=CIRCLE('',#232,1.190625);
#75=CIRCLE('',#233,1.190625);
#76=CIRCLE('',#234,1.190625);
#77=CIRCLE('',#240,1.190625);
#78=CIRCLE('',#241,1.190625);
#79=CIRCLE('',#242,1.190625);
#80=CIRCLE('',#243,1.190625);
#81=ORIENTED_EDGE('',*,*,#145,.T.);
#82=ORIENTED_EDGE('',*,*,#146,.T.);
#83=ORIENTED_EDGE('',*,*,#147,.T.);
#84=ORIENTED_EDGE('',*,*,#148,.T.);
#85=ORIENTED_EDGE('',*,*,#149,.T.);
#86=ORIENTED_EDGE('',*,*,#150,.T.);
#87=ORIENTED_EDGE('',*,*,#151,.T.);
#88=ORIENTED_EDGE('',*,*,#152,.T.);
#89=ORIENTED_EDGE('',*,*,#153,.F.);
#90=ORIENTED_EDGE('',*,*,#154,.T.);
#91=ORIENTED_EDGE('',*,*,#145,.F.);
#92=ORIENTED_EDGE('',*,*,#155,.T.);
#93=ORIENTED_EDGE('',*,*,#151,.F.);
#94=ORIENTED_EDGE('',*,*,#156,.T.);
#95=ORIENTED_EDGE('',*,*,#157,.F.);
#96=ORIENTED_EDGE('',*,*,#158,.T.);
#97=ORIENTED_EDGE('',*,*,#149,.F.);
#98=ORIENTED_EDGE('',*,*,#159,.T.);
#99=ORIENTED_EDGE('',*,*,#160,.F.);
#100=ORIENTED_EDGE('',*,*,#161,.T.);
#101=ORIENTED_EDGE('',*,*,#147,.F.);
#102=ORIENTED_EDGE('',*,*,#162,.T.);
#103=ORIENTED_EDGE('',*,*,#163,.F.);
#104=ORIENTED_EDGE('',*,*,#164,.T.);
#105=ORIENTED_EDGE('',*,*,#163,.T.);
#106=ORIENTED_EDGE('',*,*,#165,.T.);
#107=ORIENTED_EDGE('',*,*,#153,.T.);
#108=ORIENTED_EDGE('',*,*,#166,.T.);
#109=ORIENTED_EDGE('',*,*,#157,.T.);
#110=ORIENTED_EDGE('',*,*,#167,.T.);
#111=ORIENTED_EDGE('',*,*,#160,.T.);
#112=ORIENTED_EDGE('',*,*,#168,.T.);
#113=ORIENTED_EDGE('',*,*,#146,.F.);
#114=ORIENTED_EDGE('',*,*,#154,.F.);
#115=ORIENTED_EDGE('',*,*,#165,.F.);
#116=ORIENTED_EDGE('',*,*,#162,.F.);
#117=ORIENTED_EDGE('',*,*,#148,.F.);
#118=ORIENTED_EDGE('',*,*,#164,.F.);
#119=ORIENTED_EDGE('',*,*,#168,.F.);
#120=ORIENTED_EDGE('',*,*,#159,.F.);
#121=ORIENTED_EDGE('',*,*,#150,.F.);
#122=ORIENTED_EDGE('',*,*,#161,.F.);
#123=ORIENTED_EDGE('',*,*,#167,.F.);
#124=ORIENTED_EDGE('',*,*,#156,.F.);
#125=ORIENTED_EDGE('',*,*,#152,.F.);
#126=ORIENTED_EDGE('',*,*,#158,.F.);
#127=ORIENTED_EDGE('',*,*,#166,.F.);
#128=ORIENTED_EDGE('',*,*,#155,.F.);
#129=VERTEX_POINT('',#375);
#130=VERTEX_POINT('',#376);
#131=VERTEX_POINT('',#378);
#132=VERTEX_POINT('',#380);
#133=VERTEX_POINT('',#382);
#134=VERTEX_POINT('',#384);
#135=VERTEX_POINT('',#386);
#136=VERTEX_POINT('',#388);
#137=VERTEX_POINT('',#392);
#138=VERTEX_POINT('',#393);
#139=VERTEX_POINT('',#398);
#140=VERTEX_POINT('',#400);
#141=VERTEX_POINT('',#404);
#142=VERTEX_POINT('',#406);
#143=VERTEX_POINT('',#410);
#144=VERTEX_POINT('',#412);
#145=EDGE_CURVE('',#129,#130,#169,.T.);
#146=EDGE_CURVE('',#130,#131,#73,.T.);
#147=EDGE_CURVE('',#131,#132,#170,.T.);
#148=EDGE_CURVE('',#132,#133,#74,.T.);
#149=EDGE_CURVE('',#133,#134,#171,.T.);
#150=EDGE_CURVE('',#134,#135,#75,.T.);
#151=EDGE_CURVE('',#135,#136,#172,.T.);
#152=EDGE_CURVE('',#136,#129,#76,.T.);
#153=EDGE_CURVE('',#137,#138,#173,.T.);
#154=EDGE_CURVE('',#137,#130,#174,.T.);
#155=EDGE_CURVE('',#129,#138,#175,.T.);
#156=EDGE_CURVE('',#135,#139,#176,.T.);
#157=EDGE_CURVE('',#140,#139,#177,.T.);
#158=EDGE_CURVE('',#140,#136,#178,.T.);
#159=EDGE_CURVE('',#133,#141,#179,.T.);
#160=EDGE_CURVE('',#142,#141,#180,.T.);
#161=EDGE_CURVE('',#142,#134,#181,.T.);
#162=EDGE_CURVE('',#131,#143,#182,.T.);
#163=EDGE_CURVE('',#144,#143,#183,.T.);
#164=EDGE_CURVE('',#144,#132,#184,.T.);
#165=EDGE_CURVE('',#143,#137,#77,.T.);
#166=EDGE_CURVE('',#138,#140,#78,.T.);
#167=EDGE_CURVE('',#139,#142,#79,.T.);
#168=EDGE_CURVE('',#141,#144,#80,.T.);
#169=LINE('',#374,#185);
#170=LINE('',#379,#186);
#171=LINE('',#383,#187);
#172=LINE('',#387,#188);
#173=LINE('',#391,#189);
#174=LINE('',#394,#190);
#175=LINE('',#395,#191);
#176=LINE('',#397,#192);
#177=LINE('',#399,#193);
#178=LINE('',#401,#194);
#179=LINE('',#403,#195);
#180=LINE('',#405,#196);
#181=LINE('',#407,#197);
#182=LINE('',#409,#198);
#183=LINE('',#411,#199);
#184=LINE('',#413,#200);
#185=VECTOR('',#255,1.0);
#186=VECTOR('',#258,1.0);
#187=VECTOR('',#261,1.0);
#188=VECTOR('',#264,1.0);
#189=VECTOR('',#269,1.0);
#190=VECTOR('',#270,1.0);
#191=VECTOR('',#271,1.0);
#192=VECTOR('',#274,1.0);
#193=VECTOR('',#275,1.0);
#194=VECTOR('',#276,1.0);
#195=VECTOR('',#279,1.0);
#196=VECTOR('',#280,1.0);
#197=VECTOR('',#281,1.0);
#198=VECTOR('',#284,1.0);
#199=VECTOR('',#285,1.0);
#200=VECTOR('',#286,1.0);
#201=CURVE_STYLE('',#205,POSITIVE_LENGTH_MEASURE(0.18),#204);
#202=CURVE_STYLE('',#206,POSITIVE_LENGTH_MEASURE(0.18),#226);
#203=CURVE_STYLE('',#207,POSITIVE_LENGTH_MEASURE(0.18),#226);
#204=DRAUGHTING_PRE_DEFINED_COLOUR('blue');
#205=DRAUGHTING_PRE_DEFINED_CURVE_FONT('continuous');
#206=DRAUGHTING_PRE_DEFINED_CURVE_FONT('continuous');
#207=DRAUGHTING_PRE_DEFINED_CURVE_FONT('continuous');
#208=B_SPLINE_CURVE_WITH_KNOTS('CUTTING EDGE LINE',5,(#310,#311,#312,#313,#314,#315,
     #316,#317,#318,#319,#320,#321,#322,#323,#324,#325,#326,#327,#328,#329,#330,
     #331,#332,#333,#334,#335,#336,#337,#338,#339,#340,#341,#342,#343,#344,#345,
     #346,#347,#348,#349,#350,#351,#352,#353,#354,#355,#356,#357,#358,#359,#360,
     #361,#362,#363,#364,#365,#366,#367,#368,#369,#370,#371),.UNSPECIFIED.,.T.,.F.,
     (2,4,1,1,1,1,1,1,1,4,4,1,1,1,1,1,1,1,4,4,1,1,1,1,1,1,1,4,4,1,1,1,1,1,1,1,4,
     4,1,1),(-0.2121354728,0.0,0.00420716968750001,0.00841433937500002,0.0126215090625,
     0.01682867875,0.0210358484374999,0.025243018125,0.0294501878125,0.0336573575,
     0.2457928303,0.2510517924125,0.256310754525,0.2615697166375,0.26682867875,0.2720876408625,
     0.277346602975,0.2826055650875,0.2878645272,0.5,0.5042071696875,0.508414339375,
     0.5126215090625,0.51682867875,0.5210358484375,0.525243018125,0.5294501878125,
     0.5336573575,0.7457928303,0.7510517924125,0.756310754525,0.7615697166375,0.76682867875,
     0.7720876408625,0.777346602975,0.7826055650875,0.7878645272,1.0,1.0042071696875,
     1.008414339375),.UNSPECIFIED.);
#209=PRESENTATION_LAYER_ASSIGNMENT('1','Layer 1',(#208,#229,#230,#31));
#212=STYLED_ITEM('',(#218),#208);
#213=STYLED_ITEM('',(#219),#229);
#214=STYLED_ITEM('',(#220),#230);
#215=STYLED_ITEM('',(#221),#31);
#216=PRESENTATION_STYLE_ASSIGNMENT((#222));
#217=PRESENTATION_STYLE_ASSIGNMENT((#223));
#218=PRESENTATION_STYLE_ASSIGNMENT((#201));
#219=PRESENTATION_STYLE_ASSIGNMENT((#202));
#220=PRESENTATION_STYLE_ASSIGNMENT((#203));
#221=PRESENTATION_STYLE_ASSIGNMENT((#26));
#222=POINT_STYLE('',#224,POSITIVE_LENGTH_MEASURE(3.0),#226);
#223=POINT_STYLE('',#225,POSITIVE_LENGTH_MEASURE(3.0),#226);
#224=PRE_DEFINED_POINT_MARKER_SYMBOL('plus');
#225=PRE_DEFINED_POINT_MARKER_SYMBOL('plus');
#226=COLOUR_RGB('Medium Maroon',0.6,0.4,0.4);
#227=COLOUR_RGB('IsoInsertColor',0.8,0.8,0.8);
#228=AXIS2_PLACEMENT_3D('',#307,#249,#250);
#229=AXIS2_PLACEMENT_3D('PCS',#372,#251,#252);
#230=AXIS2_PLACEMENT_3D('MCS',#373,#253,#254);
#231=AXIS2_PLACEMENT_3D('',#377,#256,#257);
#232=AXIS2_PLACEMENT_3D('',#381,#259,#260);
#233=AXIS2_PLACEMENT_3D('',#385,#262,#263);
#234=AXIS2_PLACEMENT_3D('',#389,#265,#266);
#235=AXIS2_PLACEMENT_3D('',#390,#267,#268);
#236=AXIS2_PLACEMENT_3D('',#396,#272,#273);
#237=AXIS2_PLACEMENT_3D('',#402,#277,#278);
#238=AXIS2_PLACEMENT_3D('',#408,#282,#283);
#239=AXIS2_PLACEMENT_3D('',#414,#287,#288);
#240=AXIS2_PLACEMENT_3D('',#415,#289,#290);
#241=AXIS2_PLACEMENT_3D('',#416,#291,#292);
#242=AXIS2_PLACEMENT_3D('',#417,#293,#294);
#243=AXIS2_PLACEMENT_3D('',#418,#295,#296);
#244=AXIS2_PLACEMENT_3D('',#419,#297,#298);
#245=AXIS2_PLACEMENT_3D('',#420,#299,#300);
#246=AXIS2_PLACEMENT_3D('',#421,#301,#302);
#247=AXIS2_PLACEMENT_3D('',#422,#303,#304);
#248=AXIS2_PLACEMENT_3D('',#423,#305,#306);
#249=DIRECTION('',(0.0,0.0,1.0));
#250=DIRECTION('',(1.0,0.0,0.0));
#251=DIRECTION('',(0.0,0.0,1.0));
#252=DIRECTION('',(1.0,0.0,0.0));
#253=DIRECTION('',(0.0,0.0,1.0));
#254=DIRECTION('',(1.0,0.0,0.0));
#255=DIRECTION('',(1.0,6.10622663543836E-16,0.0));
#256=DIRECTION('',(0.0,0.0,-1.0));
#257=DIRECTION('',(-0.766044443118978,-0.64278760968654,0.0));
#258=DIRECTION('',(-0.173648177666928,-0.984807753012209,0.0));
#259=DIRECTION('',(0.0,0.0,-1.0));
#260=DIRECTION('',(-0.766044443118978,-0.64278760968654,0.0));
#261=DIRECTION('',(-1.0,7.7715611723761E-16,0.0));
#262=DIRECTION('',(0.0,0.0,-1.0));
#263=DIRECTION('',(-0.766044443118978,-0.64278760968654,0.0));
#264=DIRECTION('',(0.17364817766693,0.984807753012208,0.0));
#265=DIRECTION('',(0.0,0.0,-1.0));
#266=DIRECTION('',(-0.766044443118978,-0.64278760968654,0.0));
#267=DIRECTION('',(0.0,0.0,1.0));
#268=DIRECTION('',(-0.766044443118978,-0.64278760968654,0.0));
#269=DIRECTION('',(-1.0,-6.10622663543836E-16,-1.03309251233719E-16));
#270=DIRECTION('',(1.03309251233719E-16,-3.86469317895239E-16,-1.0));
#271=DIRECTION('',(-1.03309251233719E-16,3.86469317895239E-16,1.0));
#272=DIRECTION('',(-6.10622663543836E-16,1.0,-3.86469317895239E-16));
#273=DIRECTION('',(-1.0,-6.10622663543836E-16,0.0));
#274=DIRECTION('',(-1.03309251233719E-16,3.86469317895239E-16,1.0));
#275=DIRECTION('',(-0.17364817766693,-0.984807753012208,3.626585173517E-16));
#276=DIRECTION('',(1.03309251233719E-16,-3.86469317895239E-16,-1.0));
#277=DIRECTION('',(-0.984807753012208,0.17364817766693,-1.68849444349542E-16));
#278=DIRECTION('',(-0.17364817766693,-0.984807753012208,0.0));
#279=DIRECTION('',(-1.03309251233719E-16,3.86469317895239E-16,1.0));
#280=DIRECTION('',(1.0,-7.7715611723761E-16,1.03309251233719E-16));
#281=DIRECTION('',(1.03309251233719E-16,-3.86469317895239E-16,-1.0));
#282=DIRECTION('',(-7.7715611723761E-16,-1.0,3.86469317895238E-16));
#283=DIRECTION('',(1.0,-7.7715611723761E-16,0.0));
#284=DIRECTION('',(-1.03309251233719E-16,3.86469317895239E-16,1.0));
#285=DIRECTION('',(0.173648177666928,0.984807753012209,-3.62658517351701E-16));
#286=DIRECTION('',(1.03309251233719E-16,-3.86469317895239E-16,-1.0));
#287=DIRECTION('',(0.984807753012209,-0.173648177666928,1.68849444349541E-16));
#288=DIRECTION('',(0.173648177666928,0.984807753012209,0.0));
#289=DIRECTION('',(-1.03309251233719E-16,3.86469317895239E-16,1.0));
#290=DIRECTION('',(-0.64278760968654,0.766044443118978,-3.62458580068658E-16));
#291=DIRECTION('',(-1.03309251233719E-16,3.86469317895239E-16,1.0));
#292=DIRECTION('',(-0.64278760968654,0.766044443118978,-3.62458580068658E-16));
#293=DIRECTION('',(-1.03309251233719E-16,3.86469317895239E-16,1.0));
#294=DIRECTION('',(-0.64278760968654,0.766044443118978,-3.62458580068658E-16));
#295=DIRECTION('',(-1.03309251233719E-16,3.86469317895239E-16,1.0));
#296=DIRECTION('',(-0.64278760968654,0.766044443118978,-3.62458580068658E-16));
#297=DIRECTION('',(-1.03309251233719E-16,3.86469317895239E-16,1.0));
#298=DIRECTION('',(-0.64278760968654,0.766044443118978,-3.62458580068658E-16));
#299=DIRECTION('',(-1.03309251233719E-16,3.86469317895239E-16,1.0));
#300=DIRECTION('',(-0.64278760968654,0.766044443118978,-3.62458580068658E-16));
#301=DIRECTION('',(-1.03309251233719E-16,3.86469317895239E-16,1.0));
#302=DIRECTION('',(-0.64278760968654,0.766044443118978,-3.62458580068658E-16));
#303=DIRECTION('',(-1.03309251233719E-16,3.86469317895239E-16,1.0));
#304=DIRECTION('',(-0.64278760968654,0.766044443118978,-3.62458580068658E-16));
#305=DIRECTION('',(-1.03309251233719E-16,3.86469317895239E-16,1.0));
#306=DIRECTION('',(-0.64278760968654,0.766044443118978,-3.62458580068658E-16));
#307=CARTESIAN_POINT('',(0.0,0.0,0.0));
#310=CARTESIAN_POINT('',(9.80127830229927,5.24025267623074E-14,-1.97215226305253E-32));
#311=CARTESIAN_POINT('',(11.9351309224676,5.06261699229071E-14,4.64093258249813E-16));
#312=CARTESIAN_POINT('',(12.0116628222459,0.00307460980775254,4.70497349828604E-16));
#313=CARTESIAN_POINT('',(12.1331204639673,0.0174432807981511,4.76024013613341E-16));
#314=CARTESIAN_POINT('',(12.2926290239087,0.0580398070387114,4.72665843611504E-16));
#315=CARTESIAN_POINT('',(12.4892915103921,0.14635534347596,4.49828843748486E-16));
#316=CARTESIAN_POINT('',(12.6685159275683,0.271007202162116,4.07435134496304E-16));
#317=CARTESIAN_POINT('',(12.822396037866,0.425863229622783,3.4766431262475E-16));
#318=CARTESIAN_POINT('',(12.943519945254,0.604202139076263,2.73034916057818E-16));
#319=CARTESIAN_POINT('',(13.0111980897972,0.754237892776827,2.06713987678163E-16));
#320=CARTESIAN_POINT('',(13.0464393665377,0.871355226473867,1.53127119927752E-16));
#321=CARTESIAN_POINT('',(13.0627568910437,0.946190534338149,1.1824572733762E-16));
#322=CARTESIAN_POINT('',(13.4332965099457,3.04762513846535,6.03109109036019E-17));
#323=CARTESIAN_POINT('',(13.7971913163828,5.11137513846534,4.02072739357346E-17));
#324=CARTESIAN_POINT('',(14.1610861228199,7.17512513846533,4.02072739357347E-17));
#325=CARTESIAN_POINT('',(14.524980929257,9.23887513846532,6.03109109036021E-17));
#326=CARTESIAN_POINT('',(14.8967947148213,11.3475359008194,8.72102491385069E-17));
#327=CARTESIAN_POINT('',(14.9083322180835,11.4381157117721,6.06305616321944E-17));
#328=CARTESIAN_POINT('',(14.9137078943771,11.5884281670748,1.73331160778434E-17));
#329=CARTESIAN_POINT('',(14.8878535539902,11.7914580452034,-3.92012574752331E-17));
#330=CARTESIAN_POINT('',(14.795391984268,12.0502244937314,-1.07754492081623E-16));
#331=CARTESIAN_POINT('',(14.6408884221314,12.2851640751181,-1.65844369573731E-16));
#332=CARTESIAN_POINT('',(14.4363473629003,12.4781172111481,-2.08984510894307E-16));
#333=CARTESIAN_POINT('',(14.1975679412566,12.6141084040943,-2.33822263903044E-16));
#334=CARTESIAN_POINT('',(14.0021121022771,12.6748257273054,-2.39684685309807E-16));
#335=CARTESIAN_POINT('',(13.8531497545272,12.6956332035577,-2.36870457126149E-16));
#336=CARTESIAN_POINT('',(13.7619425880183,12.7,-2.32753051546056E-16));
#337=CARTESIAN_POINT('',(11.6207523344847,12.7,-1.38042009485705E-16));
#338=CARTESIAN_POINT('',(9.52516566420552,12.7,-9.20280063238036E-17));
#339=CARTESIAN_POINT('',(7.42957899392633,12.7,-9.20280063238036E-17));
#340=CARTESIAN_POINT('',(5.33399232364713,12.7,-1.38042009485705E-16));
#341=CARTESIAN_POINT('',(3.20013970347879,12.7,-2.42835435297263E-16));
#342=CARTESIAN_POINT('',(3.12360780370049,12.6969253901923,-2.66739064968154E-16));
#343=CARTESIAN_POINT('',(3.00215016197909,12.6825567192019,-2.99652523846859E-16));
#344=CARTESIAN_POINT('',(2.84264160203774,12.6419601929613,-3.31378814135145E-16));
#345=CARTESIAN_POINT('',(2.64597911555429,12.5536446565241,-3.50244703300742E-16));
#346=CARTESIAN_POINT('',(2.46675469837811,12.4289927978379,-3.44062630356007E-16));
#347=CARTESIAN_POINT('',(2.31287458808044,12.2741367703773,-3.13440481905922E-16));
#348=CARTESIAN_POINT('',(2.19175068069239,12.0957978609238,-2.59462849033337E-16));
#349=CARTESIAN_POINT('',(2.12407253614922,11.9457621072232,-2.02635039311558E-16));
#350=CARTESIAN_POINT('',(2.08883125940873,11.8286447735262,-1.52408151128348E-16));
#351=CARTESIAN_POINT('',(2.07251373490272,11.7538094656619,-1.1824572733762E-16));
#352=CARTESIAN_POINT('',(1.70197411600069,9.65237486153469,-6.03109109036021E-17));
#353=CARTESIAN_POINT('',(1.3380793095636,7.58862486153471,-4.02072739357346E-17));
#354=CARTESIAN_POINT('',(0.974184503126505,5.52487486153472,-4.02072739357345E-17));
#355=CARTESIAN_POINT('',(0.610289696689415,3.46112486153473,-6.03109109036016E-17));
#356=CARTESIAN_POINT('',(0.238475911125112,1.35246409918064,-8.72102491385062E-17));
#357=CARTESIAN_POINT('',(0.226938407862884,1.261884288228,-6.06305616321937E-17));
#358=CARTESIAN_POINT('',(0.221562731569273,1.11157183292523,-1.73331160778443E-17));
#359=CARTESIAN_POINT('',(0.247417071956229,0.908541954796595,3.92012574752397E-17));
#360=CARTESIAN_POINT('',(0.339878641678361,0.649775506268652,1.07754492081612E-16));
#361=CARTESIAN_POINT('',(0.49438220381504,0.414835924881868,1.65844369573752E-16));
#362=CARTESIAN_POINT('',(0.698923263046082,0.221882788851985,2.08984510894297E-16));
#363=CARTESIAN_POINT('',(0.937702684689852,0.0858915959057693,2.3382226390305E-16));
#364=CARTESIAN_POINT('',(1.13315852366933,0.0251742726946969,2.39684685309805E-16));
#365=CARTESIAN_POINT('',(1.2821208714192,0.00436679644235305,2.36870457126149E-16));
#366=CARTESIAN_POINT('',(1.37332803792806,5.86197757002083E-14,2.32753051546056E-16));
#367=CARTESIAN_POINT('',(3.51451829146168,5.6843418860808E-14,1.38042009485705E-16));
#368=CARTESIAN_POINT('',(5.61010496174088,5.59552404411079E-14,6.90210047428526E-17));
#369=CARTESIAN_POINT('',(7.70569163202007,5.50670620214078E-14,2.30070015809509E-17));
#370=CARTESIAN_POINT('',(9.80127830229927,5.24025267623074E-14,-1.97215226305253E-32));
#371=CARTESIAN_POINT('',(11.9351309224676,5.06261699229071E-14,4.64093258249813E-16));
#372=CARTESIAN_POINT('',(0.0,0.0,0.0));
#373=CARTESIAN_POINT('',(7.56763531297323,6.35,0.0));
#374=CARTESIAN_POINT('',(7.5676353129732,12.7,-4.7625));
#375=CARTESIAN_POINT('',(3.23840565336794,12.7,-4.7625));
#376=CARTESIAN_POINT('',(13.7163390047639,12.7,-4.7625));
#377=CARTESIAN_POINT('',(13.7163390047639,11.509375,-4.7625));
#378=CARTESIAN_POINT('',(14.8888757356941,11.3026251384653,-4.7625));
#379=CARTESIAN_POINT('',(13.8211645446007,5.24733407181504,-4.7625));
#380=CARTESIAN_POINT('',(13.0694017035086,0.98387513846536,-4.7625));
#381=CARTESIAN_POINT('',(11.8968649725785,1.19062500000005,-4.7625));
#382=CARTESIAN_POINT('',(11.8968649725785,4.9439619065339E-14,-4.7625));
#383=CARTESIAN_POINT('',(7.5676353129732,5.29090660172926E-14,-4.7625));
#384=CARTESIAN_POINT('',(1.41893162118249,5.72458747072346E-14,-4.7625));
#385=CARTESIAN_POINT('',(1.41893162118249,1.19062500000006,-4.7625));
#386=CARTESIAN_POINT('',(0.246394890252326,1.39737486153474,-4.7625));
#387=CARTESIAN_POINT('',(1.3141060813457,7.45266592818502,-4.7625));
#388=CARTESIAN_POINT('',(2.06586892243778,11.7161248615347,-4.7625));
#389=CARTESIAN_POINT('',(3.23840565336794,11.509375,-4.7625));
#390=CARTESIAN_POINT('',(7.52141400043606,5.82168798019793,-4.7625));
#391=CARTESIAN_POINT('',(7.56763531297323,12.7,-5.38749756651153E-15));
#392=CARTESIAN_POINT('',(13.7163390047639,12.7,-4.75227959205463E-15));
#393=CARTESIAN_POINT('',(3.23840565336794,12.7,-5.83474704106416E-15));
#394=CARTESIAN_POINT('',(13.7163390047639,12.7,-4.33680868994202E-15));
#395=CARTESIAN_POINT('',(3.23840565336794,12.7,-5.20417042793042E-15));
#396=CARTESIAN_POINT('',(7.5676353129732,12.7,-5.38749756651153E-15));
#397=CARTESIAN_POINT('',(0.246394890252325,1.39737486153474,-1.73472347597681E-15));
#398=CARTESIAN_POINT('',(0.246394890252325,1.39737486153474,-1.77573160499662E-15));
#399=CARTESIAN_POINT('',(1.3141060813457,7.452665928185,-4.00561136949636E-15));
#400=CARTESIAN_POINT('',(2.06586892243778,11.7161248615347,-5.57564337912381E-15));
#401=CARTESIAN_POINT('',(2.06586892243778,11.7161248615347,-5.20417042793042E-15));
#402=CARTESIAN_POINT('',(1.3141060813457,7.45266592818502,-4.00561136949636E-15));
#403=CARTESIAN_POINT('',(11.8968649725785,5.20417042793042E-14,-2.88889491658085E-31));
#404=CARTESIAN_POINT('',(11.8968649725785,5.20417042793042E-14,-3.20877546893953E-17));
#405=CARTESIAN_POINT('',(7.56763531297322,5.46437894932694E-14,-4.79337229242022E-16));
#406=CARTESIAN_POINT('',(1.41893162118248,5.8113236445223E-14,-1.11455520369893E-15));
#407=CARTESIAN_POINT('',(1.41893162118248,5.8113236445223E-14,-8.67361737988404E-16));
#408=CARTESIAN_POINT('',(7.5676353129732,5.46437894932694E-14,-4.79337229242026E-16));
#409=CARTESIAN_POINT('',(14.8888757356941,11.3026251384653,-3.46944695195361E-15));
#410=CARTESIAN_POINT('',(14.8888757356941,11.3026251384653,-4.09110319075694E-15));
#411=CARTESIAN_POINT('',(13.8211645446007,5.24733407181502,-1.86122342625719E-15));
#412=CARTESIAN_POINT('',(13.0694017035086,0.983875138465363,-2.9119141662974E-16));
#413=CARTESIAN_POINT('',(13.0694017035086,0.983875138465363,-3.85185988877447E-31));
#414=CARTESIAN_POINT('',(13.8211645446007,5.24733407181504,-1.8612234262572E-15));
#415=CARTESIAN_POINT('',(13.7163390047639,11.509375,-4.29213956043561E-15));
#416=CARTESIAN_POINT('',(3.23840565336794,11.509375,-5.37460700944514E-15));
#417=CARTESIAN_POINT('',(1.41893162118249,1.19062500000006,-1.57469523531795E-15));
#418=CARTESIAN_POINT('',(11.8968649725785,1.19062500000005,-4.92227786308413E-16));
#419=CARTESIAN_POINT('',(7.56763531297323,6.35,-2.93341739787677E-15));
#420=CARTESIAN_POINT('',(13.7163390047639,11.509375,-4.33680868994202E-15));
#421=CARTESIAN_POINT('',(11.8968649725785,1.19062500000005,0.0));
#422=CARTESIAN_POINT('',(1.41893162118249,1.19062500000006,-8.67361737988404E-16));
#423=CARTESIAN_POINT('',(3.23840565336794,11.509375,-5.20417042793042E-15));
#424=MECHANICAL_DESIGN_GEOMETRIC_PRESENTATION_REPRESENTATION('',(#212,#213,#214,
     #215),#425);
#425=(GEOMETRIC_REPRESENTATION_CONTEXT(3)GLOBAL_UNCERTAINTY_ASSIGNED_CONTEXT((#426))
     GLOBAL_UNIT_ASSIGNED_CONTEXT((#432,#428,#427))REPRESENTATION_CONTEXT('CNGN120412',
     'TOP_LEVEL_ASSEMBLY_PART'));
#426=UNCERTAINTY_MEASURE_WITH_UNIT(LENGTH_MEASURE(2.0E-5),#432,'DISTANCE_ACCURACY_VALUE',
     'Maximum Tolerance applied to model');
#427=(NAMED_UNIT(*)SI_UNIT($,.STERADIAN.)SOLID_ANGLE_UNIT());
#428=(CONVERSION_BASED_UNIT('DEGREE',#430)NAMED_UNIT(#429)PLANE_ANGLE_UNIT());
#429=DIMENSIONAL_EXPONENTS(0.0,0.0,0.0,0.0,0.0,0.0,0.0);
#430=PLANE_ANGLE_MEASURE_WITH_UNIT(PLANE_ANGLE_MEASURE(0.0174532925),#431);
#431=(NAMED_UNIT(*)PLANE_ANGLE_UNIT()SI_UNIT($,.RADIAN.));
#432=(LENGTH_UNIT()NAMED_UNIT(*)SI_UNIT(.MILLI.,.METRE.));
#433=CONSTRUCTIVE_GEOMETRY_REPRESENTATION('supplemental geometry',(#229,#230),#425);
#434=CONSTRUCTIVE_GEOMETRY_REPRESENTATION_RELATIONSHIP('supplemental geometry','contains PCS and MCS coordinate systems',
     #24,#433);
ENDSEC;
END-ISO-10303-21;
