ISO-10303-21;
HEADER;
FILE_DESCRIPTION(
/* description */ (''),
/* implementation_level */ '2;1');
FILE_NAME(
/* name */ 'CNGN120408.stp',
/* time_stamp */ '2017-03-21T10:53:54',
/* author */ ('Sandvik Coromant R&D'),
/* organization */ ('Sandvik Machining Solutions'),
/* preprocessor_version */ 'ST-DEVELOPER v15',
/* originating_system */ 'SIEMENS PLM Software NX v8.5.3.3(64 bits)',
/* authorization */ '');
FILE_SCHEMA(('AUTOMOTIVE_DESIGN'));
ENDSEC;
DATA;
#10=GEOMETRICALLY_BOUNDED_WIREFRAME_SHAPE_REPRESENTATION('IsoTurningInsert-None',
     (#25),#425);
#11=SHAPE_REPRESENTATION_RELATIONSHIP('None','relationship between IsoTurningInsert-None and IsoTurningInsert-None',
     #24,#13);
#12=SHAPE_REPRESENTATION_RELATIONSHIP('None','relationship between IsoTurningInsert-None and IsoTurningInsert-None',
     #24,#10);
#13=ADVANCED_BREP_SHAPE_REPRESENTATION('IsoTurningInsert-None',(#31),#425);
#14=SHAPE_DEFINITION_REPRESENTATION(#15,#24);
#15=PRODUCT_DEFINITION_SHAPE('','',#16);
#16=PRODUCT_DEFINITION(' ','',#18,#17);
#17=PRODUCT_DEFINITION_CONTEXT('part definition',#23,'design');
#18=PRODUCT_DEFINITION_FORMATION_WITH_SPECIFIED_SOURCE(' ',' ',#20,.NOT_KNOWN.);
#19=PRODUCT_RELATED_PRODUCT_CATEGORY('part','',(#20));
#20=PRODUCT('IsoTurningInsert','IsoTurningInsert',' ',(#21));
#21=PRODUCT_CONTEXT(' ',#23,'mechanical');
#22=APPLICATION_PROTOCOL_DEFINITION('international standard','automotive_design',
     2010,#23);
#23=APPLICATION_CONTEXT('core data for automotive mechanical design processes');
#24=SHAPE_REPRESENTATION('IsoTurningInsert-None',(#228),#425);
#25=GEOMETRIC_CURVE_SET('geometric curve set',(#208));
#26=SURFACE_STYLE_USAGE(.BOTH.,#27);
#27=SURFACE_SIDE_STYLE('',(#28));
#28=SURFACE_STYLE_FILL_AREA(#29);
#29=FILL_AREA_STYLE('',(#30));
#30=FILL_AREA_STYLE_COLOUR('',#227);
#31=MANIFOLD_SOLID_BREP('CUT',#32);
#32=CLOSED_SHELL('',(#37,#38,#39,#40,#41,#42,#43,#44,#45,#46));
#33=CYLINDRICAL_SURFACE('',#245,0.793749999999997);
#34=CYLINDRICAL_SURFACE('',#246,0.793749999999997);
#35=CYLINDRICAL_SURFACE('',#247,0.793749999999997);
#36=CYLINDRICAL_SURFACE('',#248,0.793749999999997);
#37=ADVANCED_FACE('',(#53),#47,.F.);
#38=ADVANCED_FACE('',(#54),#48,.T.);
#39=ADVANCED_FACE('',(#55),#49,.T.);
#40=ADVANCED_FACE('',(#56),#50,.T.);
#41=ADVANCED_FACE('',(#57),#51,.T.);
#42=ADVANCED_FACE('',(#58),#52,.T.);
#43=ADVANCED_FACE('',(#59),#33,.T.);
#44=ADVANCED_FACE('',(#60),#34,.T.);
#45=ADVANCED_FACE('',(#61),#35,.T.);
#46=ADVANCED_FACE('',(#62),#36,.T.);
#47=PLANE('',#235);
#48=PLANE('',#236);
#49=PLANE('',#237);
#50=PLANE('',#238);
#51=PLANE('',#239);
#52=PLANE('',#244);
#53=FACE_OUTER_BOUND('',#63,.T.);
#54=FACE_OUTER_BOUND('',#64,.T.);
#55=FACE_OUTER_BOUND('',#65,.T.);
#56=FACE_OUTER_BOUND('',#66,.T.);
#57=FACE_OUTER_BOUND('',#67,.T.);
#58=FACE_OUTER_BOUND('',#68,.T.);
#59=FACE_OUTER_BOUND('',#69,.T.);
#60=FACE_OUTER_BOUND('',#70,.T.);
#61=FACE_OUTER_BOUND('',#71,.T.);
#62=FACE_OUTER_BOUND('',#72,.T.);
#63=EDGE_LOOP('',(#81,#82,#83,#84,#85,#86,#87,#88));
#64=EDGE_LOOP('',(#89,#90,#91,#92));
#65=EDGE_LOOP('',(#93,#94,#95,#96));
#66=EDGE_LOOP('',(#97,#98,#99,#100));
#67=EDGE_LOOP('',(#101,#102,#103,#104));
#68=EDGE_LOOP('',(#105,#106,#107,#108,#109,#110,#111,#112));
#69=EDGE_LOOP('',(#113,#114,#115,#116));
#70=EDGE_LOOP('',(#117,#118,#119,#120));
#71=EDGE_LOOP('',(#121,#122,#123,#124));
#72=EDGE_LOOP('',(#125,#126,#127,#128));
#73=CIRCLE('',#231,0.793749999999997);
#74=CIRCLE('',#232,0.793749999999997);
#75=CIRCLE('',#233,0.793749999999997);
#76=CIRCLE('',#234,0.793749999999997);
#77=CIRCLE('',#240,0.793749999999997);
#78=CIRCLE('',#241,0.793749999999997);
#79=CIRCLE('',#242,0.793749999999997);
#80=CIRCLE('',#243,0.793749999999997);
#81=ORIENTED_EDGE('',*,*,#145,.T.);
#82=ORIENTED_EDGE('',*,*,#146,.T.);
#83=ORIENTED_EDGE('',*,*,#147,.T.);
#84=ORIENTED_EDGE('',*,*,#148,.T.);
#85=ORIENTED_EDGE('',*,*,#149,.T.);
#86=ORIENTED_EDGE('',*,*,#150,.T.);
#87=ORIENTED_EDGE('',*,*,#151,.T.);
#88=ORIENTED_EDGE('',*,*,#152,.T.);
#89=ORIENTED_EDGE('',*,*,#153,.F.);
#90=ORIENTED_EDGE('',*,*,#154,.T.);
#91=ORIENTED_EDGE('',*,*,#145,.F.);
#92=ORIENTED_EDGE('',*,*,#155,.T.);
#93=ORIENTED_EDGE('',*,*,#151,.F.);
#94=ORIENTED_EDGE('',*,*,#156,.T.);
#95=ORIENTED_EDGE('',*,*,#157,.F.);
#96=ORIENTED_EDGE('',*,*,#158,.T.);
#97=ORIENTED_EDGE('',*,*,#149,.F.);
#98=ORIENTED_EDGE('',*,*,#159,.T.);
#99=ORIENTED_EDGE('',*,*,#160,.F.);
#100=ORIENTED_EDGE('',*,*,#161,.T.);
#101=ORIENTED_EDGE('',*,*,#147,.F.);
#102=ORIENTED_EDGE('',*,*,#162,.T.);
#103=ORIENTED_EDGE('',*,*,#163,.F.);
#104=ORIENTED_EDGE('',*,*,#164,.T.);
#105=ORIENTED_EDGE('',*,*,#163,.T.);
#106=ORIENTED_EDGE('',*,*,#165,.T.);
#107=ORIENTED_EDGE('',*,*,#153,.T.);
#108=ORIENTED_EDGE('',*,*,#166,.T.);
#109=ORIENTED_EDGE('',*,*,#157,.T.);
#110=ORIENTED_EDGE('',*,*,#167,.T.);
#111=ORIENTED_EDGE('',*,*,#160,.T.);
#112=ORIENTED_EDGE('',*,*,#168,.T.);
#113=ORIENTED_EDGE('',*,*,#146,.F.);
#114=ORIENTED_EDGE('',*,*,#154,.F.);
#115=ORIENTED_EDGE('',*,*,#165,.F.);
#116=ORIENTED_EDGE('',*,*,#162,.F.);
#117=ORIENTED_EDGE('',*,*,#148,.F.);
#118=ORIENTED_EDGE('',*,*,#164,.F.);
#119=ORIENTED_EDGE('',*,*,#168,.F.);
#120=ORIENTED_EDGE('',*,*,#159,.F.);
#121=ORIENTED_EDGE('',*,*,#150,.F.);
#122=ORIENTED_EDGE('',*,*,#161,.F.);
#123=ORIENTED_EDGE('',*,*,#167,.F.);
#124=ORIENTED_EDGE('',*,*,#156,.F.);
#125=ORIENTED_EDGE('',*,*,#152,.F.);
#126=ORIENTED_EDGE('',*,*,#158,.F.);
#127=ORIENTED_EDGE('',*,*,#166,.F.);
#128=ORIENTED_EDGE('',*,*,#155,.F.);
#129=VERTEX_POINT('',#375);
#130=VERTEX_POINT('',#376);
#131=VERTEX_POINT('',#378);
#132=VERTEX_POINT('',#380);
#133=VERTEX_POINT('',#382);
#134=VERTEX_POINT('',#384);
#135=VERTEX_POINT('',#386);
#136=VERTEX_POINT('',#388);
#137=VERTEX_POINT('',#392);
#138=VERTEX_POINT('',#393);
#139=VERTEX_POINT('',#398);
#140=VERTEX_POINT('',#400);
#141=VERTEX_POINT('',#404);
#142=VERTEX_POINT('',#406);
#143=VERTEX_POINT('',#410);
#144=VERTEX_POINT('',#412);
#145=EDGE_CURVE('',#129,#130,#169,.T.);
#146=EDGE_CURVE('',#130,#131,#73,.T.);
#147=EDGE_CURVE('',#131,#132,#170,.T.);
#148=EDGE_CURVE('',#132,#133,#74,.T.);
#149=EDGE_CURVE('',#133,#134,#171,.T.);
#150=EDGE_CURVE('',#134,#135,#75,.T.);
#151=EDGE_CURVE('',#135,#136,#172,.T.);
#152=EDGE_CURVE('',#136,#129,#76,.T.);
#153=EDGE_CURVE('',#137,#138,#173,.T.);
#154=EDGE_CURVE('',#137,#130,#174,.T.);
#155=EDGE_CURVE('',#129,#138,#175,.T.);
#156=EDGE_CURVE('',#135,#139,#176,.T.);
#157=EDGE_CURVE('',#140,#139,#177,.T.);
#158=EDGE_CURVE('',#140,#136,#178,.T.);
#159=EDGE_CURVE('',#133,#141,#179,.T.);
#160=EDGE_CURVE('',#142,#141,#180,.T.);
#161=EDGE_CURVE('',#142,#134,#181,.T.);
#162=EDGE_CURVE('',#131,#143,#182,.T.);
#163=EDGE_CURVE('',#144,#143,#183,.T.);
#164=EDGE_CURVE('',#144,#132,#184,.T.);
#165=EDGE_CURVE('',#143,#137,#77,.T.);
#166=EDGE_CURVE('',#138,#140,#78,.T.);
#167=EDGE_CURVE('',#139,#142,#79,.T.);
#168=EDGE_CURVE('',#141,#144,#80,.T.);
#169=LINE('',#374,#185);
#170=LINE('',#379,#186);
#171=LINE('',#383,#187);
#172=LINE('',#387,#188);
#173=LINE('',#391,#189);
#174=LINE('',#394,#190);
#175=LINE('',#395,#191);
#176=LINE('',#397,#192);
#177=LINE('',#399,#193);
#178=LINE('',#401,#194);
#179=LINE('',#403,#195);
#180=LINE('',#405,#196);
#181=LINE('',#407,#197);
#182=LINE('',#409,#198);
#183=LINE('',#411,#199);
#184=LINE('',#413,#200);
#185=VECTOR('',#255,1.0);
#186=VECTOR('',#258,1.0);
#187=VECTOR('',#261,1.0);
#188=VECTOR('',#264,1.0);
#189=VECTOR('',#269,1.0);
#190=VECTOR('',#270,1.0);
#191=VECTOR('',#271,1.0);
#192=VECTOR('',#274,1.0);
#193=VECTOR('',#275,1.0);
#194=VECTOR('',#276,1.0);
#195=VECTOR('',#279,1.0);
#196=VECTOR('',#280,1.0);
#197=VECTOR('',#281,1.0);
#198=VECTOR('',#284,1.0);
#199=VECTOR('',#285,1.0);
#200=VECTOR('',#286,1.0);
#201=CURVE_STYLE('',#205,POSITIVE_LENGTH_MEASURE(0.18),#204);
#202=CURVE_STYLE('',#206,POSITIVE_LENGTH_MEASURE(0.18),#226);
#203=CURVE_STYLE('',#207,POSITIVE_LENGTH_MEASURE(0.18),#226);
#204=DRAUGHTING_PRE_DEFINED_COLOUR('blue');
#205=DRAUGHTING_PRE_DEFINED_CURVE_FONT('continuous');
#206=DRAUGHTING_PRE_DEFINED_CURVE_FONT('continuous');
#207=DRAUGHTING_PRE_DEFINED_CURVE_FONT('continuous');
#208=B_SPLINE_CURVE_WITH_KNOTS('CUTTING EDGE LINE',5,(#310,#311,#312,#313,#314,#315,
     #316,#317,#318,#319,#320,#321,#322,#323,#324,#325,#326,#327,#328,#329,#330,
     #331,#332,#333,#334,#335,#336,#337,#338,#339,#340,#341,#342,#343,#344,#345,
     #346,#347,#348,#349,#350,#351,#352,#353,#354,#355,#356,#357,#358,#359,#360,
     #361,#362,#363,#364,#365,#366,#367,#368,#369,#370,#371),.UNSPECIFIED.,.T.,.F.,
     (2,4,1,1,1,1,1,1,1,4,4,1,1,1,1,1,1,1,4,4,1,1,1,1,1,1,1,4,4,1,1,1,1,1,1,1,4,
     4,1,1),(-0.225124797,0.0,0.00276391143749999,0.00552782287499998,0.00829173431249997,
     0.01105564575,0.0138195571875001,0.016583468625,0.0193473800625,0.0221112915,
     0.2472360885,0.2506909778125,0.254145867125,0.2576007564375,0.26105564575,0.2645105350625,
     0.267965424375,0.2714203136875,0.274875203,0.5,0.5027639114375,0.505527822875,
     0.5082917343125,0.51105564575,0.5138195571875,0.516583468625,0.5193473800625,
     0.5221112915,0.7472360885,0.7506909778125,0.754145867125,0.7576007564375,0.76105564575,
     0.7645105350625,0.767965424375,0.7714203136875,0.774875203,1.0,1.0027639114375,
     1.005527822875),.UNSPECIFIED.);
#209=PRESENTATION_LAYER_ASSIGNMENT('1','Layer 1',(#208,#229,#230,#31));
#212=STYLED_ITEM('',(#218),#208);
#213=STYLED_ITEM('',(#219),#229);
#214=STYLED_ITEM('',(#220),#230);
#215=STYLED_ITEM('',(#221),#31);
#216=PRESENTATION_STYLE_ASSIGNMENT((#222));
#217=PRESENTATION_STYLE_ASSIGNMENT((#223));
#218=PRESENTATION_STYLE_ASSIGNMENT((#201));
#219=PRESENTATION_STYLE_ASSIGNMENT((#202));
#220=PRESENTATION_STYLE_ASSIGNMENT((#203));
#221=PRESENTATION_STYLE_ASSIGNMENT((#26));
#222=POINT_STYLE('',#224,POSITIVE_LENGTH_MEASURE(3.0),#226);
#223=POINT_STYLE('',#225,POSITIVE_LENGTH_MEASURE(3.0),#226);
#224=PRE_DEFINED_POINT_MARKER_SYMBOL('plus');
#225=PRE_DEFINED_POINT_MARKER_SYMBOL('plus');
#226=COLOUR_RGB('Medium Maroon',0.6,0.4,0.4);
#227=COLOUR_RGB('IsoInsertColor',0.8,0.8,0.8);
#228=AXIS2_PLACEMENT_3D('',#307,#249,#250);
#229=AXIS2_PLACEMENT_3D('PCS',#372,#251,#252);
#230=AXIS2_PLACEMENT_3D('MCS',#373,#253,#254);
#231=AXIS2_PLACEMENT_3D('',#377,#256,#257);
#232=AXIS2_PLACEMENT_3D('',#381,#259,#260);
#233=AXIS2_PLACEMENT_3D('',#385,#262,#263);
#234=AXIS2_PLACEMENT_3D('',#389,#265,#266);
#235=AXIS2_PLACEMENT_3D('',#390,#267,#268);
#236=AXIS2_PLACEMENT_3D('',#396,#272,#273);
#237=AXIS2_PLACEMENT_3D('',#402,#277,#278);
#238=AXIS2_PLACEMENT_3D('',#408,#282,#283);
#239=AXIS2_PLACEMENT_3D('',#414,#287,#288);
#240=AXIS2_PLACEMENT_3D('',#415,#289,#290);
#241=AXIS2_PLACEMENT_3D('',#416,#291,#292);
#242=AXIS2_PLACEMENT_3D('',#417,#293,#294);
#243=AXIS2_PLACEMENT_3D('',#418,#295,#296);
#244=AXIS2_PLACEMENT_3D('',#419,#297,#298);
#245=AXIS2_PLACEMENT_3D('',#420,#299,#300);
#246=AXIS2_PLACEMENT_3D('',#421,#301,#302);
#247=AXIS2_PLACEMENT_3D('',#422,#303,#304);
#248=AXIS2_PLACEMENT_3D('',#423,#305,#306);
#249=DIRECTION('',(0.0,0.0,1.0));
#250=DIRECTION('',(1.0,0.0,0.0));
#251=DIRECTION('',(0.0,0.0,1.0));
#252=DIRECTION('',(1.0,0.0,0.0));
#253=DIRECTION('',(0.0,0.0,1.0));
#254=DIRECTION('',(1.0,0.0,0.0));
#255=DIRECTION('',(1.0,6.10622663543836E-16,0.0));
#256=DIRECTION('',(0.0,0.0,-1.0));
#257=DIRECTION('',(-0.766044443118977,-0.642787609686539,0.0));
#258=DIRECTION('',(-0.173648177666928,-0.984807753012209,0.0));
#259=DIRECTION('',(0.0,0.0,-1.0));
#260=DIRECTION('',(-0.766044443118977,-0.64278760968654,0.0));
#261=DIRECTION('',(-1.0,7.7715611723761E-16,0.0));
#262=DIRECTION('',(0.0,0.0,-1.0));
#263=DIRECTION('',(-0.766044443118978,-0.64278760968654,0.0));
#264=DIRECTION('',(0.17364817766693,0.984807753012208,0.0));
#265=DIRECTION('',(0.0,0.0,-1.0));
#266=DIRECTION('',(-0.766044443118978,-0.642787609686539,0.0));
#267=DIRECTION('',(0.0,0.0,1.0));
#268=DIRECTION('',(-0.766044443118978,-0.64278760968654,0.0));
#269=DIRECTION('',(-1.0,-6.10622663543836E-16,-1.03309251233719E-16));
#270=DIRECTION('',(1.03309251233719E-16,-3.86469317895239E-16,-1.0));
#271=DIRECTION('',(-1.03309251233719E-16,3.86469317895239E-16,1.0));
#272=DIRECTION('',(-6.10622663543836E-16,1.0,-3.86469317895239E-16));
#273=DIRECTION('',(-1.0,-6.10622663543836E-16,0.0));
#274=DIRECTION('',(-1.03309251233719E-16,3.86469317895239E-16,1.0));
#275=DIRECTION('',(-0.17364817766693,-0.984807753012208,3.626585173517E-16));
#276=DIRECTION('',(1.03309251233719E-16,-3.86469317895239E-16,-1.0));
#277=DIRECTION('',(-0.984807753012208,0.17364817766693,-1.68849444349542E-16));
#278=DIRECTION('',(-0.17364817766693,-0.984807753012208,0.0));
#279=DIRECTION('',(-1.03309251233719E-16,3.86469317895239E-16,1.0));
#280=DIRECTION('',(1.0,-7.7715611723761E-16,1.03309251233719E-16));
#281=DIRECTION('',(1.03309251233719E-16,-3.86469317895239E-16,-1.0));
#282=DIRECTION('',(-7.7715611723761E-16,-1.0,3.86469317895238E-16));
#283=DIRECTION('',(1.0,-7.7715611723761E-16,0.0));
#284=DIRECTION('',(-1.03309251233719E-16,3.86469317895239E-16,1.0));
#285=DIRECTION('',(0.173648177666928,0.984807753012209,-3.62658517351701E-16));
#286=DIRECTION('',(1.03309251233719E-16,-3.86469317895239E-16,-1.0));
#287=DIRECTION('',(0.984807753012209,-0.173648177666928,1.68849444349541E-16));
#288=DIRECTION('',(0.173648177666928,0.984807753012209,0.0));
#289=DIRECTION('',(-1.03309251233719E-16,3.86469317895239E-16,1.0));
#290=DIRECTION('',(-0.642787609686539,0.766044443118977,-3.62458580068658E-16));
#291=DIRECTION('',(-1.03309251233719E-16,3.86469317895239E-16,1.0));
#292=DIRECTION('',(-0.64278760968654,0.766044443118977,-3.62458580068658E-16));
#293=DIRECTION('',(-1.03309251233719E-16,3.86469317895239E-16,1.0));
#294=DIRECTION('',(-0.64278760968654,0.766044443118978,-3.62458580068658E-16));
#295=DIRECTION('',(-1.03309251233719E-16,3.86469317895239E-16,1.0));
#296=DIRECTION('',(-0.642787609686539,0.766044443118978,-3.62458580068658E-16));
#297=DIRECTION('',(-1.03309251233719E-16,3.86469317895239E-16,1.0));
#298=DIRECTION('',(-0.64278760968654,0.766044443118978,-3.62458580068658E-16));
#299=DIRECTION('',(-1.03309251233719E-16,3.86469317895239E-16,1.0));
#300=DIRECTION('',(-0.642787609686539,0.766044443118977,-3.62458580068658E-16));
#301=DIRECTION('',(-1.03309251233719E-16,3.86469317895239E-16,1.0));
#302=DIRECTION('',(-0.642787609686539,0.766044443118978,-3.62458580068658E-16));
#303=DIRECTION('',(-1.03309251233719E-16,3.86469317895239E-16,1.0));
#304=DIRECTION('',(-0.64278760968654,0.766044443118978,-3.62458580068658E-16));
#305=DIRECTION('',(-1.03309251233719E-16,3.86469317895239E-16,1.0));
#306=DIRECTION('',(-0.64278760968654,0.766044443118977,-3.62458580068658E-16));
#307=CARTESIAN_POINT('',(0.0,0.0,0.0));
#310=CARTESIAN_POINT('',(9.97309699378589,5.24025267623074E-14,0.0));
#311=CARTESIAN_POINT('',(12.2553932719614,5.06261699229071E-14,3.09395505499875E-16));
#312=CARTESIAN_POINT('',(12.3064145384802,0.00204973987186019,3.13664899885735E-16));
#313=CARTESIAN_POINT('',(12.3873862996279,0.0116288538654397,3.17349342408894E-16));
#314=CARTESIAN_POINT('',(12.4937253395887,0.0386932046924997,3.15110562407669E-16));
#315=CARTESIAN_POINT('',(12.624833663911,0.0975702289839866,2.99885895832324E-16));
#316=CARTESIAN_POINT('',(12.7443166086952,0.180671468108094,2.71623422997535E-16));
#317=CARTESIAN_POINT('',(12.8469033488936,0.283908819748534,2.317762084165E-16));
#318=CARTESIAN_POINT('',(12.9276526204857,0.402801426050858,1.82023277371878E-16));
#319=CARTESIAN_POINT('',(12.9727713835144,0.502825261851236,1.37809325118776E-16));
#320=CARTESIAN_POINT('',(12.9962655680081,0.580903484315922,1.02084746618501E-16));
#321=CARTESIAN_POINT('',(13.0071439176788,0.630793689558779,7.88304848917466E-17));
#322=CARTESIAN_POINT('',(13.4034605072799,2.87841675897691,4.02072739357346E-17));
#323=CARTESIAN_POINT('',(13.7953472219045,5.10091675897691,2.68048492904897E-17));
#324=CARTESIAN_POINT('',(14.1872339365291,7.3234167589769,2.68048492904897E-17));
#325=CARTESIAN_POINT('',(14.5791206511536,9.54591675897689,4.02072739357345E-17));
#326=CARTESIAN_POINT('',(14.9762866851963,11.7983572672129,5.81401660923377E-17));
#327=CARTESIAN_POINT('',(14.9839783540378,11.858743807848,4.04203744214627E-17));
#328=CARTESIAN_POINT('',(14.9875621382335,11.9589521113832,1.15554107185631E-17));
#329=CARTESIAN_POINT('',(14.9703259113089,12.094305363469,-2.61341716501596E-17));
#330=CARTESIAN_POINT('',(14.9086848648275,12.2668163291543,-7.18363280544079E-17));
#331=CARTESIAN_POINT('',(14.8056824900697,12.4234427167455,-1.10562913049168E-16));
#332=CARTESIAN_POINT('',(14.6693217839157,12.5520781407654,-1.39323007262864E-16));
#333=CARTESIAN_POINT('',(14.5101355028198,12.6427389360629,-1.558815092687E-16));
#334=CARTESIAN_POINT('',(14.3798316101668,12.6832171515369,-1.59789790206537E-16));
#335=CARTESIAN_POINT('',(14.2805233783336,12.6970888023718,-1.57913638084099E-16));
#336=CARTESIAN_POINT('',(14.219718600661,12.7,-1.55168701030704E-16));
#337=CARTESIAN_POINT('',(11.9325305669087,12.7,-9.20280063238035E-17));
#338=CARTESIAN_POINT('',(9.67574492199262,12.7,-6.1352004215869E-17));
#339=CARTESIAN_POINT('',(7.41895927707657,12.7,-6.1352004215869E-17));
#340=CARTESIAN_POINT('',(5.16217363216051,12.7,-9.20280063238035E-17));
#341=CARTESIAN_POINT('',(2.87987735398502,12.7,-1.61890290198175E-16));
#342=CARTESIAN_POINT('',(2.82885608746616,12.6979502601282,-1.77826043312102E-16));
#343=CARTESIAN_POINT('',(2.74788432631855,12.6883711461346,-1.99768349231239E-16));
#344=CARTESIAN_POINT('',(2.64154528635766,12.6613067953075,-2.2091920942343E-16));
#345=CARTESIAN_POINT('',(2.51043696203536,12.6024297710161,-2.33496468867161E-16));
#346=CARTESIAN_POINT('',(2.39095401725124,12.519328531892,-2.29375086904004E-16));
#347=CARTESIAN_POINT('',(2.28836727705279,12.4160911802515,-2.08960321270614E-16));
#348=CARTESIAN_POINT('',(2.20761800546076,12.2971985739492,-1.72975232688891E-16));
#349=CARTESIAN_POINT('',(2.16249924243198,12.1971747381488,-1.35090026207706E-16));
#350=CARTESIAN_POINT('',(2.13900505793832,12.1190965156841,-1.01605434085565E-16));
#351=CARTESIAN_POINT('',(2.12812670826765,12.0692063104413,-7.88304848917468E-17));
#352=CARTESIAN_POINT('',(1.73181011866646,9.82158324102313,-4.02072739357348E-17));
#353=CARTESIAN_POINT('',(1.3399234040419,7.59908324102315,-2.68048492904898E-17));
#354=CARTESIAN_POINT('',(0.948036689417339,5.37658324102316,-2.68048492904896E-17));
#355=CARTESIAN_POINT('',(0.556149974792779,3.15408324102317,-4.02072739357343E-17));
#356=CARTESIAN_POINT('',(0.158983940750078,0.901642732787113,-5.81401660923372E-17));
#357=CARTESIAN_POINT('',(0.151292271908594,0.84125619215202,-4.04203744214622E-17));
#358=CARTESIAN_POINT('',(0.147708487712847,0.741047888616833,-1.15554107185626E-17));
#359=CARTESIAN_POINT('',(0.164944714637499,0.605694636531089,2.613417165016E-17));
#360=CARTESIAN_POINT('',(0.2265857611189,0.433183670845779,7.18363280544081E-17));
#361=CARTESIAN_POINT('',(0.329588135876706,0.276557283254606,1.10562913049168E-16));
#362=CARTESIAN_POINT('',(0.465948842030717,0.147921859234672,1.39323007262864E-16));
#363=CARTESIAN_POINT('',(0.625135123126575,0.0572610639372035,1.558815092687E-16));
#364=CARTESIAN_POINT('',(0.755439015779546,0.016782848463146,1.59789790206537E-16));
#365=CARTESIAN_POINT('',(0.854747247612801,0.00291119762825343,1.57913638084099E-16));
#366=CARTESIAN_POINT('',(0.915552025285371,5.86197757002083E-14,1.55168701030704E-16));
#367=CARTESIAN_POINT('',(3.20274005903772,5.77315972805081E-14,9.20280063238034E-17));
#368=CARTESIAN_POINT('',(5.45952570395377,5.6843418860808E-14,4.60140031619017E-17));
#369=CARTESIAN_POINT('',(7.71631134886983,5.41788836017076E-14,1.53380010539672E-17));
#370=CARTESIAN_POINT('',(9.97309699378589,5.24025267623074E-14,0.0));
#371=CARTESIAN_POINT('',(12.2553932719614,5.06261699229071E-14,3.09395505499875E-16));
#372=CARTESIAN_POINT('',(0.0,0.0,0.0));
#373=CARTESIAN_POINT('',(7.56763531297323,6.35,0.0));
#374=CARTESIAN_POINT('',(7.5676353129732,12.7,-4.7625));
#375=CARTESIAN_POINT('',(2.90538798724446,12.7,-4.7625));
#376=CARTESIAN_POINT('',(14.1893162118247,12.7,-4.7625));
#377=CARTESIAN_POINT('',(14.1893162118247,11.90625,-4.7625));
#378=CARTESIAN_POINT('',(14.9710073657782,11.7684167589769,-4.7625));
#379=CARTESIAN_POINT('',(13.8211645446007,5.24733407181503,-4.7625));
#380=CARTESIAN_POINT('',(13.0115737926554,0.655916758976922,-4.7625));
#381=CARTESIAN_POINT('',(12.229882638702,0.793750000000046,-4.7625));
#382=CARTESIAN_POINT('',(12.229882638702,4.9439619065339E-14,-4.7625));
#383=CARTESIAN_POINT('',(7.5676353129732,5.29090660172926E-14,-4.7625));
#384=CARTESIAN_POINT('',(0.945954414121658,5.8113236445223E-14,-4.7625));
#385=CARTESIAN_POINT('',(0.945954414121659,0.793750000000056,-4.7625));
#386=CARTESIAN_POINT('',(0.164263260168221,0.931583241023178,-4.7625));
#387=CARTESIAN_POINT('',(1.31410608134571,7.45266592818502,-4.7625));
#388=CARTESIAN_POINT('',(2.12369683329102,12.0440832410231,-4.7625));
#389=CARTESIAN_POINT('',(2.90538798724446,11.90625,-4.7625));
#390=CARTESIAN_POINT('',(7.52141400043606,5.82168798019793,-4.7625));
#391=CARTESIAN_POINT('',(7.56763531297323,12.7,-5.38749756651153E-15));
#392=CARTESIAN_POINT('',(14.1893162118247,12.7,-4.70341667094256E-15));
#393=CARTESIAN_POINT('',(2.90538798724446,12.7,-5.86915084679898E-15));
#394=CARTESIAN_POINT('',(14.1893162118247,12.7,-4.33680868994202E-15));
#395=CARTESIAN_POINT('',(2.90538798724446,12.7,-5.20417042793042E-15));
#396=CARTESIAN_POINT('',(7.5676353129732,12.7,-5.38749756651153E-15));
#397=CARTESIAN_POINT('',(0.16426326016822,0.931583241023179,-8.67361737988404E-16));
#398=CARTESIAN_POINT('',(0.16426326016822,0.931583241023179,-1.60420239234279E-15));
#399=CARTESIAN_POINT('',(1.3141060813457,7.452665928185,-4.00561136949636E-15));
#400=CARTESIAN_POINT('',(2.12369683329102,12.0440832410231,-5.69641507217208E-15));
#401=CARTESIAN_POINT('',(2.12369683329102,12.0440832410231,-5.20417042793042E-15));
#402=CARTESIAN_POINT('',(1.3141060813457,7.45266592818502,-4.00561136949636E-15));
#403=CARTESIAN_POINT('',(12.229882638702,5.03069808033274E-14,0.0));
#404=CARTESIAN_POINT('',(12.229882638702,5.03069808033274E-14,2.31605104542259E-18));
#405=CARTESIAN_POINT('',(7.56763531297322,5.46437894932694E-14,-4.79337229242022E-16));
#406=CARTESIAN_POINT('',(0.945954414121657,5.98479599211998E-14,-1.163418124811E-15));
#407=CARTESIAN_POINT('',(0.945954414121657,5.98479599211998E-14,-8.67361737988404E-16));
#408=CARTESIAN_POINT('',(7.5676353129732,5.46437894932694E-14,-4.79337229242025E-16));
#409=CARTESIAN_POINT('',(14.9710073657782,11.7684167589769,-4.33680868994202E-15));
#410=CARTESIAN_POINT('',(14.9710073657782,11.7684167589769,-4.26263240341077E-15));
#411=CARTESIAN_POINT('',(13.8211645446007,5.24733407181502,-1.86122342625719E-15));
#412=CARTESIAN_POINT('',(13.0115737926554,0.655916758976923,-1.70419723581473E-16));
#413=CARTESIAN_POINT('',(13.0115737926554,0.655916758976923,0.0));
#414=CARTESIAN_POINT('',(13.8211645446007,5.24733407181503,-1.86122342625719E-15));
#415=CARTESIAN_POINT('',(14.1893162118247,11.90625,-4.39665664986322E-15));
#416=CARTESIAN_POINT('',(2.90538798724446,11.90625,-5.56239082571963E-15));
#417=CARTESIAN_POINT('',(0.945954414121658,0.793750000000057,-1.47017814589034E-15));
#418=CARTESIAN_POINT('',(12.229882638702,0.793750000000048,-3.04443970033921E-16));
#419=CARTESIAN_POINT('',(7.56763531297323,6.35,-2.93341739787677E-15));
#420=CARTESIAN_POINT('',(14.1893162118247,11.90625,-4.33680868994202E-15));
#421=CARTESIAN_POINT('',(12.229882638702,0.793750000000048,0.0));
#422=CARTESIAN_POINT('',(0.945954414121658,0.793750000000057,-8.67361737988404E-16));
#423=CARTESIAN_POINT('',(2.90538798724446,11.90625,-5.20417042793042E-15));
#424=MECHANICAL_DESIGN_GEOMETRIC_PRESENTATION_REPRESENTATION('',(#212,#213,#214,
     #215),#425);
#425=(GEOMETRIC_REPRESENTATION_CONTEXT(3)GLOBAL_UNCERTAINTY_ASSIGNED_CONTEXT((#426))
     GLOBAL_UNIT_ASSIGNED_CONTEXT((#432,#428,#427))REPRESENTATION_CONTEXT('CNGN120408',
     'TOP_LEVEL_ASSEMBLY_PART'));
#426=UNCERTAINTY_MEASURE_WITH_UNIT(LENGTH_MEASURE(2.0E-5),#432,'DISTANCE_ACCURACY_VALUE',
     'Maximum Tolerance applied to model');
#427=(NAMED_UNIT(*)SI_UNIT($,.STERADIAN.)SOLID_ANGLE_UNIT());
#428=(CONVERSION_BASED_UNIT('DEGREE',#430)NAMED_UNIT(#429)PLANE_ANGLE_UNIT());
#429=DIMENSIONAL_EXPONENTS(0.0,0.0,0.0,0.0,0.0,0.0,0.0);
#430=PLANE_ANGLE_MEASURE_WITH_UNIT(PLANE_ANGLE_MEASURE(0.0174532925),#431);
#431=(NAMED_UNIT(*)PLANE_ANGLE_UNIT()SI_UNIT($,.RADIAN.));
#432=(LENGTH_UNIT()NAMED_UNIT(*)SI_UNIT(.MILLI.,.METRE.));
#433=CONSTRUCTIVE_GEOMETRY_REPRESENTATION('supplemental geometry',(#229,#230),#425);
#434=CONSTRUCTIVE_GEOMETRY_REPRESENTATION_RELATIONSHIP('supplemental geometry','contains PCS and MCS coordinate systems',
     #24,#433);
ENDSEC;
END-ISO-10303-21;
