ISO-10303-21;
HEADER;
/* Generated by software containing ST-Developer
 * from STEP Tools, Inc. (www.steptools.com) 
 */
/* OPTION: using custom schema-name function */

FILE_DESCRIPTION(
/* description */ ('3-D model version:1'),
/* implementation_level */ '2;1');

FILE_NAME(
/* name */ 'RA790-076R25S1-22M',
/* time_stamp */ '2015-10-15T09:57:00+02:00',
/* author */ ('InteractiveCad'),
/* organization */ ('AB Sandvik Coromant'),
/* preprocessor_version */ 'ST-DEVELOPER v15',
/* originating_system */ 'SIEMENS PLM Software NX 8.5',
/* authorisation */ '');

FILE_SCHEMA (('AP203_CONFIGURATION_CONTROLLED_3D_DESIGN_OF_MECHANICAL_PARTS_AND_ASSEMBLIES_MIM_LF { 1 0 10303 403 2 1 2}'));
ENDSEC;

DATA;
#10=SHAPE_REPRESENTATION_RELATIONSHIP('None',
'relationship between RA790_076R25S1_22M_SIM-None and RA790_076R25S1_2
2M_SIM-None',#92,#11);
#11=ADVANCED_BREP_SHAPE_REPRESENTATION('RA790_076R25S1_22M_SIM-None',(#110,
#111),#545);
#12=CC_DESIGN_APPROVAL(#24,(#82));
#13=CC_DESIGN_APPROVAL(#25,(#84));
#14=CC_DESIGN_APPROVAL(#26,(#31));
#15=APPROVAL_PERSON_ORGANIZATION(#69,#24,#18);
#16=APPROVAL_PERSON_ORGANIZATION(#70,#25,#19);
#17=APPROVAL_PERSON_ORGANIZATION(#71,#26,#20);
#18=APPROVAL_ROLE('approver');
#19=APPROVAL_ROLE('approver');
#20=APPROVAL_ROLE('approver');
#21=APPROVAL_DATE_TIME(#39,#24);
#22=APPROVAL_DATE_TIME(#40,#25);
#23=APPROVAL_DATE_TIME(#41,#26);
#24=APPROVAL(#27,' ');
#25=APPROVAL(#28,' ');
#26=APPROVAL(#29,' ');
#27=APPROVAL_STATUS('not_yet_approved');
#28=APPROVAL_STATUS('not_yet_approved');
#29=APPROVAL_STATUS('not_yet_approved');
#30=CC_DESIGN_SECURITY_CLASSIFICATION(#31,(#84));
#31=SECURITY_CLASSIFICATION(' ',' ',#32);
#32=SECURITY_CLASSIFICATION_LEVEL('confidential');
#33=CC_DESIGN_DATE_AND_TIME_ASSIGNMENT(#37,#35,(#82));
#34=CC_DESIGN_DATE_AND_TIME_ASSIGNMENT(#38,#36,(#31));
#35=DATE_TIME_ROLE('creation_date');
#36=DATE_TIME_ROLE('classification_date');
#37=DATE_AND_TIME(#52,#42);
#38=DATE_AND_TIME(#53,#43);
#39=DATE_AND_TIME(#54,#44);
#40=DATE_AND_TIME(#55,#45);
#41=DATE_AND_TIME(#56,#46);
#42=LOCAL_TIME(0,0,0.,#47);
#43=LOCAL_TIME(0,0,0.,#48);
#44=LOCAL_TIME(0,0,0.,#49);
#45=LOCAL_TIME(0,0,0.,#50);
#46=LOCAL_TIME(0,0,0.,#51);
#47=COORDINATED_UNIVERSAL_TIME_OFFSET(0,0,.BEHIND.);
#48=COORDINATED_UNIVERSAL_TIME_OFFSET(0,0,.BEHIND.);
#49=COORDINATED_UNIVERSAL_TIME_OFFSET(0,0,.BEHIND.);
#50=COORDINATED_UNIVERSAL_TIME_OFFSET(0,0,.BEHIND.);
#51=COORDINATED_UNIVERSAL_TIME_OFFSET(0,0,.BEHIND.);
#52=CALENDAR_DATE(0,1,1);
#53=CALENDAR_DATE(0,1,1);
#54=CALENDAR_DATE(0,1,1);
#55=CALENDAR_DATE(0,1,1);
#56=CALENDAR_DATE(0,1,1);
#57=CC_DESIGN_PERSON_AND_ORGANIZATION_ASSIGNMENT(#65,#61,(#82,#84));
#58=CC_DESIGN_PERSON_AND_ORGANIZATION_ASSIGNMENT(#66,#62,(#86));
#59=CC_DESIGN_PERSON_AND_ORGANIZATION_ASSIGNMENT(#67,#63,(#84));
#60=CC_DESIGN_PERSON_AND_ORGANIZATION_ASSIGNMENT(#68,#64,(#31));
#61=PERSON_AND_ORGANIZATION_ROLE('creator');
#62=PERSON_AND_ORGANIZATION_ROLE('design_owner');
#63=PERSON_AND_ORGANIZATION_ROLE('design_supplier');
#64=PERSON_AND_ORGANIZATION_ROLE('classification_officer');
#65=PERSON_AND_ORGANIZATION(#79,#72);
#66=PERSON_AND_ORGANIZATION(#79,#73);
#67=PERSON_AND_ORGANIZATION(#79,#74);
#68=PERSON_AND_ORGANIZATION(#79,#75);
#69=PERSON_AND_ORGANIZATION(#79,#76);
#70=PERSON_AND_ORGANIZATION(#79,#77);
#71=PERSON_AND_ORGANIZATION(#79,#78);
#72=ORGANIZATION(' ',' ',' ');
#73=ORGANIZATION(' ',' ',' ');
#74=ORGANIZATION(' ',' ',' ');
#75=ORGANIZATION(' ',' ',' ');
#76=ORGANIZATION(' ',' ',' ');
#77=ORGANIZATION(' ',' ',' ');
#78=ORGANIZATION(' ',' ',' ');
#79=PERSON(' ',' ',' ',(' '),$,$);
#80=SHAPE_DEFINITION_REPRESENTATION(#81,#92);
#81=PRODUCT_DEFINITION_SHAPE('','',#82);
#82=PRODUCT_DEFINITION(' ','',#84,#83);
#83=DESIGN_CONTEXT('',#91,'design');
#84=PRODUCT_DEFINITION_FORMATION_WITH_SPECIFIED_SOURCE(' ',' ',#86,
 .NOT_KNOWN.);
#85=PRODUCT_RELATED_PRODUCT_CATEGORY('detail','',(#86));
#86=PRODUCT('RA790_076R25S1_22M_SIM','RA790_076R25S1_22M_SIM',' ',(#89));
#87=PRODUCT_CATEGORY('part',' ');
#88=PRODUCT_CATEGORY(' ','');
#89=MECHANICAL_CONTEXT(' ',#91,'mechanical');
#90=APPLICATION_PROTOCOL_DEFINITION('international standard',
'config_control_design',2010,#91);
#91=APPLICATION_CONTEXT(
'configuration controlled 3D designs of mechanical parts and assemblie
s');
#92=SHAPE_REPRESENTATION('RA790_076R25S1_22M_SIM-None',(#347),#545);
#93=PRESENTATION_LAYER_ASSIGNMENT('1','Layer 1',(#110,#111));
#94=STYLED_ITEM('',(#96),#110);
#95=STYLED_ITEM('',(#97),#111);
#96=PRESENTATION_STYLE_ASSIGNMENT((#98));
#97=PRESENTATION_STYLE_ASSIGNMENT((#99));
#98=SURFACE_STYLE_USAGE(.BOTH.,#100);
#99=SURFACE_STYLE_USAGE(.BOTH.,#101);
#100=SURFACE_SIDE_STYLE('',(#102));
#101=SURFACE_SIDE_STYLE('',(#103));
#102=SURFACE_STYLE_FILL_AREA(#104);
#103=SURFACE_STYLE_FILL_AREA(#105);
#104=FILL_AREA_STYLE('',(#106));
#105=FILL_AREA_STYLE('',(#107));
#106=FILL_AREA_STYLE_COLOUR('',#108);
#107=FILL_AREA_STYLE_COLOUR('',#109);
#108=COLOUR_RGB('TLS_NOCUT',0.499992370489052,0.499992370489052,0.499992370489052);
#109=COLOUR_RGB('TLS_CUT',0.8,0.8,0.8);
#110=MANIFOLD_SOLID_BREP('TURN_SOLID',#112);
#111=MANIFOLD_SOLID_BREP('',#113);
#112=CLOSED_SHELL('',(#131,#132,#133,#134,#135,#136,#137,#138,#139,#140,
#141,#142,#143,#144,#145,#146,#147,#148));
#113=CLOSED_SHELL('',(#149,#150,#151,#152));
#114=FACE_OUTER_BOUND('',#214,.T.);
#115=FACE_OUTER_BOUND('',#225,.T.);
#116=PLANE('',#361);
#117=PLANE('',#364);
#118=PLANE('',#373);
#119=PLANE('',#375);
#120=PLANE('',#387);
#121=PLANE('',#390);
#122=TOROIDAL_SURFACE('',#355,32.9453099055545,2.75930367071466);
#123=TOROIDAL_SURFACE('',#366,29.476887,6.);
#124=TOROIDAL_SURFACE('',#370,36.476887,6.);
#125=TOROIDAL_SURFACE('',#377,21.4090619064535,3.3);
#126=TOROIDAL_SURFACE('',#382,31.7009853379612,1.90262720195628);
#127=CYLINDRICAL_SURFACE('',#352,35.4768874840881);
#128=CYLINDRICAL_SURFACE('',#371,30.476887);
#129=CYLINDRICAL_SURFACE('',#385,38.1);
#130=CYLINDRICAL_SURFACE('',#389,22.1);
#131=ADVANCED_FACE('',(#160,#161),#153,.T.);
#132=ADVANCED_FACE('',(#162,#163),#127,.T.);
#133=ADVANCED_FACE('',(#164,#165),#122,.T.);
#134=ADVANCED_FACE('',(#166,#167),#154,.T.);
#135=ADVANCED_FACE('',(#168,#169),#155,.T.);
#136=ADVANCED_FACE('',(#170,#171),#116,.T.);
#137=ADVANCED_FACE('',(#172,#173),#156,.T.);
#138=ADVANCED_FACE('',(#114),#117,.T.);
#139=ADVANCED_FACE('',(#174,#175),#123,.T.);
#140=ADVANCED_FACE('',(#176,#177),#157,.T.);
#141=ADVANCED_FACE('',(#178,#179),#124,.F.);
#142=ADVANCED_FACE('',(#180,#181),#128,.T.);
#143=ADVANCED_FACE('',(#182,#183),#118,.F.);
#144=ADVANCED_FACE('',(#115),#119,.T.);
#145=ADVANCED_FACE('',(#184,#185),#125,.F.);
#146=ADVANCED_FACE('',(#186,#187),#158,.F.);
#147=ADVANCED_FACE('',(#188,#189),#159,.F.);
#148=ADVANCED_FACE('',(#190,#191),#126,.T.);
#149=ADVANCED_FACE('',(#192,#193),#129,.T.);
#150=ADVANCED_FACE('',(#194,#195),#120,.T.);
#151=ADVANCED_FACE('',(#196,#197),#130,.F.);
#152=ADVANCED_FACE('',(#198,#199),#121,.T.);
#153=CONICAL_SURFACE('',#350,36.2985734883629,5.86432830426634);
#154=CONICAL_SURFACE('',#356,35.7032685944195,2.62189587910485);
#155=CONICAL_SURFACE('',#359,30.476887,44.9999999999999);
#156=CONICAL_SURFACE('',#363,24.9,45.);
#157=CONICAL_SURFACE('',#368,34.0145706003857,40.8626080714193);
#158=CONICAL_SURFACE('',#379,26.2029929289421,30.);
#159=CONICAL_SURFACE('',#381,30.8522252505204,63.5063262300001);
#160=FACE_BOUND('',#200,.T.);
#161=FACE_BOUND('',#201,.T.);
#162=FACE_BOUND('',#202,.T.);
#163=FACE_BOUND('',#203,.T.);
#164=FACE_BOUND('',#204,.T.);
#165=FACE_BOUND('',#205,.T.);
#166=FACE_BOUND('',#206,.T.);
#167=FACE_BOUND('',#207,.T.);
#168=FACE_BOUND('',#208,.T.);
#169=FACE_BOUND('',#209,.T.);
#170=FACE_BOUND('',#210,.T.);
#171=FACE_BOUND('',#211,.T.);
#172=FACE_BOUND('',#212,.T.);
#173=FACE_BOUND('',#213,.T.);
#174=FACE_BOUND('',#215,.T.);
#175=FACE_BOUND('',#216,.T.);
#176=FACE_BOUND('',#217,.T.);
#177=FACE_BOUND('',#218,.T.);
#178=FACE_BOUND('',#219,.T.);
#179=FACE_BOUND('',#220,.T.);
#180=FACE_BOUND('',#221,.T.);
#181=FACE_BOUND('',#222,.T.);
#182=FACE_BOUND('',#223,.T.);
#183=FACE_BOUND('',#224,.T.);
#184=FACE_BOUND('',#226,.T.);
#185=FACE_BOUND('',#227,.T.);
#186=FACE_BOUND('',#228,.T.);
#187=FACE_BOUND('',#229,.T.);
#188=FACE_BOUND('',#230,.T.);
#189=FACE_BOUND('',#231,.T.);
#190=FACE_BOUND('',#232,.T.);
#191=FACE_BOUND('',#233,.T.);
#192=FACE_BOUND('',#234,.T.);
#193=FACE_BOUND('',#235,.T.);
#194=FACE_BOUND('',#236,.T.);
#195=FACE_BOUND('',#237,.T.);
#196=FACE_BOUND('',#238,.T.);
#197=FACE_BOUND('',#239,.T.);
#198=FACE_BOUND('',#240,.T.);
#199=FACE_BOUND('',#241,.T.);
#200=EDGE_LOOP('',(#242));
#201=EDGE_LOOP('',(#243));
#202=EDGE_LOOP('',(#244));
#203=EDGE_LOOP('',(#245));
#204=EDGE_LOOP('',(#246));
#205=EDGE_LOOP('',(#247));
#206=EDGE_LOOP('',(#248));
#207=EDGE_LOOP('',(#249));
#208=EDGE_LOOP('',(#250));
#209=EDGE_LOOP('',(#251));
#210=EDGE_LOOP('',(#252));
#211=EDGE_LOOP('',(#253));
#212=EDGE_LOOP('',(#254));
#213=EDGE_LOOP('',(#255));
#214=EDGE_LOOP('',(#256));
#215=EDGE_LOOP('',(#257));
#216=EDGE_LOOP('',(#258));
#217=EDGE_LOOP('',(#259));
#218=EDGE_LOOP('',(#260));
#219=EDGE_LOOP('',(#261));
#220=EDGE_LOOP('',(#262));
#221=EDGE_LOOP('',(#263));
#222=EDGE_LOOP('',(#264));
#223=EDGE_LOOP('',(#265));
#224=EDGE_LOOP('',(#266));
#225=EDGE_LOOP('',(#267));
#226=EDGE_LOOP('',(#268));
#227=EDGE_LOOP('',(#269));
#228=EDGE_LOOP('',(#270));
#229=EDGE_LOOP('',(#271));
#230=EDGE_LOOP('',(#272));
#231=EDGE_LOOP('',(#273));
#232=EDGE_LOOP('',(#274));
#233=EDGE_LOOP('',(#275));
#234=EDGE_LOOP('',(#276));
#235=EDGE_LOOP('',(#277));
#236=EDGE_LOOP('',(#278));
#237=EDGE_LOOP('',(#279));
#238=EDGE_LOOP('',(#280));
#239=EDGE_LOOP('',(#281));
#240=EDGE_LOOP('',(#282));
#241=EDGE_LOOP('',(#283));
#242=ORIENTED_EDGE('',*,*,#305,.T.);
#243=ORIENTED_EDGE('',*,*,#306,.F.);
#244=ORIENTED_EDGE('',*,*,#307,.T.);
#245=ORIENTED_EDGE('',*,*,#305,.F.);
#246=ORIENTED_EDGE('',*,*,#308,.T.);
#247=ORIENTED_EDGE('',*,*,#309,.T.);
#248=ORIENTED_EDGE('',*,*,#306,.T.);
#249=ORIENTED_EDGE('',*,*,#309,.F.);
#250=ORIENTED_EDGE('',*,*,#310,.T.);
#251=ORIENTED_EDGE('',*,*,#311,.F.);
#252=ORIENTED_EDGE('',*,*,#312,.T.);
#253=ORIENTED_EDGE('',*,*,#310,.F.);
#254=ORIENTED_EDGE('',*,*,#313,.T.);
#255=ORIENTED_EDGE('',*,*,#312,.F.);
#256=ORIENTED_EDGE('',*,*,#313,.F.);
#257=ORIENTED_EDGE('',*,*,#307,.F.);
#258=ORIENTED_EDGE('',*,*,#314,.T.);
#259=ORIENTED_EDGE('',*,*,#315,.T.);
#260=ORIENTED_EDGE('',*,*,#314,.F.);
#261=ORIENTED_EDGE('',*,*,#316,.T.);
#262=ORIENTED_EDGE('',*,*,#315,.F.);
#263=ORIENTED_EDGE('',*,*,#311,.T.);
#264=ORIENTED_EDGE('',*,*,#316,.F.);
#265=ORIENTED_EDGE('',*,*,#308,.F.);
#266=ORIENTED_EDGE('',*,*,#317,.F.);
#267=ORIENTED_EDGE('',*,*,#318,.T.);
#268=ORIENTED_EDGE('',*,*,#319,.T.);
#269=ORIENTED_EDGE('',*,*,#318,.F.);
#270=ORIENTED_EDGE('',*,*,#319,.F.);
#271=ORIENTED_EDGE('',*,*,#320,.T.);
#272=ORIENTED_EDGE('',*,*,#320,.F.);
#273=ORIENTED_EDGE('',*,*,#321,.T.);
#274=ORIENTED_EDGE('',*,*,#317,.T.);
#275=ORIENTED_EDGE('',*,*,#321,.F.);
#276=ORIENTED_EDGE('',*,*,#322,.T.);
#277=ORIENTED_EDGE('',*,*,#323,.F.);
#278=ORIENTED_EDGE('',*,*,#324,.T.);
#279=ORIENTED_EDGE('',*,*,#322,.F.);
#280=ORIENTED_EDGE('',*,*,#325,.T.);
#281=ORIENTED_EDGE('',*,*,#324,.F.);
#282=ORIENTED_EDGE('',*,*,#323,.T.);
#283=ORIENTED_EDGE('',*,*,#325,.F.);
#284=VERTEX_POINT('',#481);
#285=VERTEX_POINT('',#483);
#286=VERTEX_POINT('',#486);
#287=VERTEX_POINT('',#489);
#288=VERTEX_POINT('',#491);
#289=VERTEX_POINT('',#495);
#290=VERTEX_POINT('',#497);
#291=VERTEX_POINT('',#500);
#292=VERTEX_POINT('',#503);
#293=VERTEX_POINT('',#507);
#294=VERTEX_POINT('',#510);
#295=VERTEX_POINT('',#513);
#296=VERTEX_POINT('',#517);
#297=VERTEX_POINT('',#520);
#298=VERTEX_POINT('',#523);
#299=VERTEX_POINT('',#526);
#300=VERTEX_POINT('',#529);
#301=VERTEX_POINT('',#533);
#302=VERTEX_POINT('',#535);
#303=VERTEX_POINT('',#538);
#304=VERTEX_POINT('',#541);
#305=EDGE_CURVE('',#284,#284,#326,.T.);
#306=EDGE_CURVE('',#285,#285,#327,.T.);
#307=EDGE_CURVE('',#286,#286,#328,.T.);
#308=EDGE_CURVE('',#287,#287,#329,.T.);
#309=EDGE_CURVE('',#288,#288,#330,.T.);
#310=EDGE_CURVE('',#289,#289,#331,.T.);
#311=EDGE_CURVE('',#290,#290,#332,.T.);
#312=EDGE_CURVE('',#291,#291,#333,.T.);
#313=EDGE_CURVE('',#292,#292,#334,.T.);
#314=EDGE_CURVE('',#293,#293,#335,.T.);
#315=EDGE_CURVE('',#294,#294,#336,.T.);
#316=EDGE_CURVE('',#295,#295,#337,.T.);
#317=EDGE_CURVE('',#296,#296,#338,.T.);
#318=EDGE_CURVE('',#297,#297,#339,.T.);
#319=EDGE_CURVE('',#298,#298,#340,.T.);
#320=EDGE_CURVE('',#299,#299,#341,.T.);
#321=EDGE_CURVE('',#300,#300,#342,.T.);
#322=EDGE_CURVE('',#301,#301,#343,.T.);
#323=EDGE_CURVE('',#302,#302,#344,.T.);
#324=EDGE_CURVE('',#303,#303,#345,.T.);
#325=EDGE_CURVE('',#304,#304,#346,.T.);
#326=CIRCLE('',#348,35.4768874840881);
#327=CIRCLE('',#349,36.2985734883629);
#328=CIRCLE('',#351,35.476887);
#329=CIRCLE('',#353,33.2022980156931);
#330=CIRCLE('',#354,35.7032685944195);
#331=CIRCLE('',#357,29.476887);
#332=CIRCLE('',#358,30.476887);
#333=CIRCLE('',#360,24.9);
#334=CIRCLE('',#362,24.5);
#335=CIRCLE('',#365,34.0145706003857);
#336=CIRCLE('',#367,31.9392033996144);
#337=CIRCLE('',#369,30.476887);
#338=CIRCLE('',#372,31.5876212617155);
#339=CIRCLE('',#374,21.4090619064535);
#340=CIRCLE('',#376,24.2669457389421);
#341=CIRCLE('',#378,26.2029929289421);
#342=CIRCLE('',#380,30.8522252505204);
#343=CIRCLE('',#383,38.1);
#344=CIRCLE('',#384,38.1);
#345=CIRCLE('',#386,22.1);
#346=CIRCLE('',#388,22.1);
#347=AXIS2_PLACEMENT_3D('',#479,#391,#392);
#348=AXIS2_PLACEMENT_3D('',#480,#393,#394);
#349=AXIS2_PLACEMENT_3D('',#482,#395,#396);
#350=AXIS2_PLACEMENT_3D('',#484,#397,#398);
#351=AXIS2_PLACEMENT_3D('',#485,#399,#400);
#352=AXIS2_PLACEMENT_3D('',#487,#401,#402);
#353=AXIS2_PLACEMENT_3D('',#488,#403,#404);
#354=AXIS2_PLACEMENT_3D('',#490,#405,#406);
#355=AXIS2_PLACEMENT_3D('',#492,#407,#408);
#356=AXIS2_PLACEMENT_3D('',#493,#409,#410);
#357=AXIS2_PLACEMENT_3D('',#494,#411,#412);
#358=AXIS2_PLACEMENT_3D('',#496,#413,#414);
#359=AXIS2_PLACEMENT_3D('',#498,#415,#416);
#360=AXIS2_PLACEMENT_3D('',#499,#417,#418);
#361=AXIS2_PLACEMENT_3D('',#501,#419,#420);
#362=AXIS2_PLACEMENT_3D('',#502,#421,#422);
#363=AXIS2_PLACEMENT_3D('',#504,#423,#424);
#364=AXIS2_PLACEMENT_3D('',#505,#425,#426);
#365=AXIS2_PLACEMENT_3D('',#506,#427,#428);
#366=AXIS2_PLACEMENT_3D('',#508,#429,#430);
#367=AXIS2_PLACEMENT_3D('',#509,#431,#432);
#368=AXIS2_PLACEMENT_3D('',#511,#433,#434);
#369=AXIS2_PLACEMENT_3D('',#512,#435,#436);
#370=AXIS2_PLACEMENT_3D('',#514,#437,#438);
#371=AXIS2_PLACEMENT_3D('',#515,#439,#440);
#372=AXIS2_PLACEMENT_3D('',#516,#441,#442);
#373=AXIS2_PLACEMENT_3D('',#518,#443,#444);
#374=AXIS2_PLACEMENT_3D('',#519,#445,#446);
#375=AXIS2_PLACEMENT_3D('',#521,#447,#448);
#376=AXIS2_PLACEMENT_3D('',#522,#449,#450);
#377=AXIS2_PLACEMENT_3D('',#524,#451,#452);
#378=AXIS2_PLACEMENT_3D('',#525,#453,#454);
#379=AXIS2_PLACEMENT_3D('',#527,#455,#456);
#380=AXIS2_PLACEMENT_3D('',#528,#457,#458);
#381=AXIS2_PLACEMENT_3D('',#530,#459,#460);
#382=AXIS2_PLACEMENT_3D('',#531,#461,#462);
#383=AXIS2_PLACEMENT_3D('',#532,#463,#464);
#384=AXIS2_PLACEMENT_3D('',#534,#465,#466);
#385=AXIS2_PLACEMENT_3D('',#536,#467,#468);
#386=AXIS2_PLACEMENT_3D('',#537,#469,#470);
#387=AXIS2_PLACEMENT_3D('',#539,#471,#472);
#388=AXIS2_PLACEMENT_3D('',#540,#473,#474);
#389=AXIS2_PLACEMENT_3D('',#542,#475,#476);
#390=AXIS2_PLACEMENT_3D('',#543,#477,#478);
#391=DIRECTION('',(0.,0.,1.));
#392=DIRECTION('',(1.,0.,0.));
#393=DIRECTION('',(0.,0.,-1.));
#394=DIRECTION('',(-1.,0.,0.));
#395=DIRECTION('',(0.,0.,-1.));
#396=DIRECTION('',(-1.,0.,0.));
#397=DIRECTION('',(0.,0.,-1.));
#398=DIRECTION('',(-1.,0.,9.98335032946913E-017));
#399=DIRECTION('',(4.15189950116322E-032,-1.86984930463185E-016,-1.));
#400=DIRECTION('',(0.,-1.,1.95589142415659E-016));
#401=DIRECTION('',(0.,0.,-1.));
#402=DIRECTION('',(-1.,0.,0.));
#403=DIRECTION('',(0.,0.,1.));
#404=DIRECTION('',(1.,0.,0.));
#405=DIRECTION('',(0.,0.,-1.));
#406=DIRECTION('',(-1.,0.,0.));
#407=DIRECTION('',(0.,0.,-1.));
#408=DIRECTION('',(-1.,0.,0.));
#409=DIRECTION('',(0.,0.,1.));
#410=DIRECTION('',(1.,0.,0.));
#411=DIRECTION('',(4.15189950116322E-032,-1.86984930463185E-016,-1.));
#412=DIRECTION('',(0.,-1.,1.87585313187111E-016));
#413=DIRECTION('',(4.15189950116322E-032,-1.86984930463185E-016,-1.));
#414=DIRECTION('',(0.,-1.,1.84987767842714E-016));
#415=DIRECTION('',(4.15189950116322E-032,-1.86984930463185E-016,-1.));
#416=DIRECTION('',(0.,-1.,2.49145883506428E-016));
#417=DIRECTION('',(4.15189950116322E-032,-1.86984930463185E-016,-1.));
#418=DIRECTION('',(0.,-1.,1.87231700469384E-016));
#419=DIRECTION('',(-4.15189950116322E-032,1.86984930463185E-016,1.));
#420=DIRECTION('',(0.,1.,-1.86970664645125E-016));
#421=DIRECTION('',(4.15189950116322E-032,-1.86984930463185E-016,-1.));
#422=DIRECTION('',(0.,-1.,1.86984930463185E-016));
#423=DIRECTION('',(4.15189950116322E-032,-1.86984930463185E-016,-1.));
#424=DIRECTION('',(0.,-1.,1.42176575258125E-016));
#425=DIRECTION('',(-4.15189950116322E-032,1.86984930463185E-016,1.));
#426=DIRECTION('',(0.,1.,-1.86984930463185E-016));
#427=DIRECTION('',(4.15189950116322E-032,-1.86984930463185E-016,-1.));
#428=DIRECTION('',(0.,-1.,2.03997692207485E-016));
#429=DIRECTION('',(4.15189950116322E-032,-1.86984930463185E-016,-1.));
#430=DIRECTION('',(0.,-1.,1.95589142415659E-016));
#431=DIRECTION('',(4.15189950116322E-032,-1.86984930463185E-016,-1.));
#432=DIRECTION('',(0.,-1.,1.62939894361713E-016));
#433=DIRECTION('',(4.15189950116322E-032,-1.86984930463185E-016,-1.));
#434=DIRECTION('',(0.,-1.,1.6978717689788E-016));
#435=DIRECTION('',(4.15189950116322E-032,-1.86984930463185E-016,-1.));
#436=DIRECTION('',(0.,-1.,1.7075793954712E-016));
#437=DIRECTION('',(4.15189950116322E-032,-1.86984930463185E-016,-1.));
#438=DIRECTION('',(0.,-1.,2.04196163901654E-016));
#439=DIRECTION('',(4.15189950116322E-032,-1.86984930463185E-016,-1.));
#440=DIRECTION('',(0.,-1.,1.86984930463185E-016));
#441=DIRECTION('',(0.,0.,-1.));
#442=DIRECTION('',(-1.,0.,0.));
#443=DIRECTION('',(0.,0.,1.));
#444=DIRECTION('',(1.,0.,0.));
#445=DIRECTION('',(0.,0.,-1.));
#446=DIRECTION('',(-1.,0.,0.));
#447=DIRECTION('',(0.,0.,-1.));
#448=DIRECTION('',(-1.,0.,0.));
#449=DIRECTION('',(0.,0.,-1.));
#450=DIRECTION('',(-1.,0.,0.));
#451=DIRECTION('',(0.,0.,-1.));
#452=DIRECTION('',(-1.,0.,0.));
#453=DIRECTION('',(0.,0.,-1.));
#454=DIRECTION('',(-1.,0.,0.));
#455=DIRECTION('',(0.,0.,-1.));
#456=DIRECTION('',(-1.,0.,9.19739063896447E-017));
#457=DIRECTION('',(0.,0.,-1.));
#458=DIRECTION('',(-1.,0.,0.));
#459=DIRECTION('',(0.,0.,-1.));
#460=DIRECTION('',(-1.,0.,0.));
#461=DIRECTION('',(0.,0.,-1.));
#462=DIRECTION('',(-1.,0.,0.));
#463=DIRECTION('',(0.,0.,-1.));
#464=DIRECTION('',(-1.,0.,0.));
#465=DIRECTION('',(0.,0.,-1.));
#466=DIRECTION('',(-1.,0.,0.));
#467=DIRECTION('',(0.,0.,-1.));
#468=DIRECTION('',(-1.,0.,0.));
#469=DIRECTION('',(0.,0.,-1.));
#470=DIRECTION('',(-1.,0.,0.));
#471=DIRECTION('',(0.,0.,1.));
#472=DIRECTION('',(1.,0.,0.));
#473=DIRECTION('',(0.,0.,-1.));
#474=DIRECTION('',(-1.,0.,0.));
#475=DIRECTION('',(0.,0.,-1.));
#476=DIRECTION('',(-1.,0.,0.));
#477=DIRECTION('',(0.,0.,-1.));
#478=DIRECTION('',(-1.,0.,0.));
#479=CARTESIAN_POINT('',(0.,0.,0.));
#480=CARTESIAN_POINT('',(0.,0.,-32.1180577594131));
#481=CARTESIAN_POINT('',(-35.4768874840881,0.,-32.1180577594131));
#482=CARTESIAN_POINT('',(0.,0.,-40.1180577594131));
#483=CARTESIAN_POINT('',(-36.2985734883629,0.,-40.1180577594131));
#484=CARTESIAN_POINT('',(0.,0.,-40.1180577594131));
#485=CARTESIAN_POINT('',(-1.19469753984807E-015,7.70371977754894E-031,-19.0000000000001));
#486=CARTESIAN_POINT('',(-1.19469753984807E-015,-35.476887,-19.));
#487=CARTESIAN_POINT('',(0.,0.,-52.4343714137565));
#488=CARTESIAN_POINT('',(0.,0.,-55.9515110621352));
#489=CARTESIAN_POINT('',(33.2022980156931,0.,-55.9515110621352));
#490=CARTESIAN_POINT('',(0.,0.,-53.1180577594131));
#491=CARTESIAN_POINT('',(-35.7032685944195,0.,-53.1180577594131));
#492=CARTESIAN_POINT('',(0.,0.,-53.2042007668706));
#493=CARTESIAN_POINT('',(0.,0.,-53.1180577594131));
#494=CARTESIAN_POINT('',(-1.19469753984807E-015,3.47791970661523E-015,-0.400000000000102));
#495=CARTESIAN_POINT('',(-1.19469753984807E-015,-29.476887,-0.400000000000096));
#496=CARTESIAN_POINT('',(-1.19469753984807E-015,3.29093477615204E-015,-1.4000000000001));
#497=CARTESIAN_POINT('',(-1.19469753984807E-015,-30.476887,-1.4000000000001));
#498=CARTESIAN_POINT('',(-1.19469753984807E-015,3.29093477615204E-015,-1.4000000000001));
#499=CARTESIAN_POINT('',(-1.19469753984807E-015,3.47791970661523E-015,-0.400000000000102));
#500=CARTESIAN_POINT('',(-1.19469753984807E-015,-24.9,-0.400000000000097));
#501=CARTESIAN_POINT('',(-9.43271748898063E-015,29.476887,-0.400000000000102));
#502=CARTESIAN_POINT('',(-1.19469753984807E-015,3.5527136788005E-015,0.));
#503=CARTESIAN_POINT('',(-1.19469753984807E-015,-24.5,4.58113079634802E-015));
#504=CARTESIAN_POINT('',(-1.19469753984807E-015,3.47791970661523E-015,-0.400000000000102));
#505=CARTESIAN_POINT('',(-7.34834446780551E-015,24.5,-1.04083408558608E-013));
#506=CARTESIAN_POINT('',(-1.19469753984807E-015,7.34006422046341E-016,-15.0745156295317));
#507=CARTESIAN_POINT('',(-1.19469753984807E-015,-34.0145706003857,-15.0745156295317));
#508=CARTESIAN_POINT('',(-1.19469753984807E-015,0.,-19.0000000000001));
#509=CARTESIAN_POINT('',(-1.19469753984807E-015,1.1825891152013E-015,-12.6754843704684));
#510=CARTESIAN_POINT('',(-1.19469753984807E-015,-31.9392033996144,-12.6754843704684));
#511=CARTESIAN_POINT('',(-1.19469753984807E-015,7.34006422046341E-016,-15.0745156295317));
#512=CARTESIAN_POINT('',(-1.19469753984807E-015,1.91659553724764E-015,-8.75000000000006));
#513=CARTESIAN_POINT('',(-1.19469753984807E-015,-30.476887,-8.75000000000005));
#514=CARTESIAN_POINT('',(-1.19469753984807E-015,6.93889390390723E-015,-8.75000000000006));
#515=CARTESIAN_POINT('',(-1.19469753984807E-015,3.5527136788005E-015,-1.04083408558608E-013));
#516=CARTESIAN_POINT('',(0.,0.,-55.9515110621352));
#517=CARTESIAN_POINT('',(-31.5876212617155,0.,-55.9515110621352));
#518=CARTESIAN_POINT('',(-25.0084749267411,19.4600066150612,-55.9515110621352));
#519=CARTESIAN_POINT('',(0.,0.,-48.4343714137565));
#520=CARTESIAN_POINT('',(-21.4090619064535,0.,-48.4343714137565));
#521=CARTESIAN_POINT('',(0.,-6.7973844691027E-016,-48.4343714137565));
#522=CARTESIAN_POINT('',(0.,0.,-50.0843714137565));
#523=CARTESIAN_POINT('',(-24.2669457389421,0.,-50.0843714137565));
#524=CARTESIAN_POINT('',(0.,0.,-51.7343714137565));
#525=CARTESIAN_POINT('',(0.,0.,-53.4377035126874));
#526=CARTESIAN_POINT('',(-26.2029929289421,0.,-53.4377035126874));
#527=CARTESIAN_POINT('',(0.,0.,-53.4377035126874));
#528=CARTESIAN_POINT('',(0.,0.,-55.755084329391));
#529=CARTESIAN_POINT('',(-30.8522252505204,0.,-55.755084329391));
#530=CARTESIAN_POINT('',(0.,0.,-55.755084329391));
#531=CARTESIAN_POINT('',(0.,0.,-54.052264144054));
#532=CARTESIAN_POINT('',(0.,0.,-39.15));
#533=CARTESIAN_POINT('',(-38.1,0.,-39.15));
#534=CARTESIAN_POINT('',(0.,0.,-57.15));
#535=CARTESIAN_POINT('',(-38.1,0.,-57.15));
#536=CARTESIAN_POINT('',(0.,0.,0.));
#537=CARTESIAN_POINT('',(0.,0.,-39.15));
#538=CARTESIAN_POINT('',(-22.1,0.,-39.15));
#539=CARTESIAN_POINT('',(38.1,0.,-39.15));
#540=CARTESIAN_POINT('',(0.,0.,-57.15));
#541=CARTESIAN_POINT('',(-22.1,0.,-57.15));
#542=CARTESIAN_POINT('',(0.,0.,0.));
#543=CARTESIAN_POINT('',(22.1,0.,-57.15));
#544=MECHANICAL_DESIGN_GEOMETRIC_PRESENTATION_REPRESENTATION('',(#94,#95),
#545);
#545=(
GEOMETRIC_REPRESENTATION_CONTEXT(3)
GLOBAL_UNCERTAINTY_ASSIGNED_CONTEXT((#546))
GLOBAL_UNIT_ASSIGNED_CONTEXT((#552,#548,#547))
REPRESENTATION_CONTEXT('RA790_076R25S1_22M_SIM',
'TOP_LEVEL_ASSEMBLY_PART')
);
#546=UNCERTAINTY_MEASURE_WITH_UNIT(LENGTH_MEASURE(2.E-005),#552,
'DISTANCE_ACCURACY_VALUE','Maximum Tolerance applied to model');
#547=(
NAMED_UNIT(*)
SI_UNIT($,.STERADIAN.)
SOLID_ANGLE_UNIT()
);
#548=(
CONVERSION_BASED_UNIT('DEGREE',#550)
NAMED_UNIT(#549)
PLANE_ANGLE_UNIT()
);
#549=DIMENSIONAL_EXPONENTS(0.,0.,0.,0.,0.,0.,0.);
#550=PLANE_ANGLE_MEASURE_WITH_UNIT(PLANE_ANGLE_MEASURE(0.0174532925),#551);
#551=(
NAMED_UNIT(*)
PLANE_ANGLE_UNIT()
SI_UNIT($,.RADIAN.)
);
#552=(
LENGTH_UNIT()
NAMED_UNIT(*)
SI_UNIT(.MILLI.,.METRE.)
);
ENDSEC;
END-ISO-10303-21;
