ISO-10303-21;
HEADER;
/* Generated by software containing ST-Developer
 * from STEP Tools, Inc. (www.steptools.com) 
 */
/* OPTION: using custom schema-name function */

FILE_DESCRIPTION(
/* description */ (''),
/* implementation_level */ '2;1');

FILE_NAME(
/* name */ '2238_1_3d.stp',
/* time_stamp */ '2019-07-12T23:12:39+02:00',
/* author */ (''),
/* organization */ ('SMS'),
/* preprocessor_version */ 'ST-DEVELOPER v16.7',
/* originating_system */ 'SIEMENS PLM Software NX 12.0',
/* authorisation */ '');

FILE_SCHEMA (('AUTOMOTIVE_DESIGN { 1 0 10303 214 3 1 1 1 }'));
ENDSEC;

DATA;
#10=CONSTRUCTIVE_GEOMETRY_REPRESENTATION_RELATIONSHIP(
'supplemental geometry','',#26,#11);
#11=CONSTRUCTIVE_GEOMETRY_REPRESENTATION('supplemental geometry',(#184,
#185,#186),#311);
#12=GEOMETRICALLY_BOUNDED_WIREFRAME_SHAPE_REPRESENTATION(
'2238_1_3D-None',(#27),#311);
#13=SHAPE_REPRESENTATION_RELATIONSHIP('None',
'relationship between 2238_1_3D-None and 2238_1_3D-None',#26,#15);
#14=SHAPE_REPRESENTATION_RELATIONSHIP('None',
'relationship between 2238_1_3D-None and 2238_1_3D-None',#26,#12);
#15=ADVANCED_BREP_SHAPE_REPRESENTATION('2238_1_3D-None',(#41,#42),#311);
#16=SHAPE_DEFINITION_REPRESENTATION(#17,#26);
#17=PRODUCT_DEFINITION_SHAPE('','',#18);
#18=PRODUCT_DEFINITION(' ','',#20,#19);
#19=PRODUCT_DEFINITION_CONTEXT('part definition',#25,'design');
#20=PRODUCT_DEFINITION_FORMATION_WITH_SPECIFIED_SOURCE(' ',' ',#22,
 .NOT_KNOWN.);
#21=PRODUCT_RELATED_PRODUCT_CATEGORY('part','',(#22));
#22=PRODUCT('2238_1_3D','2238_1_3D',' ',(#23));
#23=PRODUCT_CONTEXT(' ',#25,'mechanical');
#24=APPLICATION_PROTOCOL_DEFINITION('international standard',
'automotive_design',2010,#25);
#25=APPLICATION_CONTEXT(
'core data for automotive mechanical design processes');
#26=SHAPE_REPRESENTATION('2238_1_3D-None',(#183),#311);
#27=GEOMETRIC_CURVE_SET('None',(#256,#257,#158));
#28=VERTEX_LOOP('',#130);
#29=SURFACE_STYLE_USAGE(.BOTH.,#31);
#30=SURFACE_STYLE_USAGE(.BOTH.,#32);
#31=SURFACE_SIDE_STYLE('',(#33));
#32=SURFACE_SIDE_STYLE('',(#34));
#33=SURFACE_STYLE_FILL_AREA(#35);
#34=SURFACE_STYLE_FILL_AREA(#36);
#35=FILL_AREA_STYLE('',(#37));
#36=FILL_AREA_STYLE('',(#38));
#37=FILL_AREA_STYLE_COLOUR('',#39);
#38=FILL_AREA_STYLE_COLOUR('',#40);
#39=COLOUR_RGB('TLS_NOCUT',0.499992370489052,0.499992370489052,0.499992370489052);
#40=COLOUR_RGB('TLS_CUT',0.8,0.8,0.8);
#41=MANIFOLD_SOLID_BREP('NOCUT',#43);
#42=MANIFOLD_SOLID_BREP('CUT',#44);
#43=CLOSED_SHELL('',(#57,#58,#59,#60,#61,#62));
#44=CLOSED_SHELL('',(#63,#64,#65,#66,#67));
#45=PLANE('',#193);
#46=PLANE('',#197);
#47=PLANE('',#199);
#48=FACE_OUTER_BOUND('',#90,.T.);
#49=FACE_OUTER_BOUND('',#95,.T.);
#50=FACE_OUTER_BOUND('',#96,.T.);
#51=CONICAL_SURFACE('',#191,8.89999999999694,7.12501634911759);
#52=CONICAL_SURFACE('',#195,9.,60.);
#53=CONICAL_SURFACE('',#202,6.70567,2.99999999999999);
#54=CONICAL_SURFACE('',#203,6.75,44.9999999999933);
#55=CONICAL_SURFACE('',#205,2.17603712826531E-14,71.0319644910952);
#56=CONICAL_SURFACE('',#206,6.762,0.0343774635825616);
#57=ADVANCED_FACE('',(#70,#71),#68,.T.);
#58=ADVANCED_FACE('',(#72,#73),#51,.T.);
#59=ADVANCED_FACE('',(#48),#45,.T.);
#60=ADVANCED_FACE('',(#74,#75),#52,.T.);
#61=ADVANCED_FACE('SHANK',(#76,#77),#69,.T.);
#62=ADVANCED_FACE('',(#49),#46,.T.);
#63=ADVANCED_FACE('',(#50),#47,.F.);
#64=ADVANCED_FACE('',(#78,#79),#53,.T.);
#65=ADVANCED_FACE('',(#80,#81),#54,.T.);
#66=ADVANCED_FACE('',(#82,#83),#55,.T.);
#67=ADVANCED_FACE('',(#84,#85),#56,.T.);
#68=CYLINDRICAL_SURFACE('',#189,8.89999999999762);
#69=CYLINDRICAL_SURFACE('',#196,9.);
#70=FACE_BOUND('',#86,.T.);
#71=FACE_BOUND('',#87,.T.);
#72=FACE_BOUND('',#88,.T.);
#73=FACE_BOUND('',#89,.T.);
#74=FACE_BOUND('',#91,.T.);
#75=FACE_BOUND('',#92,.T.);
#76=FACE_BOUND('',#93,.T.);
#77=FACE_BOUND('',#94,.T.);
#78=FACE_BOUND('',#97,.T.);
#79=FACE_BOUND('',#98,.T.);
#80=FACE_BOUND('',#99,.T.);
#81=FACE_BOUND('',#100,.T.);
#82=FACE_BOUND('',#28,.T.);
#83=FACE_BOUND('',#101,.T.);
#84=FACE_BOUND('',#102,.T.);
#85=FACE_BOUND('',#103,.T.);
#86=EDGE_LOOP('',(#104));
#87=EDGE_LOOP('',(#105));
#88=EDGE_LOOP('',(#106));
#89=EDGE_LOOP('',(#107));
#90=EDGE_LOOP('',(#108));
#91=EDGE_LOOP('',(#109));
#92=EDGE_LOOP('',(#110));
#93=EDGE_LOOP('',(#111));
#94=EDGE_LOOP('',(#112));
#95=EDGE_LOOP('',(#113));
#96=EDGE_LOOP('',(#114));
#97=EDGE_LOOP('',(#115));
#98=EDGE_LOOP('',(#116));
#99=EDGE_LOOP('',(#117));
#100=EDGE_LOOP('',(#118));
#101=EDGE_LOOP('',(#119));
#102=EDGE_LOOP('',(#120));
#103=EDGE_LOOP('',(#121));
#104=ORIENTED_EDGE('',*,*,#132,.F.);
#105=ORIENTED_EDGE('',*,*,#133,.F.);
#106=ORIENTED_EDGE('',*,*,#134,.T.);
#107=ORIENTED_EDGE('',*,*,#132,.T.);
#108=ORIENTED_EDGE('',*,*,#135,.F.);
#109=ORIENTED_EDGE('',*,*,#135,.T.);
#110=ORIENTED_EDGE('',*,*,#136,.F.);
#111=ORIENTED_EDGE('',*,*,#136,.T.);
#112=ORIENTED_EDGE('',*,*,#134,.F.);
#113=ORIENTED_EDGE('',*,*,#133,.T.);
#114=ORIENTED_EDGE('',*,*,#137,.T.);
#115=ORIENTED_EDGE('',*,*,#138,.T.);
#116=ORIENTED_EDGE('',*,*,#139,.T.);
#117=ORIENTED_EDGE('',*,*,#138,.F.);
#118=ORIENTED_EDGE('',*,*,#137,.F.);
#119=ORIENTED_EDGE('',*,*,#140,.T.);
#120=ORIENTED_EDGE('',*,*,#140,.F.);
#121=ORIENTED_EDGE('',*,*,#139,.F.);
#122=VERTEX_POINT('',#281);
#123=VERTEX_POINT('',#283);
#124=VERTEX_POINT('',#286);
#125=VERTEX_POINT('',#289);
#126=VERTEX_POINT('',#292);
#127=VERTEX_POINT('',#297);
#128=VERTEX_POINT('',#300);
#129=VERTEX_POINT('',#302);
#130=VERTEX_POINT('',#305);
#131=VERTEX_POINT('',#307);
#132=EDGE_CURVE('',#122,#122,#141,.T.);
#133=EDGE_CURVE('',#123,#123,#142,.T.);
#134=EDGE_CURVE('',#124,#124,#143,.T.);
#135=EDGE_CURVE('',#125,#125,#144,.T.);
#136=EDGE_CURVE('',#126,#126,#145,.T.);
#137=EDGE_CURVE('',#127,#127,#146,.T.);
#138=EDGE_CURVE('',#128,#128,#147,.T.);
#139=EDGE_CURVE('',#129,#129,#148,.T.);
#140=EDGE_CURVE('',#131,#131,#149,.T.);
#141=CIRCLE('',#187,8.89999999999762);
#142=CIRCLE('',#188,8.89999999999762);
#143=CIRCLE('',#190,9.);
#144=CIRCLE('',#192,4.5);
#145=CIRCLE('',#194,9.);
#146=CIRCLE('',#198,8.89999999999951);
#147=CIRCLE('',#200,6.70567);
#148=CIRCLE('',#201,6.72592853148501);
#149=CIRCLE('',#204,6.75);
#150=CURVE_STYLE('',#154,POSITIVE_LENGTH_MEASURE(0.18),#180);
#151=CURVE_STYLE('',#155,POSITIVE_LENGTH_MEASURE(0.13),#182);
#152=CURVE_STYLE('',#156,POSITIVE_LENGTH_MEASURE(0.13),#182);
#153=CURVE_STYLE('',#157,POSITIVE_LENGTH_MEASURE(0.13),#182);
#154=DRAUGHTING_PRE_DEFINED_CURVE_FONT('continuous');
#155=DRAUGHTING_PRE_DEFINED_CURVE_FONT('continuous');
#156=DRAUGHTING_PRE_DEFINED_CURVE_FONT('continuous');
#157=DRAUGHTING_PRE_DEFINED_CURVE_FONT('continuous');
#158=B_SPLINE_CURVE_WITH_KNOTS('CUTTING PART LINE',3,(#258,#259,#260,#261,
#262,#263,#264,#265,#266,#267,#268,#269,#270,#271,#272,#273,#274,#275,#276),
 .UNSPECIFIED.,.T.,.F.,(4,3,3,3,3,3,4),(0.,0.430125901297528,0.515157454419425,
0.544806249161248,0.548504513093658,0.931806895525151,1.),.UNSPECIFIED.);
#159=PRESENTATION_LAYER_ASSIGNMENT('1','Layer 1',(#256,#257,#158,#184,#185,
#186,#41,#42));
#160=STYLED_ITEM('',(#168),#256);
#161=STYLED_ITEM('',(#169),#257);
#162=STYLED_ITEM('',(#170),#158);
#163=STYLED_ITEM('',(#171),#184);
#164=STYLED_ITEM('',(#172),#185);
#165=STYLED_ITEM('',(#173),#186);
#166=STYLED_ITEM('',(#174),#41);
#167=STYLED_ITEM('',(#175),#42);
#168=PRESENTATION_STYLE_ASSIGNMENT((#176));
#169=PRESENTATION_STYLE_ASSIGNMENT((#177));
#170=PRESENTATION_STYLE_ASSIGNMENT((#150));
#171=PRESENTATION_STYLE_ASSIGNMENT((#151));
#172=PRESENTATION_STYLE_ASSIGNMENT((#152));
#173=PRESENTATION_STYLE_ASSIGNMENT((#153));
#174=PRESENTATION_STYLE_ASSIGNMENT((#29));
#175=PRESENTATION_STYLE_ASSIGNMENT((#30));
#176=POINT_STYLE('',#178,POSITIVE_LENGTH_MEASURE(3.),#180);
#177=POINT_STYLE('',#179,POSITIVE_LENGTH_MEASURE(3.),#181);
#178=PRE_DEFINED_POINT_MARKER_SYMBOL('plus');
#179=PRE_DEFINED_POINT_MARKER_SYMBOL('plus');
#180=DRAUGHTING_PRE_DEFINED_COLOUR('blue');
#181=DRAUGHTING_PRE_DEFINED_COLOUR('white');
#182=DRAUGHTING_PRE_DEFINED_COLOUR('green');
#183=AXIS2_PLACEMENT_3D('',#255,#207,#208);
#184=AXIS2_PLACEMENT_3D('PCS',#277,#209,#210);
#185=AXIS2_PLACEMENT_3D('MCS',#278,#211,#212);
#186=AXIS2_PLACEMENT_3D('CIP',#279,#213,#214);
#187=AXIS2_PLACEMENT_3D('',#280,#215,#216);
#188=AXIS2_PLACEMENT_3D('',#282,#217,#218);
#189=AXIS2_PLACEMENT_3D('',#284,#219,#220);
#190=AXIS2_PLACEMENT_3D('',#285,#221,#222);
#191=AXIS2_PLACEMENT_3D('',#287,#223,#224);
#192=AXIS2_PLACEMENT_3D('',#288,#225,#226);
#193=AXIS2_PLACEMENT_3D('',#290,#227,#228);
#194=AXIS2_PLACEMENT_3D('',#291,#229,#230);
#195=AXIS2_PLACEMENT_3D('',#293,#231,#232);
#196=AXIS2_PLACEMENT_3D('',#294,#233,#234);
#197=AXIS2_PLACEMENT_3D('',#295,#235,#236);
#198=AXIS2_PLACEMENT_3D('',#296,#237,#238);
#199=AXIS2_PLACEMENT_3D('',#298,#239,#240);
#200=AXIS2_PLACEMENT_3D('',#299,#241,#242);
#201=AXIS2_PLACEMENT_3D('',#301,#243,#244);
#202=AXIS2_PLACEMENT_3D('',#303,#245,#246);
#203=AXIS2_PLACEMENT_3D('',#304,#247,#248);
#204=AXIS2_PLACEMENT_3D('',#306,#249,#250);
#205=AXIS2_PLACEMENT_3D('',#308,#251,#252);
#206=AXIS2_PLACEMENT_3D('',#309,#253,#254);
#207=DIRECTION('',(0.,0.,1.));
#208=DIRECTION('',(1.,0.,0.));
#209=DIRECTION('',(0.,0.,1.));
#210=DIRECTION('',(1.,0.,0.));
#211=DIRECTION('',(0.,0.,1.));
#212=DIRECTION('',(1.,0.,0.));
#213=DIRECTION('',(0.,0.,1.));
#214=DIRECTION('',(1.,0.,0.));
#215=DIRECTION('',(0.,0.,1.));
#216=DIRECTION('',(1.,0.,0.));
#217=DIRECTION('',(0.,0.,-1.));
#218=DIRECTION('',(-1.,0.,0.));
#219=DIRECTION('',(0.,0.,1.));
#220=DIRECTION('',(-1.,0.,0.));
#221=DIRECTION('',(0.,0.,-1.));
#222=DIRECTION('',(1.,0.,0.));
#223=DIRECTION('',(0.,0.,1.));
#224=DIRECTION('',(-1.,0.,3.10928778358887E-16));
#225=DIRECTION('',(0.,0.,-1.));
#226=DIRECTION('',(1.,0.,0.));
#227=DIRECTION('',(0.,0.,1.));
#228=DIRECTION('',(-1.,0.,0.));
#229=DIRECTION('',(0.,0.,-1.));
#230=DIRECTION('',(1.,0.,0.));
#231=DIRECTION('',(0.,0.,-1.));
#232=DIRECTION('',(1.,0.,-6.97456058091358E-18));
#233=DIRECTION('',(0.,0.,-1.));
#234=DIRECTION('',(1.,0.,0.));
#235=DIRECTION('',(0.,0.,-1.));
#236=DIRECTION('',(1.,0.,0.));
#237=DIRECTION('',(0.,0.,1.));
#238=DIRECTION('',(1.,0.,0.));
#239=DIRECTION('',(0.,0.,-1.));
#240=DIRECTION('',(1.,0.,0.));
#241=DIRECTION('',(0.,0.,-1.));
#242=DIRECTION('',(-1.,0.,0.));
#243=DIRECTION('',(0.,0.,1.));
#244=DIRECTION('',(1.,0.,0.));
#245=DIRECTION('',(0.,0.,-1.));
#246=DIRECTION('',(1.,0.,9.39061278009086E-16));
#247=DIRECTION('',(0.,0.,1.));
#248=DIRECTION('',(-1.,0.,-2.75694816147359E-17));
#249=DIRECTION('',(0.,0.,-1.));
#250=DIRECTION('',(-1.,0.,0.));
#251=DIRECTION('',(0.,0.,1.));
#252=DIRECTION('',(-1.,0.,0.));
#253=DIRECTION('',(0.,0.,-1.));
#254=DIRECTION('',(1.,0.,1.1310340511666E-14));
#255=CARTESIAN_POINT('',(0.,0.,0.));
#256=CARTESIAN_POINT('CRP',(6.75,0.,-120.68));
#257=CARTESIAN_POINT('',(0.,0.,-123.));
#258=CARTESIAN_POINT('',(0.,0.,-123.));
#259=CARTESIAN_POINT('',(0.,0.,-107.993333333333));
#260=CARTESIAN_POINT('',(0.,0.,-92.9866666666667));
#261=CARTESIAN_POINT('',(0.,0.,-77.98));
#262=CARTESIAN_POINT('',(2.9666666666665,0.,-77.98));
#263=CARTESIAN_POINT('',(5.933333333333,0.,-77.98));
#264=CARTESIAN_POINT('',(8.89999999999951,0.,-77.98));
#265=CARTESIAN_POINT('',(8.16855666666634,0.,-78.7114433333333));
#266=CARTESIAN_POINT('',(7.43711333333317,0.,-79.4428866666667));
#267=CARTESIAN_POINT('',(6.70567,0.,-80.17433));
#268=CARTESIAN_POINT('',(6.71242284382834,0.,-80.3031819361194));
#269=CARTESIAN_POINT('',(6.71917568765667,0.,-80.4320338722388));
#270=CARTESIAN_POINT('',(6.72592853148501,0.,-80.5608858083581));
#271=CARTESIAN_POINT('',(6.73395235432334,0.,-93.9339238722384));
#272=CARTESIAN_POINT('',(6.74197617716167,0.,-107.306961936118));
#273=CARTESIAN_POINT('',(6.75,0.,-120.679999999998));
#274=CARTESIAN_POINT('',(4.50000000000343,0.,-121.453333333332));
#275=CARTESIAN_POINT('',(2.25000000000171,0.,-122.226666666666));
#276=CARTESIAN_POINT('',(0.,0.,-123.));
#277=CARTESIAN_POINT('',(0.,0.,0.));
#278=CARTESIAN_POINT('',(0.,0.,-48.));
#279=CARTESIAN_POINT('',(0.,0.,-123.));
#280=CARTESIAN_POINT('',(0.,0.,-48.8));
#281=CARTESIAN_POINT('',(8.89999999999762,0.,-48.8));
#282=CARTESIAN_POINT('',(0.,0.,-77.9800000000019));
#283=CARTESIAN_POINT('',(-8.89999999999762,0.,-77.9800000000019));
#284=CARTESIAN_POINT('',(0.,0.,15.2045468976791));
#285=CARTESIAN_POINT('',(0.,0.,-48.));
#286=CARTESIAN_POINT('',(9.,0.,-48.));
#287=CARTESIAN_POINT('',(0.,0.,-48.8));
#288=CARTESIAN_POINT('',(0.,0.,0.));
#289=CARTESIAN_POINT('',(4.5,0.,0.));
#290=CARTESIAN_POINT('',(4.5,0.,2.22044604925031E-16));
#291=CARTESIAN_POINT('',(0.,0.,-2.59807621135332));
#292=CARTESIAN_POINT('',(9.,0.,-2.59807621135332));
#293=CARTESIAN_POINT('',(0.,0.,-2.59807621135332));
#294=CARTESIAN_POINT('',(0.,0.,15.2045468976791));
#295=CARTESIAN_POINT('',(0.,0.,-77.98));
#296=CARTESIAN_POINT('',(0.,0.,-77.98));
#297=CARTESIAN_POINT('',(8.89999999999951,0.,-77.98));
#298=CARTESIAN_POINT('',(0.,0.,-77.98));
#299=CARTESIAN_POINT('',(0.,0.,-80.17433));
#300=CARTESIAN_POINT('',(-6.70567,0.,-80.17433));
#301=CARTESIAN_POINT('',(0.,0.,-80.5608858083582));
#302=CARTESIAN_POINT('',(6.72592853148501,0.,-80.5608858083582));
#303=CARTESIAN_POINT('',(0.,0.,-80.17433));
#304=CARTESIAN_POINT('',(0.,0.,-80.13));
#305=CARTESIAN_POINT('',(2.17603712826531E-14,0.,-123.));
#306=CARTESIAN_POINT('',(0.,0.,-120.679999999998));
#307=CARTESIAN_POINT('',(-6.75,0.,-120.679999999998));
#308=CARTESIAN_POINT('',(0.,0.,-123.));
#309=CARTESIAN_POINT('',(0.,0.,-140.68));
#310=MECHANICAL_DESIGN_GEOMETRIC_PRESENTATION_REPRESENTATION('',(#160,#161,
#162,#163,#164,#165,#166,#167),#311);
#311=(
GEOMETRIC_REPRESENTATION_CONTEXT(3)
GLOBAL_UNCERTAINTY_ASSIGNED_CONTEXT((#312))
GLOBAL_UNIT_ASSIGNED_CONTEXT((#318,#314,#313))
REPRESENTATION_CONTEXT('2238_1_3d','TOP_LEVEL_ASSEMBLY_PART')
);
#312=UNCERTAINTY_MEASURE_WITH_UNIT(LENGTH_MEASURE(2.E-5),#318,
'DISTANCE_ACCURACY_VALUE','Maximum Tolerance applied to model');
#313=(
NAMED_UNIT(*)
SI_UNIT($,.STERADIAN.)
SOLID_ANGLE_UNIT()
);
#314=(
CONVERSION_BASED_UNIT('DEGREE',#316)
NAMED_UNIT(#315)
PLANE_ANGLE_UNIT()
);
#315=DIMENSIONAL_EXPONENTS(0.,0.,0.,0.,0.,0.,0.);
#316=PLANE_ANGLE_MEASURE_WITH_UNIT(PLANE_ANGLE_MEASURE(0.0174532925),#317);
#317=(
NAMED_UNIT(*)
PLANE_ANGLE_UNIT()
SI_UNIT($,.RADIAN.)
);
#318=(
LENGTH_UNIT()
NAMED_UNIT(*)
SI_UNIT(.MILLI.,.METRE.)
);
ENDSEC;
END-ISO-10303-21;
