ISO-10303-21;
HEADER;
/* Generated by software containing ST-Developer
 * from STEP Tools, Inc. (www.steptools.com) 
 */
/* OPTION: using custom schema-name function */

FILE_DESCRIPTION(
/* description */ ('3-D model version:1'),
/* implementation_level */ '2;1');

FILE_NAME(
/* name */ 'R790-050HA06S2-22M',
/* time_stamp */ '2015-10-15T09:41:24+02:00',
/* author */ ('InteractiveCad'),
/* organization */ ('AB Sandvik Coromant'),
/* preprocessor_version */ 'ST-DEVELOPER v15',
/* originating_system */ 'SIEMENS PLM Software NX 8.5',
/* authorisation */ '');

FILE_SCHEMA (('AP203_CONFIGURATION_CONTROLLED_3D_DESIGN_OF_MECHANICAL_PARTS_AND_ASSEMBLIES_MIM_LF { 1 0 10303 403 2 1 2}'));
ENDSEC;

DATA;
#10=SHAPE_REPRESENTATION_RELATIONSHIP('None',
'relationship between R790_050HA06S2_22M_SIM-None and R790_050HA06S2_2
2M_SIM-None',#92,#11);
#11=ADVANCED_BREP_SHAPE_REPRESENTATION('R790_050HA06S2_22M_SIM-None',(#110,
#111),#646);
#12=CC_DESIGN_APPROVAL(#24,(#82));
#13=CC_DESIGN_APPROVAL(#25,(#84));
#14=CC_DESIGN_APPROVAL(#26,(#31));
#15=APPROVAL_PERSON_ORGANIZATION(#69,#24,#18);
#16=APPROVAL_PERSON_ORGANIZATION(#70,#25,#19);
#17=APPROVAL_PERSON_ORGANIZATION(#71,#26,#20);
#18=APPROVAL_ROLE('approver');
#19=APPROVAL_ROLE('approver');
#20=APPROVAL_ROLE('approver');
#21=APPROVAL_DATE_TIME(#39,#24);
#22=APPROVAL_DATE_TIME(#40,#25);
#23=APPROVAL_DATE_TIME(#41,#26);
#24=APPROVAL(#27,' ');
#25=APPROVAL(#28,' ');
#26=APPROVAL(#29,' ');
#27=APPROVAL_STATUS('not_yet_approved');
#28=APPROVAL_STATUS('not_yet_approved');
#29=APPROVAL_STATUS('not_yet_approved');
#30=CC_DESIGN_SECURITY_CLASSIFICATION(#31,(#84));
#31=SECURITY_CLASSIFICATION(' ',' ',#32);
#32=SECURITY_CLASSIFICATION_LEVEL('confidential');
#33=CC_DESIGN_DATE_AND_TIME_ASSIGNMENT(#37,#35,(#82));
#34=CC_DESIGN_DATE_AND_TIME_ASSIGNMENT(#38,#36,(#31));
#35=DATE_TIME_ROLE('creation_date');
#36=DATE_TIME_ROLE('classification_date');
#37=DATE_AND_TIME(#52,#42);
#38=DATE_AND_TIME(#53,#43);
#39=DATE_AND_TIME(#54,#44);
#40=DATE_AND_TIME(#55,#45);
#41=DATE_AND_TIME(#56,#46);
#42=LOCAL_TIME(0,0,0.,#47);
#43=LOCAL_TIME(0,0,0.,#48);
#44=LOCAL_TIME(0,0,0.,#49);
#45=LOCAL_TIME(0,0,0.,#50);
#46=LOCAL_TIME(0,0,0.,#51);
#47=COORDINATED_UNIVERSAL_TIME_OFFSET(0,0,.BEHIND.);
#48=COORDINATED_UNIVERSAL_TIME_OFFSET(0,0,.BEHIND.);
#49=COORDINATED_UNIVERSAL_TIME_OFFSET(0,0,.BEHIND.);
#50=COORDINATED_UNIVERSAL_TIME_OFFSET(0,0,.BEHIND.);
#51=COORDINATED_UNIVERSAL_TIME_OFFSET(0,0,.BEHIND.);
#52=CALENDAR_DATE(0,1,1);
#53=CALENDAR_DATE(0,1,1);
#54=CALENDAR_DATE(0,1,1);
#55=CALENDAR_DATE(0,1,1);
#56=CALENDAR_DATE(0,1,1);
#57=CC_DESIGN_PERSON_AND_ORGANIZATION_ASSIGNMENT(#65,#61,(#82,#84));
#58=CC_DESIGN_PERSON_AND_ORGANIZATION_ASSIGNMENT(#66,#62,(#86));
#59=CC_DESIGN_PERSON_AND_ORGANIZATION_ASSIGNMENT(#67,#63,(#84));
#60=CC_DESIGN_PERSON_AND_ORGANIZATION_ASSIGNMENT(#68,#64,(#31));
#61=PERSON_AND_ORGANIZATION_ROLE('creator');
#62=PERSON_AND_ORGANIZATION_ROLE('design_owner');
#63=PERSON_AND_ORGANIZATION_ROLE('design_supplier');
#64=PERSON_AND_ORGANIZATION_ROLE('classification_officer');
#65=PERSON_AND_ORGANIZATION(#79,#72);
#66=PERSON_AND_ORGANIZATION(#79,#73);
#67=PERSON_AND_ORGANIZATION(#79,#74);
#68=PERSON_AND_ORGANIZATION(#79,#75);
#69=PERSON_AND_ORGANIZATION(#79,#76);
#70=PERSON_AND_ORGANIZATION(#79,#77);
#71=PERSON_AND_ORGANIZATION(#79,#78);
#72=ORGANIZATION(' ',' ',' ');
#73=ORGANIZATION(' ',' ',' ');
#74=ORGANIZATION(' ',' ',' ');
#75=ORGANIZATION(' ',' ',' ');
#76=ORGANIZATION(' ',' ',' ');
#77=ORGANIZATION(' ',' ',' ');
#78=ORGANIZATION(' ',' ',' ');
#79=PERSON(' ',' ',' ',(' '),$,$);
#80=SHAPE_DEFINITION_REPRESENTATION(#81,#92);
#81=PRODUCT_DEFINITION_SHAPE('','',#82);
#82=PRODUCT_DEFINITION(' ','',#84,#83);
#83=DESIGN_CONTEXT('',#91,'design');
#84=PRODUCT_DEFINITION_FORMATION_WITH_SPECIFIED_SOURCE(' ',' ',#86,
 .NOT_KNOWN.);
#85=PRODUCT_RELATED_PRODUCT_CATEGORY('detail','',(#86));
#86=PRODUCT('R790_050HA06S2_22M_SIM','R790_050HA06S2_22M_SIM',' ',(#89));
#87=PRODUCT_CATEGORY('part',' ');
#88=PRODUCT_CATEGORY(' ','');
#89=MECHANICAL_CONTEXT(' ',#91,'mechanical');
#90=APPLICATION_PROTOCOL_DEFINITION('international standard',
'config_control_design',2010,#91);
#91=APPLICATION_CONTEXT(
'configuration controlled 3D designs of mechanical parts and assemblie
s');
#92=SHAPE_REPRESENTATION('R790_050HA06S2_22M_SIM-None',(#391),#646);
#93=PRESENTATION_LAYER_ASSIGNMENT('1','Layer 1',(#110,#111));
#94=STYLED_ITEM('',(#96),#110);
#95=STYLED_ITEM('',(#97),#111);
#96=PRESENTATION_STYLE_ASSIGNMENT((#98));
#97=PRESENTATION_STYLE_ASSIGNMENT((#99));
#98=SURFACE_STYLE_USAGE(.BOTH.,#100);
#99=SURFACE_STYLE_USAGE(.BOTH.,#101);
#100=SURFACE_SIDE_STYLE('',(#102));
#101=SURFACE_SIDE_STYLE('',(#103));
#102=SURFACE_STYLE_FILL_AREA(#104);
#103=SURFACE_STYLE_FILL_AREA(#105);
#104=FILL_AREA_STYLE('',(#106));
#105=FILL_AREA_STYLE('',(#107));
#106=FILL_AREA_STYLE_COLOUR('',#108);
#107=FILL_AREA_STYLE_COLOUR('',#109);
#108=COLOUR_RGB('TLS_NOCUT',0.499992370489052,0.499992370489052,0.499992370489052);
#109=COLOUR_RGB('TLS_CUT',0.8,0.8,0.8);
#110=MANIFOLD_SOLID_BREP('3D2C_BODY',#112);
#111=MANIFOLD_SOLID_BREP('',#113);
#112=CLOSED_SHELL('',(#136,#137,#138,#139,#140,#141,#142,#143,#144,#145,
#146,#147,#148,#149,#150,#151,#152,#153,#154,#155,#156,#157));
#113=CLOSED_SHELL('',(#158,#159,#160,#161));
#114=FACE_OUTER_BOUND('',#229,.T.);
#115=FACE_OUTER_BOUND('',#256,.T.);
#116=PLANE('',#403);
#117=PLANE('',#405);
#118=PLANE('',#414);
#119=PLANE('',#419);
#120=PLANE('',#422);
#121=PLANE('',#426);
#122=PLANE('',#432);
#123=PLANE('',#438);
#124=PLANE('',#441);
#125=TOROIDAL_SURFACE('',#398,20.2764781964122,2.72441527061879);
#126=TOROIDAL_SURFACE('',#401,26.5,3.733893);
#127=TOROIDAL_SURFACE('',#407,9.27296317586364,3.3);
#128=TOROIDAL_SURFACE('',#412,19.0789523111785,1.7478958010689);
#129=B_SPLINE_CURVE_WITH_KNOTS('',3,(#553,#554,#555,#556,#557,#558,#559,
#560,#561,#562,#563,#564,#565,#566,#567,#568,#569,#570,#571,#572,#573,#574,
#575,#576,#577),.UNSPECIFIED.,.T.,.F.,(1,3,3,3,3,3,3,3,3,3,1),(-0.125,0.,
0.125,0.25,0.375,0.5,0.625,0.75,0.875,1.,1.125),.UNSPECIFIED.);
#130=CYLINDRICAL_SURFACE('',#396,22.7661069879048);
#131=CYLINDRICAL_SURFACE('',#417,31.47);
#132=CYLINDRICAL_SURFACE('',#424,27.475);
#133=CYLINDRICAL_SURFACE('',#430,31.47);
#134=CYLINDRICAL_SURFACE('',#436,25.);
#135=CYLINDRICAL_SURFACE('',#440,9.);
#136=ADVANCED_FACE('',(#169,#170),#162,.T.);
#137=ADVANCED_FACE('',(#171,#172),#130,.T.);
#138=ADVANCED_FACE('',(#173,#174),#125,.T.);
#139=ADVANCED_FACE('',(#175,#176),#163,.T.);
#140=ADVANCED_FACE('',(#177,#178),#126,.F.);
#141=ADVANCED_FACE('',(#179,#180),#116,.F.);
#142=ADVANCED_FACE('',(#114),#117,.T.);
#143=ADVANCED_FACE('',(#181,#182),#127,.F.);
#144=ADVANCED_FACE('',(#183,#184),#164,.F.);
#145=ADVANCED_FACE('',(#185,#186),#165,.F.);
#146=ADVANCED_FACE('',(#187,#188),#128,.T.);
#147=ADVANCED_FACE('',(#189,#190),#118,.T.);
#148=ADVANCED_FACE('',(#191,#192),#131,.T.);
#149=ADVANCED_FACE('',(#193,#194),#119,.F.);
#150=ADVANCED_FACE('',(#195,#196),#120,.T.);
#151=ADVANCED_FACE('',(#197,#198),#132,.T.);
#152=ADVANCED_FACE('',(#199,#200),#121,.T.);
#153=ADVANCED_FACE('',(#201,#202),#166,.T.);
#154=ADVANCED_FACE('',(#203,#204),#167,.T.);
#155=ADVANCED_FACE('',(#205,#206),#133,.T.);
#156=ADVANCED_FACE('',(#115),#122,.F.);
#157=ADVANCED_FACE('',(#207,#208),#168,.T.);
#158=ADVANCED_FACE('',(#209,#210),#134,.T.);
#159=ADVANCED_FACE('',(#211,#212),#123,.T.);
#160=ADVANCED_FACE('',(#213,#214),#135,.F.);
#161=ADVANCED_FACE('',(#215,#216),#124,.T.);
#162=CONICAL_SURFACE('',#394,23.5877929921796,5.86432830426618);
#163=CONICAL_SURFACE('',#399,22.9950815971068,2.61048919149427);
#164=CONICAL_SURFACE('',#409,14.0668941983523,30.);
#165=CONICAL_SURFACE('',#411,18.2791394173124,62.7685450739229);
#166=CONICAL_SURFACE('',#428,28.9375471694755,60.);
#167=CONICAL_SURFACE('',#429,31.47,60.);
#168=CONICAL_SURFACE('',#433,22.7224348697396,2.86813194068655);
#169=FACE_BOUND('',#217,.T.);
#170=FACE_BOUND('',#218,.T.);
#171=FACE_BOUND('',#219,.T.);
#172=FACE_BOUND('',#220,.T.);
#173=FACE_BOUND('',#221,.T.);
#174=FACE_BOUND('',#222,.T.);
#175=FACE_BOUND('',#223,.T.);
#176=FACE_BOUND('',#224,.T.);
#177=FACE_BOUND('',#225,.T.);
#178=FACE_BOUND('',#226,.T.);
#179=FACE_BOUND('',#227,.T.);
#180=FACE_BOUND('',#228,.T.);
#181=FACE_BOUND('',#230,.T.);
#182=FACE_BOUND('',#231,.T.);
#183=FACE_BOUND('',#232,.T.);
#184=FACE_BOUND('',#233,.T.);
#185=FACE_BOUND('',#234,.T.);
#186=FACE_BOUND('',#235,.T.);
#187=FACE_BOUND('',#236,.T.);
#188=FACE_BOUND('',#237,.T.);
#189=FACE_BOUND('',#238,.T.);
#190=FACE_BOUND('',#239,.T.);
#191=FACE_BOUND('',#240,.T.);
#192=FACE_BOUND('',#241,.T.);
#193=FACE_BOUND('',#242,.T.);
#194=FACE_BOUND('',#243,.T.);
#195=FACE_BOUND('',#244,.T.);
#196=FACE_BOUND('',#245,.T.);
#197=FACE_BOUND('',#246,.T.);
#198=FACE_BOUND('',#247,.T.);
#199=FACE_BOUND('',#248,.T.);
#200=FACE_BOUND('',#249,.T.);
#201=FACE_BOUND('',#250,.T.);
#202=FACE_BOUND('',#251,.T.);
#203=FACE_BOUND('',#252,.T.);
#204=FACE_BOUND('',#253,.T.);
#205=FACE_BOUND('',#254,.T.);
#206=FACE_BOUND('',#255,.T.);
#207=FACE_BOUND('',#257,.T.);
#208=FACE_BOUND('',#258,.T.);
#209=FACE_BOUND('',#259,.T.);
#210=FACE_BOUND('',#260,.T.);
#211=FACE_BOUND('',#261,.T.);
#212=FACE_BOUND('',#262,.T.);
#213=FACE_BOUND('',#263,.T.);
#214=FACE_BOUND('',#264,.T.);
#215=FACE_BOUND('',#265,.T.);
#216=FACE_BOUND('',#266,.T.);
#217=EDGE_LOOP('',(#267));
#218=EDGE_LOOP('',(#268));
#219=EDGE_LOOP('',(#269));
#220=EDGE_LOOP('',(#270));
#221=EDGE_LOOP('',(#271));
#222=EDGE_LOOP('',(#272));
#223=EDGE_LOOP('',(#273));
#224=EDGE_LOOP('',(#274));
#225=EDGE_LOOP('',(#275));
#226=EDGE_LOOP('',(#276));
#227=EDGE_LOOP('',(#277));
#228=EDGE_LOOP('',(#278));
#229=EDGE_LOOP('',(#279));
#230=EDGE_LOOP('',(#280));
#231=EDGE_LOOP('',(#281));
#232=EDGE_LOOP('',(#282));
#233=EDGE_LOOP('',(#283));
#234=EDGE_LOOP('',(#284));
#235=EDGE_LOOP('',(#285));
#236=EDGE_LOOP('',(#286));
#237=EDGE_LOOP('',(#287));
#238=EDGE_LOOP('',(#288));
#239=EDGE_LOOP('',(#289));
#240=EDGE_LOOP('',(#290));
#241=EDGE_LOOP('',(#291));
#242=EDGE_LOOP('',(#292));
#243=EDGE_LOOP('',(#293));
#244=EDGE_LOOP('',(#294));
#245=EDGE_LOOP('',(#295));
#246=EDGE_LOOP('',(#296));
#247=EDGE_LOOP('',(#297));
#248=EDGE_LOOP('',(#298));
#249=EDGE_LOOP('',(#299));
#250=EDGE_LOOP('',(#300));
#251=EDGE_LOOP('',(#301));
#252=EDGE_LOOP('',(#302));
#253=EDGE_LOOP('',(#303));
#254=EDGE_LOOP('',(#304));
#255=EDGE_LOOP('',(#305));
#256=EDGE_LOOP('',(#306));
#257=EDGE_LOOP('',(#307));
#258=EDGE_LOOP('',(#308));
#259=EDGE_LOOP('',(#309));
#260=EDGE_LOOP('',(#310));
#261=EDGE_LOOP('',(#311));
#262=EDGE_LOOP('',(#312));
#263=EDGE_LOOP('',(#313));
#264=EDGE_LOOP('',(#314));
#265=EDGE_LOOP('',(#315));
#266=EDGE_LOOP('',(#316));
#267=ORIENTED_EDGE('',*,*,#342,.T.);
#268=ORIENTED_EDGE('',*,*,#343,.F.);
#269=ORIENTED_EDGE('',*,*,#344,.T.);
#270=ORIENTED_EDGE('',*,*,#342,.F.);
#271=ORIENTED_EDGE('',*,*,#345,.F.);
#272=ORIENTED_EDGE('',*,*,#346,.T.);
#273=ORIENTED_EDGE('',*,*,#343,.T.);
#274=ORIENTED_EDGE('',*,*,#346,.F.);
#275=ORIENTED_EDGE('',*,*,#347,.T.);
#276=ORIENTED_EDGE('',*,*,#344,.F.);
#277=ORIENTED_EDGE('',*,*,#345,.T.);
#278=ORIENTED_EDGE('',*,*,#348,.F.);
#279=ORIENTED_EDGE('',*,*,#349,.T.);
#280=ORIENTED_EDGE('',*,*,#350,.T.);
#281=ORIENTED_EDGE('',*,*,#349,.F.);
#282=ORIENTED_EDGE('',*,*,#350,.F.);
#283=ORIENTED_EDGE('',*,*,#351,.T.);
#284=ORIENTED_EDGE('',*,*,#351,.F.);
#285=ORIENTED_EDGE('',*,*,#352,.T.);
#286=ORIENTED_EDGE('',*,*,#348,.T.);
#287=ORIENTED_EDGE('',*,*,#352,.F.);
#288=ORIENTED_EDGE('',*,*,#353,.T.);
#289=ORIENTED_EDGE('',*,*,#347,.F.);
#290=ORIENTED_EDGE('',*,*,#354,.T.);
#291=ORIENTED_EDGE('',*,*,#355,.T.);
#292=ORIENTED_EDGE('',*,*,#354,.F.);
#293=ORIENTED_EDGE('',*,*,#356,.T.);
#294=ORIENTED_EDGE('',*,*,#357,.T.);
#295=ORIENTED_EDGE('',*,*,#358,.F.);
#296=ORIENTED_EDGE('',*,*,#357,.F.);
#297=ORIENTED_EDGE('',*,*,#359,.T.);
#298=ORIENTED_EDGE('',*,*,#360,.T.);
#299=ORIENTED_EDGE('',*,*,#359,.F.);
#300=ORIENTED_EDGE('',*,*,#361,.T.);
#301=ORIENTED_EDGE('',*,*,#360,.F.);
#302=ORIENTED_EDGE('',*,*,#358,.T.);
#303=ORIENTED_EDGE('',*,*,#355,.F.);
#304=ORIENTED_EDGE('',*,*,#361,.F.);
#305=ORIENTED_EDGE('',*,*,#353,.F.);
#306=ORIENTED_EDGE('',*,*,#362,.F.);
#307=ORIENTED_EDGE('',*,*,#362,.T.);
#308=ORIENTED_EDGE('',*,*,#356,.F.);
#309=ORIENTED_EDGE('',*,*,#363,.T.);
#310=ORIENTED_EDGE('',*,*,#364,.F.);
#311=ORIENTED_EDGE('',*,*,#365,.T.);
#312=ORIENTED_EDGE('',*,*,#363,.F.);
#313=ORIENTED_EDGE('',*,*,#366,.T.);
#314=ORIENTED_EDGE('',*,*,#365,.F.);
#315=ORIENTED_EDGE('',*,*,#364,.T.);
#316=ORIENTED_EDGE('',*,*,#366,.F.);
#317=VERTEX_POINT('',#546);
#318=VERTEX_POINT('',#548);
#319=VERTEX_POINT('',#551);
#320=VERTEX_POINT('',#578);
#321=VERTEX_POINT('',#580);
#322=VERTEX_POINT('',#584);
#323=VERTEX_POINT('',#587);
#324=VERTEX_POINT('',#590);
#325=VERTEX_POINT('',#593);
#326=VERTEX_POINT('',#596);
#327=VERTEX_POINT('',#599);
#328=VERTEX_POINT('',#603);
#329=VERTEX_POINT('',#606);
#330=VERTEX_POINT('',#608);
#331=VERTEX_POINT('',#611);
#332=VERTEX_POINT('',#614);
#333=VERTEX_POINT('',#616);
#334=VERTEX_POINT('',#619);
#335=VERTEX_POINT('',#622);
#336=VERTEX_POINT('',#625);
#337=VERTEX_POINT('',#630);
#338=VERTEX_POINT('',#634);
#339=VERTEX_POINT('',#636);
#340=VERTEX_POINT('',#639);
#341=VERTEX_POINT('',#642);
#342=EDGE_CURVE('',#317,#317,#367,.T.);
#343=EDGE_CURVE('',#318,#318,#368,.T.);
#344=EDGE_CURVE('',#319,#319,#369,.T.);
#345=EDGE_CURVE('',#320,#320,#129,.T.);
#346=EDGE_CURVE('',#321,#321,#370,.T.);
#347=EDGE_CURVE('',#322,#322,#371,.T.);
#348=EDGE_CURVE('',#323,#323,#372,.T.);
#349=EDGE_CURVE('',#324,#324,#373,.T.);
#350=EDGE_CURVE('',#325,#325,#374,.T.);
#351=EDGE_CURVE('',#326,#326,#375,.T.);
#352=EDGE_CURVE('',#327,#327,#376,.T.);
#353=EDGE_CURVE('',#328,#328,#377,.T.);
#354=EDGE_CURVE('',#329,#329,#378,.T.);
#355=EDGE_CURVE('',#330,#330,#379,.T.);
#356=EDGE_CURVE('',#331,#331,#380,.T.);
#357=EDGE_CURVE('',#332,#332,#381,.T.);
#358=EDGE_CURVE('',#333,#333,#382,.T.);
#359=EDGE_CURVE('',#334,#334,#383,.T.);
#360=EDGE_CURVE('',#335,#335,#384,.T.);
#361=EDGE_CURVE('',#336,#336,#385,.T.);
#362=EDGE_CURVE('',#337,#337,#386,.T.);
#363=EDGE_CURVE('',#338,#338,#387,.T.);
#364=EDGE_CURVE('',#339,#339,#388,.T.);
#365=EDGE_CURVE('',#340,#340,#389,.T.);
#366=EDGE_CURVE('',#341,#341,#390,.T.);
#367=CIRCLE('',#392,22.7661069879048);
#368=CIRCLE('',#393,23.5877929921796);
#369=CIRCLE('',#395,22.766107);
#370=CIRCLE('',#397,22.9950815971068);
#371=CIRCLE('',#400,26.5);
#372=CIRCLE('',#402,18.9709285615157);
#373=CIRCLE('',#404,9.27296317586364);
#374=CIRCLE('',#406,12.1308470083523);
#375=CIRCLE('',#408,14.0668941983523);
#376=CIRCLE('',#410,18.2791394173124);
#377=CIRCLE('',#413,31.47);
#378=CIRCLE('',#415,31.47);
#379=CIRCLE('',#416,31.47);
#380=CIRCLE('',#418,24.3206312625251);
#381=CIRCLE('',#420,27.475);
#382=CIRCLE('',#421,28.9375471694755);
#383=CIRCLE('',#423,27.475);
#384=CIRCLE('',#425,28.9375471694755);
#385=CIRCLE('',#427,31.47);
#386=CIRCLE('',#431,22.7224348697396);
#387=CIRCLE('',#434,25.);
#388=CIRCLE('',#435,25.);
#389=CIRCLE('',#437,9.);
#390=CIRCLE('',#439,9.);
#391=AXIS2_PLACEMENT_3D('',#544,#442,#443);
#392=AXIS2_PLACEMENT_3D('',#545,#444,#445);
#393=AXIS2_PLACEMENT_3D('',#547,#446,#447);
#394=AXIS2_PLACEMENT_3D('',#549,#448,#449);
#395=AXIS2_PLACEMENT_3D('',#550,#450,#451);
#396=AXIS2_PLACEMENT_3D('',#552,#452,#453);
#397=AXIS2_PLACEMENT_3D('',#579,#454,#455);
#398=AXIS2_PLACEMENT_3D('',#581,#456,#457);
#399=AXIS2_PLACEMENT_3D('',#582,#458,#459);
#400=AXIS2_PLACEMENT_3D('',#583,#460,#461);
#401=AXIS2_PLACEMENT_3D('',#585,#462,#463);
#402=AXIS2_PLACEMENT_3D('',#586,#464,#465);
#403=AXIS2_PLACEMENT_3D('',#588,#466,#467);
#404=AXIS2_PLACEMENT_3D('',#589,#468,#469);
#405=AXIS2_PLACEMENT_3D('',#591,#470,#471);
#406=AXIS2_PLACEMENT_3D('',#592,#472,#473);
#407=AXIS2_PLACEMENT_3D('',#594,#474,#475);
#408=AXIS2_PLACEMENT_3D('',#595,#476,#477);
#409=AXIS2_PLACEMENT_3D('',#597,#478,#479);
#410=AXIS2_PLACEMENT_3D('',#598,#480,#481);
#411=AXIS2_PLACEMENT_3D('',#600,#482,#483);
#412=AXIS2_PLACEMENT_3D('',#601,#484,#485);
#413=AXIS2_PLACEMENT_3D('',#602,#486,#487);
#414=AXIS2_PLACEMENT_3D('',#604,#488,#489);
#415=AXIS2_PLACEMENT_3D('',#605,#490,#491);
#416=AXIS2_PLACEMENT_3D('',#607,#492,#493);
#417=AXIS2_PLACEMENT_3D('',#609,#494,#495);
#418=AXIS2_PLACEMENT_3D('',#610,#496,#497);
#419=AXIS2_PLACEMENT_3D('',#612,#498,#499);
#420=AXIS2_PLACEMENT_3D('',#613,#500,#501);
#421=AXIS2_PLACEMENT_3D('',#615,#502,#503);
#422=AXIS2_PLACEMENT_3D('',#617,#504,#505);
#423=AXIS2_PLACEMENT_3D('',#618,#506,#507);
#424=AXIS2_PLACEMENT_3D('',#620,#508,#509);
#425=AXIS2_PLACEMENT_3D('',#621,#510,#511);
#426=AXIS2_PLACEMENT_3D('',#623,#512,#513);
#427=AXIS2_PLACEMENT_3D('',#624,#514,#515);
#428=AXIS2_PLACEMENT_3D('',#626,#516,#517);
#429=AXIS2_PLACEMENT_3D('',#627,#518,#519);
#430=AXIS2_PLACEMENT_3D('',#628,#520,#521);
#431=AXIS2_PLACEMENT_3D('',#629,#522,#523);
#432=AXIS2_PLACEMENT_3D('',#631,#524,#525);
#433=AXIS2_PLACEMENT_3D('',#632,#526,#527);
#434=AXIS2_PLACEMENT_3D('',#633,#528,#529);
#435=AXIS2_PLACEMENT_3D('',#635,#530,#531);
#436=AXIS2_PLACEMENT_3D('',#637,#532,#533);
#437=AXIS2_PLACEMENT_3D('',#638,#534,#535);
#438=AXIS2_PLACEMENT_3D('',#640,#536,#537);
#439=AXIS2_PLACEMENT_3D('',#641,#538,#539);
#440=AXIS2_PLACEMENT_3D('',#643,#540,#541);
#441=AXIS2_PLACEMENT_3D('',#644,#542,#543);
#442=DIRECTION('',(0.,0.,1.));
#443=DIRECTION('',(1.,0.,0.));
#444=DIRECTION('',(0.,0.,-1.));
#445=DIRECTION('',(-1.,0.,0.));
#446=DIRECTION('',(0.,0.,-1.));
#447=DIRECTION('',(-1.,0.,0.));
#448=DIRECTION('',(0.,0.,-1.));
#449=DIRECTION('',(-1.,0.,-7.6916575553618E-016));
#450=DIRECTION('',(0.,0.,-1.));
#451=DIRECTION('',(-1.,0.,0.));
#452=DIRECTION('',(0.,0.,-1.));
#453=DIRECTION('',(-1.,0.,0.));
#454=DIRECTION('',(0.,0.,-1.));
#455=DIRECTION('',(-1.,0.,0.));
#456=DIRECTION('',(0.,0.,-1.));
#457=DIRECTION('',(-1.,0.,0.));
#458=DIRECTION('',(0.,0.,1.));
#459=DIRECTION('',(1.,0.,4.04669447147335E-016));
#460=DIRECTION('',(0.,0.,-1.));
#461=DIRECTION('',(-1.,0.,0.));
#462=DIRECTION('',(0.,0.,-1.));
#463=DIRECTION('',(-1.,0.,0.));
#464=DIRECTION('',(0.,0.,-1.));
#465=DIRECTION('',(-1.,0.,0.));
#466=DIRECTION('',(0.,0.,1.));
#467=DIRECTION('',(1.,0.,0.));
#468=DIRECTION('',(0.,0.,-1.));
#469=DIRECTION('',(-1.,0.,0.));
#470=DIRECTION('',(0.,0.,-1.));
#471=DIRECTION('',(-1.,0.,0.));
#472=DIRECTION('',(0.,0.,-1.));
#473=DIRECTION('',(-1.,0.,0.));
#474=DIRECTION('',(0.,0.,-1.));
#475=DIRECTION('',(-1.,0.,0.));
#476=DIRECTION('',(0.,0.,-1.));
#477=DIRECTION('',(-1.,0.,0.));
#478=DIRECTION('',(0.,0.,-1.));
#479=DIRECTION('',(-1.,0.,-1.4079186740183E-016));
#480=DIRECTION('',(0.,0.,-1.));
#481=DIRECTION('',(-1.,0.,0.));
#482=DIRECTION('',(0.,0.,-1.));
#483=DIRECTION('',(-1.,0.,-3.53764573688243E-017));
#484=DIRECTION('',(0.,0.,-1.));
#485=DIRECTION('',(-1.,0.,0.));
#486=DIRECTION('',(0.,0.,-1.));
#487=DIRECTION('',(1.,0.,0.));
#488=DIRECTION('',(0.,0.,-1.));
#489=DIRECTION('',(1.,0.,0.));
#490=DIRECTION('',(-1.72691919729727E-046,-1.47416559734881E-031,-1.));
#491=DIRECTION('',(0.,1.,-1.47416559734881E-031));
#492=DIRECTION('',(0.,0.,1.));
#493=DIRECTION('',(-1.,0.,0.));
#494=DIRECTION('',(-1.72691919729727E-046,-1.47416559734881E-031,-1.));
#495=DIRECTION('',(0.,1.,0.));
#496=DIRECTION('',(0.,0.,-1.));
#497=DIRECTION('',(1.,0.,0.));
#498=DIRECTION('',(-1.72691919729727E-046,-1.47416559734881E-031,-1.));
#499=DIRECTION('',(0.,1.,-1.47416559734881E-031));
#500=DIRECTION('',(0.,0.,1.));
#501=DIRECTION('',(-1.,0.,0.));
#502=DIRECTION('',(0.,0.,1.));
#503=DIRECTION('',(-1.,0.,0.));
#504=DIRECTION('',(0.,0.,-1.));
#505=DIRECTION('',(1.,0.,0.));
#506=DIRECTION('',(0.,0.,1.));
#507=DIRECTION('',(-1.,0.,0.));
#508=DIRECTION('',(0.,0.,1.));
#509=DIRECTION('',(-1.,0.,0.));
#510=DIRECTION('',(0.,0.,1.));
#511=DIRECTION('',(-1.,0.,0.));
#512=DIRECTION('',(0.,0.,1.));
#513=DIRECTION('',(-1.,0.,0.));
#514=DIRECTION('',(0.,0.,1.));
#515=DIRECTION('',(-1.,0.,0.));
#516=DIRECTION('',(0.,0.,-1.));
#517=DIRECTION('',(1.,0.,0.));
#518=DIRECTION('',(0.,0.,1.));
#519=DIRECTION('',(-1.,0.,0.));
#520=DIRECTION('',(-1.72691919729727E-046,-1.47416559734881E-031,-1.));
#521=DIRECTION('',(0.,1.,0.));
#522=DIRECTION('',(-1.72691919729727E-046,-1.47416559734881E-031,-1.));
#523=DIRECTION('',(0.,1.,0.));
#524=DIRECTION('',(-1.72691919729727E-046,-1.47416559734881E-031,-1.));
#525=DIRECTION('',(0.,1.,0.));
#526=DIRECTION('',(-1.72691919729727E-046,-1.47416559734881E-031,-1.));
#527=DIRECTION('',(0.,1.,3.81139401403368E-016));
#528=DIRECTION('',(0.,0.,-1.));
#529=DIRECTION('',(-1.,0.,0.));
#530=DIRECTION('',(0.,0.,-1.));
#531=DIRECTION('',(-1.,0.,0.));
#532=DIRECTION('',(0.,0.,-1.));
#533=DIRECTION('',(-1.,0.,0.));
#534=DIRECTION('',(0.,0.,-1.));
#535=DIRECTION('',(-1.,0.,0.));
#536=DIRECTION('',(0.,0.,1.));
#537=DIRECTION('',(1.,0.,0.));
#538=DIRECTION('',(0.,0.,-1.));
#539=DIRECTION('',(-1.,0.,0.));
#540=DIRECTION('',(0.,0.,-1.));
#541=DIRECTION('',(-1.,0.,0.));
#542=DIRECTION('',(0.,0.,-1.));
#543=DIRECTION('',(-1.,0.,0.));
#544=CARTESIAN_POINT('',(0.,0.,0.));
#545=CARTESIAN_POINT('',(0.,0.,-74.6757362648687));
#546=CARTESIAN_POINT('',(-22.7661069879048,0.,-74.6757362648687));
#547=CARTESIAN_POINT('',(0.,0.,-82.6757362648688));
#548=CARTESIAN_POINT('',(-23.5877929921796,0.,-82.6757362648688));
#549=CARTESIAN_POINT('',(0.,0.,-82.6757362648688));
#550=CARTESIAN_POINT('',(0.,0.,-29.733893));
#551=CARTESIAN_POINT('',(-22.766107,0.,-29.733893));
#552=CARTESIAN_POINT('',(0.,0.,-95.2165613662613));
#553=CARTESIAN_POINT('',(-20.2764781964122,0.,-98.5780038250033));
#554=CARTESIAN_POINT('',(-20.2762792855112,5.37761680770894,-98.5780038250033));
#555=CARTESIAN_POINT('',(-18.1393647817986,10.5356244284752,-98.5780038250033));
#556=CARTESIAN_POINT('',(-14.3376352312643,14.3376352312643,-98.5780038250033));
#557=CARTESIAN_POINT('',(-10.53590568073,18.1396460340533,-98.5780038250033));
#558=CARTESIAN_POINT('',(-5.37665636621741,20.2762793210366,-98.5780038250033));
#559=CARTESIAN_POINT('',(0.,20.2764781964123,-98.5780038250033));
#560=CARTESIAN_POINT('',(5.37665636621741,20.2766770717879,-98.5780038250033));
#561=CARTESIAN_POINT('',(10.5356244284518,18.1393647818282,-98.5780038250033));
#562=CARTESIAN_POINT('',(14.3376352312643,14.3376352312643,-98.5780038250033));
#563=CARTESIAN_POINT('',(18.1396460340767,10.5359056807004,-98.5780038250033));
#564=CARTESIAN_POINT('',(20.2762793210366,5.37665636618739,-98.5780038250033));
#565=CARTESIAN_POINT('',(20.2764781964123,0.,-98.5780038250033));
#566=CARTESIAN_POINT('',(20.2766770717879,-5.37665636618739,-98.5780038250033));
#567=CARTESIAN_POINT('',(18.1393647817583,-10.535624428503,-98.5780038250033));
#568=CARTESIAN_POINT('',(14.3376352312643,-14.3376352312642,-98.5780038250033));
#569=CARTESIAN_POINT('',(10.5359056807703,-18.1396460340254,-98.5780038250033));
#570=CARTESIAN_POINT('',(5.37665636618431,-20.2762793210366,-98.5780038250033));
#571=CARTESIAN_POINT('',(0.,-20.2764781964122,-98.5780038250033));
#572=CARTESIAN_POINT('',(-5.37665636618431,-20.2766770717879,-98.5780038250033));
#573=CARTESIAN_POINT('',(-10.5356244284643,-18.139364781822,-98.5780038250033));
#574=CARTESIAN_POINT('',(-14.3376352312643,-14.3376352312643,-98.5780038250033));
#575=CARTESIAN_POINT('',(-18.1396460340643,-10.5359056807066,-98.5780038250033));
#576=CARTESIAN_POINT('',(-20.2766771102404,-5.37769593997726,-98.5780038250033));
#577=CARTESIAN_POINT('',(-20.2764781964122,0.,-98.5780038250033));
#578=CARTESIAN_POINT('',(-20.2802660450285,4.25555671634654E-014,-98.5780023251838));
#579=CARTESIAN_POINT('',(0.,0.,-95.6757362648687));
#580=CARTESIAN_POINT('',(-22.9950815971068,0.,-95.6757362648687));
#581=CARTESIAN_POINT('',(0.,0.,-95.8535960875192));
#582=CARTESIAN_POINT('',(0.,0.,-95.6757362648687));
#583=CARTESIAN_POINT('',(0.,0.,-26.));
#584=CARTESIAN_POINT('',(-26.5,0.,-26.));
#585=CARTESIAN_POINT('',(0.,0.,-29.733893));
#586=CARTESIAN_POINT('',(0.,0.,-98.5780038250033));
#587=CARTESIAN_POINT('',(-18.9709285615157,0.,-98.5780038250033));
#588=CARTESIAN_POINT('',(-8.69029856398268,16.9903094557376,-98.5780038250033));
#589=CARTESIAN_POINT('',(0.,0.,-91.2165613662613));
#590=CARTESIAN_POINT('',(-9.27296317586364,0.,-91.2165613662613));
#591=CARTESIAN_POINT('',(0.,-6.7973844691027E-016,-91.2165613662613));
#592=CARTESIAN_POINT('',(0.,0.,-92.8665613662613));
#593=CARTESIAN_POINT('',(-12.1308470083523,0.,-92.8665613662613));
#594=CARTESIAN_POINT('',(0.,0.,-94.5165613662613));
#595=CARTESIAN_POINT('',(0.,0.,-96.2198934651922));
#596=CARTESIAN_POINT('',(-14.0668941983523,0.,-96.2198934651922));
#597=CARTESIAN_POINT('',(0.,0.,-96.2198934651922));
#598=CARTESIAN_POINT('',(0.,0.,-98.3876175560238));
#599=CARTESIAN_POINT('',(-18.2791394173124,0.,-98.3876175560238));
#600=CARTESIAN_POINT('',(0.,0.,-98.3876175560238));
#601=CARTESIAN_POINT('',(0.,0.,-96.8334492684179));
#602=CARTESIAN_POINT('',(-3.15544362088405E-030,0.,-26.));
#603=CARTESIAN_POINT('',(31.47,0.,-26.));
#604=CARTESIAN_POINT('',(-3.15544362088405E-030,0.,-26.));
#605=CARTESIAN_POINT('',(-3.15544362088404E-030,3.82545972512017E-030,0.));
#606=CARTESIAN_POINT('',(-3.15544362088404E-030,31.47,-4.63919913485671E-030));
#607=CARTESIAN_POINT('',(-3.15544362088405E-030,0.,-14.6253876765866));
#608=CARTESIAN_POINT('',(-31.47,0.,-14.6253876765866));
#609=CARTESIAN_POINT('',(-3.15544362088404E-030,8.52804798066288E-030,31.8999999999999));
#610=CARTESIAN_POINT('',(-3.15544362088405E-030,0.,0.));
#611=CARTESIAN_POINT('',(24.3206312625251,0.,0.));
#612=CARTESIAN_POINT('',(25.4302384828588,-2.97903892933578E-014,0.));
#613=CARTESIAN_POINT('',(-3.15544362088405E-030,0.,-16.0875));
#614=CARTESIAN_POINT('',(-27.475,0.,-16.0875));
#615=CARTESIAN_POINT('',(-3.15544362088405E-030,0.,-16.0875));
#616=CARTESIAN_POINT('',(-28.9375471694755,0.,-16.0875));
#617=CARTESIAN_POINT('',(28.9375471694755,-3.38990448695419E-014,-16.0875));
#618=CARTESIAN_POINT('',(-3.15544362088405E-030,0.,-19.9125));
#619=CARTESIAN_POINT('',(-27.475,0.,-19.9125));
#620=CARTESIAN_POINT('',(-3.15544362088405E-030,0.,-5.));
#621=CARTESIAN_POINT('',(-3.15544362088405E-030,0.,-19.9125));
#622=CARTESIAN_POINT('',(-28.9375471694755,0.,-19.9125));
#623=CARTESIAN_POINT('',(27.475,-3.21857361419049E-014,-19.9125));
#624=CARTESIAN_POINT('',(-3.15544362088405E-030,0.,-21.3746123234134));
#625=CARTESIAN_POINT('',(-31.47,0.,-21.3746123234134));
#626=CARTESIAN_POINT('',(-3.15544362088405E-030,0.,-19.9125));
#627=CARTESIAN_POINT('',(-3.15544362088405E-030,0.,-14.6253876765866));
#628=CARTESIAN_POINT('',(-3.15544362088404E-030,8.52804798066288E-030,31.8999999999999));
#629=CARTESIAN_POINT('',(-3.15544362088404E-030,8.52804798066288E-030,31.8999999999999));
#630=CARTESIAN_POINT('',(-3.15544362088404E-030,22.7224348697396,31.8999999999999));
#631=CARTESIAN_POINT('',(-3.15544362088404E-030,8.52804798066288E-030,31.8999999999999));
#632=CARTESIAN_POINT('',(-3.15544362088404E-030,8.52804798066288E-030,31.8999999999999));
#633=CARTESIAN_POINT('',(0.,0.,-82.));
#634=CARTESIAN_POINT('',(-25.,0.,-82.));
#635=CARTESIAN_POINT('',(0.,0.,-100.));
#636=CARTESIAN_POINT('',(-25.,0.,-100.));
#637=CARTESIAN_POINT('',(0.,0.,0.));
#638=CARTESIAN_POINT('',(0.,0.,-82.));
#639=CARTESIAN_POINT('',(-9.,0.,-82.));
#640=CARTESIAN_POINT('',(25.,0.,-82.));
#641=CARTESIAN_POINT('',(0.,0.,-100.));
#642=CARTESIAN_POINT('',(-9.,0.,-100.));
#643=CARTESIAN_POINT('',(0.,0.,0.));
#644=CARTESIAN_POINT('',(9.,0.,-100.));
#645=MECHANICAL_DESIGN_GEOMETRIC_PRESENTATION_REPRESENTATION('',(#94,#95),
#646);
#646=(
GEOMETRIC_REPRESENTATION_CONTEXT(3)
GLOBAL_UNCERTAINTY_ASSIGNED_CONTEXT((#647))
GLOBAL_UNIT_ASSIGNED_CONTEXT((#653,#649,#648))
REPRESENTATION_CONTEXT('R790_050HA06S2_22M_SIM',
'TOP_LEVEL_ASSEMBLY_PART')
);
#647=UNCERTAINTY_MEASURE_WITH_UNIT(LENGTH_MEASURE(0.0508),#653,
'DISTANCE_ACCURACY_VALUE','Maximum Tolerance applied to model');
#648=(
NAMED_UNIT(*)
SI_UNIT($,.STERADIAN.)
SOLID_ANGLE_UNIT()
);
#649=(
CONVERSION_BASED_UNIT('DEGREE',#651)
NAMED_UNIT(#650)
PLANE_ANGLE_UNIT()
);
#650=DIMENSIONAL_EXPONENTS(0.,0.,0.,0.,0.,0.,0.);
#651=PLANE_ANGLE_MEASURE_WITH_UNIT(PLANE_ANGLE_MEASURE(0.0174532925),#652);
#652=(
NAMED_UNIT(*)
PLANE_ANGLE_UNIT()
SI_UNIT($,.RADIAN.)
);
#653=(
LENGTH_UNIT()
NAMED_UNIT(*)
SI_UNIT(.MILLI.,.METRE.)
);
ENDSEC;
END-ISO-10303-21;
