ISO-10303-21;
HEADER;
/* Generated by software containing ST-Developer
 * from STEP Tools, Inc. (www.steptools.com) 
 */
/* OPTION: using custom schema-name function */

FILE_DESCRIPTION(
/* description */ ('3-D model version:1'),
/* implementation_level */ '2;1');

FILE_NAME(
/* name */ 'R790-040A32S2-16L',
/* time_stamp */ '2015-10-15T07:58:14+02:00',
/* author */ ('InteractiveCad'),
/* organization */ ('AB Sandvik Coromant'),
/* preprocessor_version */ 'ST-DEVELOPER v15',
/* originating_system */ 'SIEMENS PLM Software NX 8.5',
/* authorisation */ '');

FILE_SCHEMA (('AP203_CONFIGURATION_CONTROLLED_3D_DESIGN_OF_MECHANICAL_PARTS_AND_ASSEMBLIES_MIM_LF { 1 0 10303 403 2 1 2}'));
ENDSEC;

DATA;
#10=SHAPE_REPRESENTATION_RELATIONSHIP('None',
'relationship between R790_040A32S2_16L_SIM-None and R790_040A32S2_16L
_SIM-None',#92,#11);
#11=ADVANCED_BREP_SHAPE_REPRESENTATION('R790_040A32S2_16L_SIM-None',(#110,
#111),#485);
#12=CC_DESIGN_APPROVAL(#24,(#82));
#13=CC_DESIGN_APPROVAL(#25,(#84));
#14=CC_DESIGN_APPROVAL(#26,(#31));
#15=APPROVAL_PERSON_ORGANIZATION(#69,#24,#18);
#16=APPROVAL_PERSON_ORGANIZATION(#70,#25,#19);
#17=APPROVAL_PERSON_ORGANIZATION(#71,#26,#20);
#18=APPROVAL_ROLE('approver');
#19=APPROVAL_ROLE('approver');
#20=APPROVAL_ROLE('approver');
#21=APPROVAL_DATE_TIME(#39,#24);
#22=APPROVAL_DATE_TIME(#40,#25);
#23=APPROVAL_DATE_TIME(#41,#26);
#24=APPROVAL(#27,' ');
#25=APPROVAL(#28,' ');
#26=APPROVAL(#29,' ');
#27=APPROVAL_STATUS('not_yet_approved');
#28=APPROVAL_STATUS('not_yet_approved');
#29=APPROVAL_STATUS('not_yet_approved');
#30=CC_DESIGN_SECURITY_CLASSIFICATION(#31,(#84));
#31=SECURITY_CLASSIFICATION(' ',' ',#32);
#32=SECURITY_CLASSIFICATION_LEVEL('confidential');
#33=CC_DESIGN_DATE_AND_TIME_ASSIGNMENT(#37,#35,(#82));
#34=CC_DESIGN_DATE_AND_TIME_ASSIGNMENT(#38,#36,(#31));
#35=DATE_TIME_ROLE('creation_date');
#36=DATE_TIME_ROLE('classification_date');
#37=DATE_AND_TIME(#52,#42);
#38=DATE_AND_TIME(#53,#43);
#39=DATE_AND_TIME(#54,#44);
#40=DATE_AND_TIME(#55,#45);
#41=DATE_AND_TIME(#56,#46);
#42=LOCAL_TIME(0,0,0.,#47);
#43=LOCAL_TIME(0,0,0.,#48);
#44=LOCAL_TIME(0,0,0.,#49);
#45=LOCAL_TIME(0,0,0.,#50);
#46=LOCAL_TIME(0,0,0.,#51);
#47=COORDINATED_UNIVERSAL_TIME_OFFSET(0,0,.BEHIND.);
#48=COORDINATED_UNIVERSAL_TIME_OFFSET(0,0,.BEHIND.);
#49=COORDINATED_UNIVERSAL_TIME_OFFSET(0,0,.BEHIND.);
#50=COORDINATED_UNIVERSAL_TIME_OFFSET(0,0,.BEHIND.);
#51=COORDINATED_UNIVERSAL_TIME_OFFSET(0,0,.BEHIND.);
#52=CALENDAR_DATE(0,1,1);
#53=CALENDAR_DATE(0,1,1);
#54=CALENDAR_DATE(0,1,1);
#55=CALENDAR_DATE(0,1,1);
#56=CALENDAR_DATE(0,1,1);
#57=CC_DESIGN_PERSON_AND_ORGANIZATION_ASSIGNMENT(#65,#61,(#82,#84));
#58=CC_DESIGN_PERSON_AND_ORGANIZATION_ASSIGNMENT(#66,#62,(#86));
#59=CC_DESIGN_PERSON_AND_ORGANIZATION_ASSIGNMENT(#67,#63,(#84));
#60=CC_DESIGN_PERSON_AND_ORGANIZATION_ASSIGNMENT(#68,#64,(#31));
#61=PERSON_AND_ORGANIZATION_ROLE('creator');
#62=PERSON_AND_ORGANIZATION_ROLE('design_owner');
#63=PERSON_AND_ORGANIZATION_ROLE('design_supplier');
#64=PERSON_AND_ORGANIZATION_ROLE('classification_officer');
#65=PERSON_AND_ORGANIZATION(#79,#72);
#66=PERSON_AND_ORGANIZATION(#79,#73);
#67=PERSON_AND_ORGANIZATION(#79,#74);
#68=PERSON_AND_ORGANIZATION(#79,#75);
#69=PERSON_AND_ORGANIZATION(#79,#76);
#70=PERSON_AND_ORGANIZATION(#79,#77);
#71=PERSON_AND_ORGANIZATION(#79,#78);
#72=ORGANIZATION(' ',' ',' ');
#73=ORGANIZATION(' ',' ',' ');
#74=ORGANIZATION(' ',' ',' ');
#75=ORGANIZATION(' ',' ',' ');
#76=ORGANIZATION(' ',' ',' ');
#77=ORGANIZATION(' ',' ',' ');
#78=ORGANIZATION(' ',' ',' ');
#79=PERSON(' ',' ',' ',(' '),$,$);
#80=SHAPE_DEFINITION_REPRESENTATION(#81,#92);
#81=PRODUCT_DEFINITION_SHAPE('','',#82);
#82=PRODUCT_DEFINITION(' ','',#84,#83);
#83=DESIGN_CONTEXT('',#91,'design');
#84=PRODUCT_DEFINITION_FORMATION_WITH_SPECIFIED_SOURCE(' ',' ',#86,
 .NOT_KNOWN.);
#85=PRODUCT_RELATED_PRODUCT_CATEGORY('detail','',(#86));
#86=PRODUCT('R790_040A32S2_16L_SIM','R790_040A32S2_16L_SIM',' ',(#89));
#87=PRODUCT_CATEGORY('part',' ');
#88=PRODUCT_CATEGORY(' ','');
#89=MECHANICAL_CONTEXT(' ',#91,'mechanical');
#90=APPLICATION_PROTOCOL_DEFINITION('international standard',
'config_control_design',2010,#91);
#91=APPLICATION_CONTEXT(
'configuration controlled 3D designs of mechanical parts and assemblie
s');
#92=SHAPE_REPRESENTATION('R790_040A32S2_16L_SIM-None',(#314),#485);
#93=PRESENTATION_LAYER_ASSIGNMENT('1','Layer 1',(#110,#111));
#94=STYLED_ITEM('',(#96),#110);
#95=STYLED_ITEM('',(#97),#111);
#96=PRESENTATION_STYLE_ASSIGNMENT((#98));
#97=PRESENTATION_STYLE_ASSIGNMENT((#99));
#98=SURFACE_STYLE_USAGE(.BOTH.,#100);
#99=SURFACE_STYLE_USAGE(.BOTH.,#101);
#100=SURFACE_SIDE_STYLE('',(#102));
#101=SURFACE_SIDE_STYLE('',(#103));
#102=SURFACE_STYLE_FILL_AREA(#104);
#103=SURFACE_STYLE_FILL_AREA(#105);
#104=FILL_AREA_STYLE('',(#106));
#105=FILL_AREA_STYLE('',(#107));
#106=FILL_AREA_STYLE_COLOUR('',#108);
#107=FILL_AREA_STYLE_COLOUR('',#109);
#108=COLOUR_RGB('TLS_NOCUT',0.499992370489052,0.499992370489052,0.499992370489052);
#109=COLOUR_RGB('TLS_CUT',0.8,0.8,0.8);
#110=MANIFOLD_SOLID_BREP('TURN_SOLID',#112);
#111=MANIFOLD_SOLID_BREP('',#113);
#112=CLOSED_SHELL('',(#132,#133,#134,#135,#136,#137,#138,#139,#140,#141,
#142,#143,#144,#145,#146));
#113=CLOSED_SHELL('',(#147,#148,#149,#150));
#114=FACE_OUTER_BOUND('',#204,.T.);
#115=FACE_OUTER_BOUND('',#215,.T.);
#116=PLANE('',#329);
#117=PLANE('',#331);
#118=PLANE('',#333);
#119=PLANE('',#343);
#120=PLANE('',#348);
#121=PLANE('',#351);
#122=CYLINDRICAL_SURFACE('',#322,18.5096829935085);
#123=CYLINDRICAL_SURFACE('',#326,16.);
#124=CYLINDRICAL_SURFACE('',#346,20.);
#125=CYLINDRICAL_SURFACE('',#350,9.);
#126=CONICAL_SURFACE('',#320,19.3313689977833,5.86432830426608);
#127=CONICAL_SURFACE('',#323,18.913382913305,2.60086516658173);
#128=CONICAL_SURFACE('',#328,18.509683,45.0000000000006);
#129=CONICAL_SURFACE('',#337,11.6176683723684,20.7317088900185);
#130=CONICAL_SURFACE('',#339,11.7204271522449,58.0173961720512);
#131=CONICAL_SURFACE('',#342,14.5,45.0000000000001);
#132=ADVANCED_FACE('',(#154,#155),#151,.T.);
#133=ADVANCED_FACE('',(#156,#157),#126,.T.);
#134=ADVANCED_FACE('',(#158,#159),#122,.T.);
#135=ADVANCED_FACE('',(#160,#161),#127,.T.);
#136=ADVANCED_FACE('',(#162,#163),#123,.T.);
#137=ADVANCED_FACE('',(#164,#165),#128,.T.);
#138=ADVANCED_FACE('',(#166,#167),#116,.T.);
#139=ADVANCED_FACE('',(#168,#169),#117,.T.);
#140=ADVANCED_FACE('',(#114),#118,.F.);
#141=ADVANCED_FACE('',(#170,#171),#152,.F.);
#142=ADVANCED_FACE('',(#172,#173),#129,.F.);
#143=ADVANCED_FACE('',(#174,#175),#130,.F.);
#144=ADVANCED_FACE('',(#176,#177),#153,.T.);
#145=ADVANCED_FACE('',(#178,#179),#131,.T.);
#146=ADVANCED_FACE('',(#115),#119,.F.);
#147=ADVANCED_FACE('',(#180,#181),#124,.T.);
#148=ADVANCED_FACE('',(#182,#183),#120,.T.);
#149=ADVANCED_FACE('',(#184,#185),#125,.F.);
#150=ADVANCED_FACE('',(#186,#187),#121,.T.);
#151=TOROIDAL_SURFACE('',#317,15.2164844380835,3.7);
#152=TOROIDAL_SURFACE('',#335,8.81192357455972,3.);
#153=TOROIDAL_SURFACE('',#340,14.6170550827912,1.10000000000003);
#154=FACE_BOUND('',#188,.T.);
#155=FACE_BOUND('',#189,.T.);
#156=FACE_BOUND('',#190,.T.);
#157=FACE_BOUND('',#191,.T.);
#158=FACE_BOUND('',#192,.T.);
#159=FACE_BOUND('',#193,.T.);
#160=FACE_BOUND('',#194,.T.);
#161=FACE_BOUND('',#195,.T.);
#162=FACE_BOUND('',#196,.T.);
#163=FACE_BOUND('',#197,.T.);
#164=FACE_BOUND('',#198,.T.);
#165=FACE_BOUND('',#199,.T.);
#166=FACE_BOUND('',#200,.T.);
#167=FACE_BOUND('',#201,.T.);
#168=FACE_BOUND('',#202,.T.);
#169=FACE_BOUND('',#203,.T.);
#170=FACE_BOUND('',#205,.T.);
#171=FACE_BOUND('',#206,.T.);
#172=FACE_BOUND('',#207,.T.);
#173=FACE_BOUND('',#208,.T.);
#174=FACE_BOUND('',#209,.T.);
#175=FACE_BOUND('',#210,.T.);
#176=FACE_BOUND('',#211,.T.);
#177=FACE_BOUND('',#212,.T.);
#178=FACE_BOUND('',#213,.T.);
#179=FACE_BOUND('',#214,.T.);
#180=FACE_BOUND('',#216,.T.);
#181=FACE_BOUND('',#217,.T.);
#182=FACE_BOUND('',#218,.T.);
#183=FACE_BOUND('',#219,.T.);
#184=FACE_BOUND('',#220,.T.);
#185=FACE_BOUND('',#221,.T.);
#186=FACE_BOUND('',#222,.T.);
#187=FACE_BOUND('',#223,.T.);
#188=EDGE_LOOP('',(#224));
#189=EDGE_LOOP('',(#225));
#190=EDGE_LOOP('',(#226));
#191=EDGE_LOOP('',(#227));
#192=EDGE_LOOP('',(#228));
#193=EDGE_LOOP('',(#229));
#194=EDGE_LOOP('',(#230));
#195=EDGE_LOOP('',(#231));
#196=EDGE_LOOP('',(#232));
#197=EDGE_LOOP('',(#233));
#198=EDGE_LOOP('',(#234));
#199=EDGE_LOOP('',(#235));
#200=EDGE_LOOP('',(#236));
#201=EDGE_LOOP('',(#237));
#202=EDGE_LOOP('',(#238));
#203=EDGE_LOOP('',(#239));
#204=EDGE_LOOP('',(#240));
#205=EDGE_LOOP('',(#241));
#206=EDGE_LOOP('',(#242));
#207=EDGE_LOOP('',(#243));
#208=EDGE_LOOP('',(#244));
#209=EDGE_LOOP('',(#245));
#210=EDGE_LOOP('',(#246));
#211=EDGE_LOOP('',(#247));
#212=EDGE_LOOP('',(#248));
#213=EDGE_LOOP('',(#249));
#214=EDGE_LOOP('',(#250));
#215=EDGE_LOOP('',(#251));
#216=EDGE_LOOP('',(#252));
#217=EDGE_LOOP('',(#253));
#218=EDGE_LOOP('',(#254));
#219=EDGE_LOOP('',(#255));
#220=EDGE_LOOP('',(#256));
#221=EDGE_LOOP('',(#257));
#222=EDGE_LOOP('',(#258));
#223=EDGE_LOOP('',(#259));
#224=ORIENTED_EDGE('',*,*,#278,.F.);
#225=ORIENTED_EDGE('',*,*,#279,.T.);
#226=ORIENTED_EDGE('',*,*,#280,.F.);
#227=ORIENTED_EDGE('',*,*,#281,.T.);
#228=ORIENTED_EDGE('',*,*,#282,.F.);
#229=ORIENTED_EDGE('',*,*,#280,.T.);
#230=ORIENTED_EDGE('',*,*,#281,.F.);
#231=ORIENTED_EDGE('',*,*,#278,.T.);
#232=ORIENTED_EDGE('',*,*,#283,.F.);
#233=ORIENTED_EDGE('',*,*,#284,.T.);
#234=ORIENTED_EDGE('',*,*,#285,.T.);
#235=ORIENTED_EDGE('',*,*,#282,.T.);
#236=ORIENTED_EDGE('',*,*,#283,.T.);
#237=ORIENTED_EDGE('',*,*,#285,.F.);
#238=ORIENTED_EDGE('',*,*,#286,.T.);
#239=ORIENTED_EDGE('',*,*,#279,.F.);
#240=ORIENTED_EDGE('',*,*,#287,.F.);
#241=ORIENTED_EDGE('',*,*,#288,.F.);
#242=ORIENTED_EDGE('',*,*,#287,.T.);
#243=ORIENTED_EDGE('',*,*,#289,.F.);
#244=ORIENTED_EDGE('',*,*,#288,.T.);
#245=ORIENTED_EDGE('',*,*,#290,.F.);
#246=ORIENTED_EDGE('',*,*,#289,.T.);
#247=ORIENTED_EDGE('',*,*,#290,.T.);
#248=ORIENTED_EDGE('',*,*,#286,.F.);
#249=ORIENTED_EDGE('',*,*,#284,.F.);
#250=ORIENTED_EDGE('',*,*,#291,.T.);
#251=ORIENTED_EDGE('',*,*,#291,.F.);
#252=ORIENTED_EDGE('',*,*,#292,.T.);
#253=ORIENTED_EDGE('',*,*,#293,.F.);
#254=ORIENTED_EDGE('',*,*,#294,.T.);
#255=ORIENTED_EDGE('',*,*,#292,.F.);
#256=ORIENTED_EDGE('',*,*,#295,.T.);
#257=ORIENTED_EDGE('',*,*,#294,.F.);
#258=ORIENTED_EDGE('',*,*,#293,.T.);
#259=ORIENTED_EDGE('',*,*,#295,.F.);
#260=VERTEX_POINT('',#430);
#261=VERTEX_POINT('',#432);
#262=VERTEX_POINT('',#435);
#263=VERTEX_POINT('',#437);
#264=VERTEX_POINT('',#440);
#265=VERTEX_POINT('',#444);
#266=VERTEX_POINT('',#446);
#267=VERTEX_POINT('',#449);
#268=VERTEX_POINT('',#453);
#269=VERTEX_POINT('',#456);
#270=VERTEX_POINT('',#459);
#271=VERTEX_POINT('',#462);
#272=VERTEX_POINT('',#465);
#273=VERTEX_POINT('',#469);
#274=VERTEX_POINT('',#473);
#275=VERTEX_POINT('',#475);
#276=VERTEX_POINT('',#478);
#277=VERTEX_POINT('',#481);
#278=EDGE_CURVE('',#260,#260,#296,.T.);
#279=EDGE_CURVE('',#261,#261,#297,.T.);
#280=EDGE_CURVE('',#262,#262,#298,.T.);
#281=EDGE_CURVE('',#263,#263,#299,.T.);
#282=EDGE_CURVE('',#264,#264,#300,.T.);
#283=EDGE_CURVE('',#265,#265,#301,.T.);
#284=EDGE_CURVE('',#266,#266,#302,.T.);
#285=EDGE_CURVE('',#267,#267,#303,.T.);
#286=EDGE_CURVE('',#268,#268,#304,.T.);
#287=EDGE_CURVE('',#269,#269,#305,.T.);
#288=EDGE_CURVE('',#270,#270,#306,.T.);
#289=EDGE_CURVE('',#271,#271,#307,.T.);
#290=EDGE_CURVE('',#272,#272,#308,.T.);
#291=EDGE_CURVE('',#273,#273,#309,.T.);
#292=EDGE_CURVE('',#274,#274,#310,.T.);
#293=EDGE_CURVE('',#275,#275,#311,.T.);
#294=EDGE_CURVE('',#276,#276,#312,.T.);
#295=EDGE_CURVE('',#277,#277,#313,.T.);
#296=CIRCLE('',#315,18.913382913305);
#297=CIRCLE('',#316,15.4994186892535);
#298=CIRCLE('',#318,18.5096829935085);
#299=CIRCLE('',#319,19.3313689977833);
#300=CIRCLE('',#321,18.5096829935085);
#301=CIRCLE('',#324,16.);
#302=CIRCLE('',#325,16.);
#303=CIRCLE('',#327,17.009683);
#304=CIRCLE('',#330,14.4141898528673);
#305=CIRCLE('',#332,8.81192357455972);
#306=CIRCLE('',#334,11.6176683723684);
#307=CIRCLE('',#336,11.7204271522449);
#308=CIRCLE('',#338,14.0344271522449);
#309=CIRCLE('',#341,14.5);
#310=CIRCLE('',#344,20.);
#311=CIRCLE('',#345,20.);
#312=CIRCLE('',#347,9.);
#313=CIRCLE('',#349,9.);
#314=AXIS2_PLACEMENT_3D('',#428,#352,#353);
#315=AXIS2_PLACEMENT_3D('',#429,#354,#355);
#316=AXIS2_PLACEMENT_3D('',#431,#356,#357);
#317=AXIS2_PLACEMENT_3D('',#433,#358,#359);
#318=AXIS2_PLACEMENT_3D('',#434,#360,#361);
#319=AXIS2_PLACEMENT_3D('',#436,#362,#363);
#320=AXIS2_PLACEMENT_3D('',#438,#364,#365);
#321=AXIS2_PLACEMENT_3D('',#439,#366,#367);
#322=AXIS2_PLACEMENT_3D('',#441,#368,#369);
#323=AXIS2_PLACEMENT_3D('',#442,#370,#371);
#324=AXIS2_PLACEMENT_3D('',#443,#372,#373);
#325=AXIS2_PLACEMENT_3D('',#445,#374,#375);
#326=AXIS2_PLACEMENT_3D('',#447,#376,#377);
#327=AXIS2_PLACEMENT_3D('',#448,#378,#379);
#328=AXIS2_PLACEMENT_3D('',#450,#380,#381);
#329=AXIS2_PLACEMENT_3D('',#451,#382,#383);
#330=AXIS2_PLACEMENT_3D('',#452,#384,#385);
#331=AXIS2_PLACEMENT_3D('',#454,#386,#387);
#332=AXIS2_PLACEMENT_3D('',#455,#388,#389);
#333=AXIS2_PLACEMENT_3D('',#457,#390,#391);
#334=AXIS2_PLACEMENT_3D('',#458,#392,#393);
#335=AXIS2_PLACEMENT_3D('',#460,#394,#395);
#336=AXIS2_PLACEMENT_3D('',#461,#396,#397);
#337=AXIS2_PLACEMENT_3D('',#463,#398,#399);
#338=AXIS2_PLACEMENT_3D('',#464,#400,#401);
#339=AXIS2_PLACEMENT_3D('',#466,#402,#403);
#340=AXIS2_PLACEMENT_3D('',#467,#404,#405);
#341=AXIS2_PLACEMENT_3D('',#468,#406,#407);
#342=AXIS2_PLACEMENT_3D('',#470,#408,#409);
#343=AXIS2_PLACEMENT_3D('',#471,#410,#411);
#344=AXIS2_PLACEMENT_3D('',#472,#412,#413);
#345=AXIS2_PLACEMENT_3D('',#474,#414,#415);
#346=AXIS2_PLACEMENT_3D('',#476,#416,#417);
#347=AXIS2_PLACEMENT_3D('',#477,#418,#419);
#348=AXIS2_PLACEMENT_3D('',#479,#420,#421);
#349=AXIS2_PLACEMENT_3D('',#480,#422,#423);
#350=AXIS2_PLACEMENT_3D('',#482,#424,#425);
#351=AXIS2_PLACEMENT_3D('',#483,#426,#427);
#352=DIRECTION('',(0.,0.,1.));
#353=DIRECTION('',(1.,0.,0.));
#354=DIRECTION('',(0.,0.,1.));
#355=DIRECTION('',(1.,0.,0.));
#356=DIRECTION('',(0.,0.,1.));
#357=DIRECTION('',(-1.,0.,0.));
#358=DIRECTION('',(0.,0.,1.));
#359=DIRECTION('',(1.,0.,0.));
#360=DIRECTION('',(0.,0.,1.));
#361=DIRECTION('',(1.,0.,0.));
#362=DIRECTION('',(0.,0.,1.));
#363=DIRECTION('',(1.,0.,0.));
#364=DIRECTION('',(0.,0.,-1.));
#365=DIRECTION('',(-1.,0.,-6.82278603207683E-016));
#366=DIRECTION('',(0.,0.,1.));
#367=DIRECTION('',(1.,0.,0.));
#368=DIRECTION('',(0.,0.,1.));
#369=DIRECTION('',(1.,0.,0.));
#370=DIRECTION('',(0.,0.,1.));
#371=DIRECTION('',(1.,0.,-4.31400859185893E-016));
#372=DIRECTION('',(0.,0.,-1.));
#373=DIRECTION('',(-1.,0.,0.));
#374=DIRECTION('',(0.,0.,-1.));
#375=DIRECTION('',(-1.,0.,0.));
#376=DIRECTION('',(0.,0.,-1.));
#377=DIRECTION('',(-1.,0.,0.));
#378=DIRECTION('',(0.,0.,-1.));
#379=DIRECTION('',(-1.,0.,0.));
#380=DIRECTION('',(0.,0.,-1.));
#381=DIRECTION('',(-1.,0.,8.17534955599288E-017));
#382=DIRECTION('',(0.,0.,1.));
#383=DIRECTION('',(1.,0.,0.));
#384=DIRECTION('',(0.,0.,1.));
#385=DIRECTION('',(1.,0.,0.));
#386=DIRECTION('',(0.,0.,-1.));
#387=DIRECTION('',(-1.,0.,0.));
#388=DIRECTION('',(0.,0.,1.));
#389=DIRECTION('',(1.,0.,0.));
#390=DIRECTION('',(0.,0.,1.));
#391=DIRECTION('',(1.,0.,0.));
#392=DIRECTION('',(0.,0.,1.));
#393=DIRECTION('',(1.,0.,0.));
#394=DIRECTION('',(0.,0.,1.));
#395=DIRECTION('',(1.,0.,0.));
#396=DIRECTION('',(0.,0.,1.));
#397=DIRECTION('',(1.,0.,0.));
#398=DIRECTION('',(0.,0.,-1.));
#399=DIRECTION('',(-1.,0.,2.13439434115446E-016));
#400=DIRECTION('',(0.,0.,1.));
#401=DIRECTION('',(1.,0.,0.));
#402=DIRECTION('',(0.,0.,-1.));
#403=DIRECTION('',(-1.,0.,6.88238651760952E-017));
#404=DIRECTION('',(0.,0.,1.));
#405=DIRECTION('',(1.,0.,0.));
#406=DIRECTION('',(0.,0.,-1.));
#407=DIRECTION('',(-1.,0.,0.));
#408=DIRECTION('',(0.,0.,-1.));
#409=DIRECTION('',(-1.,0.,0.));
#410=DIRECTION('',(0.,0.,-1.));
#411=DIRECTION('',(-1.,0.,0.));
#412=DIRECTION('',(0.,0.,-1.));
#413=DIRECTION('',(-1.,0.,0.));
#414=DIRECTION('',(0.,0.,-1.));
#415=DIRECTION('',(-1.,0.,0.));
#416=DIRECTION('',(0.,0.,-1.));
#417=DIRECTION('',(-1.,0.,0.));
#418=DIRECTION('',(0.,0.,-1.));
#419=DIRECTION('',(-1.,0.,0.));
#420=DIRECTION('',(0.,0.,1.));
#421=DIRECTION('',(1.,0.,0.));
#422=DIRECTION('',(0.,0.,-1.));
#423=DIRECTION('',(-1.,0.,0.));
#424=DIRECTION('',(0.,0.,-1.));
#425=DIRECTION('',(-1.,0.,0.));
#426=DIRECTION('',(0.,0.,-1.));
#427=DIRECTION('',(-1.,0.,0.));
#428=CARTESIAN_POINT('',(0.,0.,0.));
#429=CARTESIAN_POINT('',(0.,0.,-145.264882782703));
#430=CARTESIAN_POINT('',(18.913382913305,0.,-145.264882782703));
#431=CARTESIAN_POINT('',(0.,0.,-148.80258405422));
#432=CARTESIAN_POINT('',(-15.4994186892535,0.,-148.80258405422));
#433=CARTESIAN_POINT('',(0.,0.,-145.11341772434));
#434=CARTESIAN_POINT('',(0.,0.,-128.063180576589));
#435=CARTESIAN_POINT('',(18.5096829935085,0.,-128.063180576589));
#436=CARTESIAN_POINT('',(0.,0.,-136.063180576589));
#437=CARTESIAN_POINT('',(19.3313689977833,0.,-136.063180576589));
#438=CARTESIAN_POINT('',(0.,0.,-136.063180576589));
#439=CARTESIAN_POINT('',(0.,0.,-71.5000000000002));
#440=CARTESIAN_POINT('',(18.5096829935085,0.,-71.5000000000002));
#441=CARTESIAN_POINT('',(0.,0.,-145.));
#442=CARTESIAN_POINT('',(0.,0.,-145.264882782703));
#443=CARTESIAN_POINT('',(0.,0.,-70.0000000000002));
#444=CARTESIAN_POINT('',(-16.,0.,-70.0000000000002));
#445=CARTESIAN_POINT('',(0.,0.,-1.50000000000031));
#446=CARTESIAN_POINT('',(-16.,0.,-1.50000000000031));
#447=CARTESIAN_POINT('',(0.,0.,-202.050233094983));
#448=CARTESIAN_POINT('',(0.,0.,-70.0000000000002));
#449=CARTESIAN_POINT('',(-17.009683,0.,-70.0000000000002));
#450=CARTESIAN_POINT('',(0.,0.,-71.5000000000002));
#451=CARTESIAN_POINT('',(-8.89015699116632E-015,17.009683,-70.0000000000002));
#452=CARTESIAN_POINT('',(0.,0.,-148.80258405422));
#453=CARTESIAN_POINT('',(14.4141898528673,0.,-148.80258405422));
#454=CARTESIAN_POINT('',(14.2913115632795,1.87810620460491,-148.80258405422));
#455=CARTESIAN_POINT('',(0.,0.,-145.));
#456=CARTESIAN_POINT('',(8.81192357455972,0.,-145.));
#457=CARTESIAN_POINT('',(0.,0.,-145.));
#458=CARTESIAN_POINT('',(0.,0.,-146.938022538107));
#459=CARTESIAN_POINT('',(11.6176683723684,0.,-146.938022538107));
#460=CARTESIAN_POINT('',(0.,0.,-148.));
#461=CARTESIAN_POINT('',(0.,0.,-147.209511267777));
#462=CARTESIAN_POINT('',(11.7204271522449,0.,-147.209511267777));
#463=CARTESIAN_POINT('',(0.,0.,-146.938022538107));
#464=CARTESIAN_POINT('',(0.,0.,-148.654482225859));
#465=CARTESIAN_POINT('',(14.0344271522449,0.,-148.654482225859));
#466=CARTESIAN_POINT('',(0.,0.,-147.209511267777));
#467=CARTESIAN_POINT('',(0.,0.,-147.721452379312));
#468=CARTESIAN_POINT('',(0.,0.,0.));
#469=CARTESIAN_POINT('',(-14.5,0.,0.));
#470=CARTESIAN_POINT('',(0.,0.,0.));
#471=CARTESIAN_POINT('',(0.,0.,0.));
#472=CARTESIAN_POINT('',(0.,0.,-138.));
#473=CARTESIAN_POINT('',(-20.,0.,-138.));
#474=CARTESIAN_POINT('',(0.,0.,-150.));
#475=CARTESIAN_POINT('',(-20.,0.,-150.));
#476=CARTESIAN_POINT('',(0.,0.,0.));
#477=CARTESIAN_POINT('',(0.,0.,-138.));
#478=CARTESIAN_POINT('',(-9.,0.,-138.));
#479=CARTESIAN_POINT('',(20.,0.,-138.));
#480=CARTESIAN_POINT('',(0.,0.,-150.));
#481=CARTESIAN_POINT('',(-9.,0.,-150.));
#482=CARTESIAN_POINT('',(0.,0.,0.));
#483=CARTESIAN_POINT('',(9.,0.,-150.));
#484=MECHANICAL_DESIGN_GEOMETRIC_PRESENTATION_REPRESENTATION('',(#94,#95),
#485);
#485=(
GEOMETRIC_REPRESENTATION_CONTEXT(3)
GLOBAL_UNCERTAINTY_ASSIGNED_CONTEXT((#486))
GLOBAL_UNIT_ASSIGNED_CONTEXT((#492,#488,#487))
REPRESENTATION_CONTEXT('R790_040A32S2_16L_SIM',
'TOP_LEVEL_ASSEMBLY_PART')
);
#486=UNCERTAINTY_MEASURE_WITH_UNIT(LENGTH_MEASURE(2.E-005),#492,
'DISTANCE_ACCURACY_VALUE','Maximum Tolerance applied to model');
#487=(
NAMED_UNIT(*)
SI_UNIT($,.STERADIAN.)
SOLID_ANGLE_UNIT()
);
#488=(
CONVERSION_BASED_UNIT('DEGREE',#490)
NAMED_UNIT(#489)
PLANE_ANGLE_UNIT()
);
#489=DIMENSIONAL_EXPONENTS(0.,0.,0.,0.,0.,0.,0.);
#490=PLANE_ANGLE_MEASURE_WITH_UNIT(PLANE_ANGLE_MEASURE(0.0174532925),#491);
#491=(
NAMED_UNIT(*)
PLANE_ANGLE_UNIT()
SI_UNIT($,.RADIAN.)
);
#492=(
LENGTH_UNIT()
NAMED_UNIT(*)
SI_UNIT(.MILLI.,.METRE.)
);
ENDSEC;
END-ISO-10303-21;
