ISO-10303-21;
HEADER;
/* Generated by software containing ST-Developer
 * from STEP Tools, Inc. (www.steptools.com) 
 */
/* OPTION: using custom schema-name function */

FILE_DESCRIPTION(
/* description */ ('3-D model version:1'),
/* implementation_level */ '2;1');

FILE_NAME(
/* name */ 'R790-032A32S1-16M',
/* time_stamp */ '2015-10-15T07:46:44+02:00',
/* author */ ('InteractiveCad'),
/* organization */ ('AB Sandvik Coromant'),
/* preprocessor_version */ 'ST-DEVELOPER v15',
/* originating_system */ 'SIEMENS PLM Software NX 8.5',
/* authorisation */ '');

FILE_SCHEMA (('AP203_CONFIGURATION_CONTROLLED_3D_DESIGN_OF_MECHANICAL_PARTS_AND_ASSEMBLIES_MIM_LF { 1 0 10303 403 2 1 2}'));
ENDSEC;

DATA;
#10=SHAPE_REPRESENTATION_RELATIONSHIP('None',
'relationship between R790_032A32S1_16M_SIM-None and R790_032A32S1_16M
_SIM-None',#92,#11);
#11=ADVANCED_BREP_SHAPE_REPRESENTATION('R790_032A32S1_16M_SIM-None',(#110,
#111),#465);
#12=CC_DESIGN_APPROVAL(#24,(#82));
#13=CC_DESIGN_APPROVAL(#25,(#84));
#14=CC_DESIGN_APPROVAL(#26,(#31));
#15=APPROVAL_PERSON_ORGANIZATION(#69,#24,#18);
#16=APPROVAL_PERSON_ORGANIZATION(#70,#25,#19);
#17=APPROVAL_PERSON_ORGANIZATION(#71,#26,#20);
#18=APPROVAL_ROLE('approver');
#19=APPROVAL_ROLE('approver');
#20=APPROVAL_ROLE('approver');
#21=APPROVAL_DATE_TIME(#39,#24);
#22=APPROVAL_DATE_TIME(#40,#25);
#23=APPROVAL_DATE_TIME(#41,#26);
#24=APPROVAL(#27,' ');
#25=APPROVAL(#28,' ');
#26=APPROVAL(#29,' ');
#27=APPROVAL_STATUS('not_yet_approved');
#28=APPROVAL_STATUS('not_yet_approved');
#29=APPROVAL_STATUS('not_yet_approved');
#30=CC_DESIGN_SECURITY_CLASSIFICATION(#31,(#84));
#31=SECURITY_CLASSIFICATION(' ',' ',#32);
#32=SECURITY_CLASSIFICATION_LEVEL('confidential');
#33=CC_DESIGN_DATE_AND_TIME_ASSIGNMENT(#37,#35,(#82));
#34=CC_DESIGN_DATE_AND_TIME_ASSIGNMENT(#38,#36,(#31));
#35=DATE_TIME_ROLE('creation_date');
#36=DATE_TIME_ROLE('classification_date');
#37=DATE_AND_TIME(#52,#42);
#38=DATE_AND_TIME(#53,#43);
#39=DATE_AND_TIME(#54,#44);
#40=DATE_AND_TIME(#55,#45);
#41=DATE_AND_TIME(#56,#46);
#42=LOCAL_TIME(0,0,0.,#47);
#43=LOCAL_TIME(0,0,0.,#48);
#44=LOCAL_TIME(0,0,0.,#49);
#45=LOCAL_TIME(0,0,0.,#50);
#46=LOCAL_TIME(0,0,0.,#51);
#47=COORDINATED_UNIVERSAL_TIME_OFFSET(0,0,.BEHIND.);
#48=COORDINATED_UNIVERSAL_TIME_OFFSET(0,0,.BEHIND.);
#49=COORDINATED_UNIVERSAL_TIME_OFFSET(0,0,.BEHIND.);
#50=COORDINATED_UNIVERSAL_TIME_OFFSET(0,0,.BEHIND.);
#51=COORDINATED_UNIVERSAL_TIME_OFFSET(0,0,.BEHIND.);
#52=CALENDAR_DATE(0,1,1);
#53=CALENDAR_DATE(0,1,1);
#54=CALENDAR_DATE(0,1,1);
#55=CALENDAR_DATE(0,1,1);
#56=CALENDAR_DATE(0,1,1);
#57=CC_DESIGN_PERSON_AND_ORGANIZATION_ASSIGNMENT(#65,#61,(#82,#84));
#58=CC_DESIGN_PERSON_AND_ORGANIZATION_ASSIGNMENT(#66,#62,(#86));
#59=CC_DESIGN_PERSON_AND_ORGANIZATION_ASSIGNMENT(#67,#63,(#84));
#60=CC_DESIGN_PERSON_AND_ORGANIZATION_ASSIGNMENT(#68,#64,(#31));
#61=PERSON_AND_ORGANIZATION_ROLE('creator');
#62=PERSON_AND_ORGANIZATION_ROLE('design_owner');
#63=PERSON_AND_ORGANIZATION_ROLE('design_supplier');
#64=PERSON_AND_ORGANIZATION_ROLE('classification_officer');
#65=PERSON_AND_ORGANIZATION(#79,#72);
#66=PERSON_AND_ORGANIZATION(#79,#73);
#67=PERSON_AND_ORGANIZATION(#79,#74);
#68=PERSON_AND_ORGANIZATION(#79,#75);
#69=PERSON_AND_ORGANIZATION(#79,#76);
#70=PERSON_AND_ORGANIZATION(#79,#77);
#71=PERSON_AND_ORGANIZATION(#79,#78);
#72=ORGANIZATION(' ',' ',' ');
#73=ORGANIZATION(' ',' ',' ');
#74=ORGANIZATION(' ',' ',' ');
#75=ORGANIZATION(' ',' ',' ');
#76=ORGANIZATION(' ',' ',' ');
#77=ORGANIZATION(' ',' ',' ');
#78=ORGANIZATION(' ',' ',' ');
#79=PERSON(' ',' ',' ',(' '),$,$);
#80=SHAPE_DEFINITION_REPRESENTATION(#81,#92);
#81=PRODUCT_DEFINITION_SHAPE('','',#82);
#82=PRODUCT_DEFINITION(' ','',#84,#83);
#83=DESIGN_CONTEXT('',#91,'design');
#84=PRODUCT_DEFINITION_FORMATION_WITH_SPECIFIED_SOURCE(' ',' ',#86,
 .NOT_KNOWN.);
#85=PRODUCT_RELATED_PRODUCT_CATEGORY('detail','',(#86));
#86=PRODUCT('R790_032A32S1_16M_SIM','R790_032A32S1_16M_SIM',' ',(#89));
#87=PRODUCT_CATEGORY('part',' ');
#88=PRODUCT_CATEGORY(' ','');
#89=MECHANICAL_CONTEXT(' ',#91,'mechanical');
#90=APPLICATION_PROTOCOL_DEFINITION('international standard',
'config_control_design',2010,#91);
#91=APPLICATION_CONTEXT(
'configuration controlled 3D designs of mechanical parts and assemblie
s');
#92=SHAPE_REPRESENTATION('R790_032A32S1_16M_SIM-None',(#303),#465);
#93=PRESENTATION_LAYER_ASSIGNMENT('1','Layer 1',(#110,#111));
#94=STYLED_ITEM('',(#96),#110);
#95=STYLED_ITEM('',(#97),#111);
#96=PRESENTATION_STYLE_ASSIGNMENT((#98));
#97=PRESENTATION_STYLE_ASSIGNMENT((#99));
#98=SURFACE_STYLE_USAGE(.BOTH.,#100);
#99=SURFACE_STYLE_USAGE(.BOTH.,#101);
#100=SURFACE_SIDE_STYLE('',(#102));
#101=SURFACE_SIDE_STYLE('',(#103));
#102=SURFACE_STYLE_FILL_AREA(#104);
#103=SURFACE_STYLE_FILL_AREA(#105);
#104=FILL_AREA_STYLE('',(#106));
#105=FILL_AREA_STYLE('',(#107));
#106=FILL_AREA_STYLE_COLOUR('',#108);
#107=FILL_AREA_STYLE_COLOUR('',#109);
#108=COLOUR_RGB('TLS_NOCUT',0.499992370489052,0.499992370489052,0.499992370489052);
#109=COLOUR_RGB('TLS_CUT',0.8,0.8,0.8);
#110=MANIFOLD_SOLID_BREP('TURN_SOLID',#112);
#111=MANIFOLD_SOLID_BREP('',#113);
#112=CLOSED_SHELL('',(#131,#132,#133,#134,#135,#136,#137,#138,#139,#140,
#141,#142,#143,#144));
#113=CLOSED_SHELL('',(#145,#146,#147,#148));
#114=FACE_OUTER_BOUND('',#198,.T.);
#115=FACE_OUTER_BOUND('',#209,.T.);
#116=PLANE('',#318);
#117=PLANE('',#320);
#118=PLANE('',#330);
#119=PLANE('',#335);
#120=PLANE('',#338);
#121=CYLINDRICAL_SURFACE('',#311,14.6427517924488);
#122=CYLINDRICAL_SURFACE('',#315,16.);
#123=CYLINDRICAL_SURFACE('',#333,16.);
#124=CYLINDRICAL_SURFACE('',#337,5.);
#125=CONICAL_SURFACE('',#309,15.4644377967236,5.8643283042661);
#126=CONICAL_SURFACE('',#312,15.0403377741641,2.62789267659965);
#127=CONICAL_SURFACE('',#316,14.642752,26.1039866624183);
#128=CONICAL_SURFACE('',#324,7.76904172032164,20.7317088900183);
#129=CONICAL_SURFACE('',#326,7.84738201310401,58.25048166789);
#130=CONICAL_SURFACE('',#329,14.5,45.0000000000001);
#131=ADVANCED_FACE('',(#152,#153),#149,.T.);
#132=ADVANCED_FACE('',(#154,#155),#125,.T.);
#133=ADVANCED_FACE('',(#156,#157),#121,.T.);
#134=ADVANCED_FACE('',(#158,#159),#126,.T.);
#135=ADVANCED_FACE('',(#160,#161),#122,.T.);
#136=ADVANCED_FACE('',(#162,#163),#127,.T.);
#137=ADVANCED_FACE('',(#164,#165),#116,.T.);
#138=ADVANCED_FACE('',(#114),#117,.F.);
#139=ADVANCED_FACE('',(#166,#167),#150,.F.);
#140=ADVANCED_FACE('',(#168,#169),#128,.F.);
#141=ADVANCED_FACE('',(#170,#171),#129,.F.);
#142=ADVANCED_FACE('',(#172,#173),#151,.T.);
#143=ADVANCED_FACE('',(#174,#175),#130,.T.);
#144=ADVANCED_FACE('',(#115),#118,.F.);
#145=ADVANCED_FACE('',(#176,#177),#123,.T.);
#146=ADVANCED_FACE('',(#178,#179),#119,.T.);
#147=ADVANCED_FACE('',(#180,#181),#124,.F.);
#148=ADVANCED_FACE('',(#182,#183),#120,.T.);
#149=TOROIDAL_SURFACE('',#306,11.3423335432755,3.7);
#150=TOROIDAL_SURFACE('',#322,4.96329692251297,3.);
#151=TOROIDAL_SURFACE('',#327,10.7402094655878,1.1);
#152=FACE_BOUND('',#184,.T.);
#153=FACE_BOUND('',#185,.T.);
#154=FACE_BOUND('',#186,.T.);
#155=FACE_BOUND('',#187,.T.);
#156=FACE_BOUND('',#188,.T.);
#157=FACE_BOUND('',#189,.T.);
#158=FACE_BOUND('',#190,.T.);
#159=FACE_BOUND('',#191,.T.);
#160=FACE_BOUND('',#192,.T.);
#161=FACE_BOUND('',#193,.T.);
#162=FACE_BOUND('',#194,.T.);
#163=FACE_BOUND('',#195,.T.);
#164=FACE_BOUND('',#196,.T.);
#165=FACE_BOUND('',#197,.T.);
#166=FACE_BOUND('',#199,.T.);
#167=FACE_BOUND('',#200,.T.);
#168=FACE_BOUND('',#201,.T.);
#169=FACE_BOUND('',#202,.T.);
#170=FACE_BOUND('',#203,.T.);
#171=FACE_BOUND('',#204,.T.);
#172=FACE_BOUND('',#205,.T.);
#173=FACE_BOUND('',#206,.T.);
#174=FACE_BOUND('',#207,.T.);
#175=FACE_BOUND('',#208,.T.);
#176=FACE_BOUND('',#210,.T.);
#177=FACE_BOUND('',#211,.T.);
#178=FACE_BOUND('',#212,.T.);
#179=FACE_BOUND('',#213,.T.);
#180=FACE_BOUND('',#214,.T.);
#181=FACE_BOUND('',#215,.T.);
#182=FACE_BOUND('',#216,.T.);
#183=FACE_BOUND('',#217,.T.);
#184=EDGE_LOOP('',(#218));
#185=EDGE_LOOP('',(#219));
#186=EDGE_LOOP('',(#220));
#187=EDGE_LOOP('',(#221));
#188=EDGE_LOOP('',(#222));
#189=EDGE_LOOP('',(#223));
#190=EDGE_LOOP('',(#224));
#191=EDGE_LOOP('',(#225));
#192=EDGE_LOOP('',(#226));
#193=EDGE_LOOP('',(#227));
#194=EDGE_LOOP('',(#228));
#195=EDGE_LOOP('',(#229));
#196=EDGE_LOOP('',(#230));
#197=EDGE_LOOP('',(#231));
#198=EDGE_LOOP('',(#232));
#199=EDGE_LOOP('',(#233));
#200=EDGE_LOOP('',(#234));
#201=EDGE_LOOP('',(#235));
#202=EDGE_LOOP('',(#236));
#203=EDGE_LOOP('',(#237));
#204=EDGE_LOOP('',(#238));
#205=EDGE_LOOP('',(#239));
#206=EDGE_LOOP('',(#240));
#207=EDGE_LOOP('',(#241));
#208=EDGE_LOOP('',(#242));
#209=EDGE_LOOP('',(#243));
#210=EDGE_LOOP('',(#244));
#211=EDGE_LOOP('',(#245));
#212=EDGE_LOOP('',(#246));
#213=EDGE_LOOP('',(#247));
#214=EDGE_LOOP('',(#248));
#215=EDGE_LOOP('',(#249));
#216=EDGE_LOOP('',(#250));
#217=EDGE_LOOP('',(#251));
#218=ORIENTED_EDGE('',*,*,#269,.F.);
#219=ORIENTED_EDGE('',*,*,#270,.T.);
#220=ORIENTED_EDGE('',*,*,#271,.F.);
#221=ORIENTED_EDGE('',*,*,#272,.T.);
#222=ORIENTED_EDGE('',*,*,#273,.F.);
#223=ORIENTED_EDGE('',*,*,#271,.T.);
#224=ORIENTED_EDGE('',*,*,#272,.F.);
#225=ORIENTED_EDGE('',*,*,#269,.T.);
#226=ORIENTED_EDGE('',*,*,#274,.T.);
#227=ORIENTED_EDGE('',*,*,#275,.F.);
#228=ORIENTED_EDGE('',*,*,#275,.T.);
#229=ORIENTED_EDGE('',*,*,#273,.T.);
#230=ORIENTED_EDGE('',*,*,#276,.T.);
#231=ORIENTED_EDGE('',*,*,#270,.F.);
#232=ORIENTED_EDGE('',*,*,#277,.F.);
#233=ORIENTED_EDGE('',*,*,#278,.F.);
#234=ORIENTED_EDGE('',*,*,#277,.T.);
#235=ORIENTED_EDGE('',*,*,#279,.F.);
#236=ORIENTED_EDGE('',*,*,#278,.T.);
#237=ORIENTED_EDGE('',*,*,#280,.F.);
#238=ORIENTED_EDGE('',*,*,#279,.T.);
#239=ORIENTED_EDGE('',*,*,#280,.T.);
#240=ORIENTED_EDGE('',*,*,#276,.F.);
#241=ORIENTED_EDGE('',*,*,#274,.F.);
#242=ORIENTED_EDGE('',*,*,#281,.T.);
#243=ORIENTED_EDGE('',*,*,#281,.F.);
#244=ORIENTED_EDGE('',*,*,#282,.T.);
#245=ORIENTED_EDGE('',*,*,#283,.F.);
#246=ORIENTED_EDGE('',*,*,#284,.T.);
#247=ORIENTED_EDGE('',*,*,#282,.F.);
#248=ORIENTED_EDGE('',*,*,#285,.T.);
#249=ORIENTED_EDGE('',*,*,#284,.F.);
#250=ORIENTED_EDGE('',*,*,#283,.T.);
#251=ORIENTED_EDGE('',*,*,#285,.F.);
#252=VERTEX_POINT('',#413);
#253=VERTEX_POINT('',#415);
#254=VERTEX_POINT('',#418);
#255=VERTEX_POINT('',#420);
#256=VERTEX_POINT('',#423);
#257=VERTEX_POINT('',#427);
#258=VERTEX_POINT('',#429);
#259=VERTEX_POINT('',#433);
#260=VERTEX_POINT('',#436);
#261=VERTEX_POINT('',#439);
#262=VERTEX_POINT('',#442);
#263=VERTEX_POINT('',#445);
#264=VERTEX_POINT('',#449);
#265=VERTEX_POINT('',#453);
#266=VERTEX_POINT('',#455);
#267=VERTEX_POINT('',#458);
#268=VERTEX_POINT('',#461);
#269=EDGE_CURVE('',#252,#252,#286,.T.);
#270=EDGE_CURVE('',#253,#253,#287,.T.);
#271=EDGE_CURVE('',#254,#254,#288,.T.);
#272=EDGE_CURVE('',#255,#255,#289,.T.);
#273=EDGE_CURVE('',#256,#256,#290,.T.);
#274=EDGE_CURVE('',#257,#257,#291,.T.);
#275=EDGE_CURVE('',#258,#258,#292,.T.);
#276=EDGE_CURVE('',#259,#259,#293,.T.);
#277=EDGE_CURVE('',#260,#260,#294,.T.);
#278=EDGE_CURVE('',#261,#261,#295,.T.);
#279=EDGE_CURVE('',#262,#262,#296,.T.);
#280=EDGE_CURVE('',#263,#263,#297,.T.);
#281=EDGE_CURVE('',#264,#264,#298,.T.);
#282=EDGE_CURVE('',#265,#265,#299,.T.);
#283=EDGE_CURVE('',#266,#266,#300,.T.);
#284=EDGE_CURVE('',#267,#267,#301,.T.);
#285=EDGE_CURVE('',#268,#268,#302,.T.);
#286=CIRCLE('',#304,15.0403377741641);
#287=CIRCLE('',#305,11.5745763876258);
#288=CIRCLE('',#307,14.6427517924488);
#289=CIRCLE('',#308,15.4644377967236);
#290=CIRCLE('',#310,14.6427517924488);
#291=CIRCLE('',#313,16.);
#292=CIRCLE('',#314,16.);
#293=CIRCLE('',#317,10.58714803306);
#294=CIRCLE('',#319,4.96329692251297);
#295=CIRCLE('',#321,7.76904172032164);
#296=CIRCLE('',#323,7.84738201310401);
#297=CIRCLE('',#325,10.161382013104);
#298=CIRCLE('',#328,14.5);
#299=CIRCLE('',#331,16.);
#300=CIRCLE('',#332,16.);
#301=CIRCLE('',#334,5.);
#302=CIRCLE('',#336,5.);
#303=AXIS2_PLACEMENT_3D('',#411,#339,#340);
#304=AXIS2_PLACEMENT_3D('',#412,#341,#342);
#305=AXIS2_PLACEMENT_3D('',#414,#343,#344);
#306=AXIS2_PLACEMENT_3D('',#416,#345,#346);
#307=AXIS2_PLACEMENT_3D('',#417,#347,#348);
#308=AXIS2_PLACEMENT_3D('',#419,#349,#350);
#309=AXIS2_PLACEMENT_3D('',#421,#351,#352);
#310=AXIS2_PLACEMENT_3D('',#422,#353,#354);
#311=AXIS2_PLACEMENT_3D('',#424,#355,#356);
#312=AXIS2_PLACEMENT_3D('',#425,#357,#358);
#313=AXIS2_PLACEMENT_3D('',#426,#359,#360);
#314=AXIS2_PLACEMENT_3D('',#428,#361,#362);
#315=AXIS2_PLACEMENT_3D('',#430,#363,#364);
#316=AXIS2_PLACEMENT_3D('',#431,#365,#366);
#317=AXIS2_PLACEMENT_3D('',#432,#367,#368);
#318=AXIS2_PLACEMENT_3D('',#434,#369,#370);
#319=AXIS2_PLACEMENT_3D('',#435,#371,#372);
#320=AXIS2_PLACEMENT_3D('',#437,#373,#374);
#321=AXIS2_PLACEMENT_3D('',#438,#375,#376);
#322=AXIS2_PLACEMENT_3D('',#440,#377,#378);
#323=AXIS2_PLACEMENT_3D('',#441,#379,#380);
#324=AXIS2_PLACEMENT_3D('',#443,#381,#382);
#325=AXIS2_PLACEMENT_3D('',#444,#383,#384);
#326=AXIS2_PLACEMENT_3D('',#446,#385,#386);
#327=AXIS2_PLACEMENT_3D('',#447,#387,#388);
#328=AXIS2_PLACEMENT_3D('',#448,#389,#390);
#329=AXIS2_PLACEMENT_3D('',#450,#391,#392);
#330=AXIS2_PLACEMENT_3D('',#451,#393,#394);
#331=AXIS2_PLACEMENT_3D('',#452,#395,#396);
#332=AXIS2_PLACEMENT_3D('',#454,#397,#398);
#333=AXIS2_PLACEMENT_3D('',#456,#399,#400);
#334=AXIS2_PLACEMENT_3D('',#457,#401,#402);
#335=AXIS2_PLACEMENT_3D('',#459,#403,#404);
#336=AXIS2_PLACEMENT_3D('',#460,#405,#406);
#337=AXIS2_PLACEMENT_3D('',#462,#407,#408);
#338=AXIS2_PLACEMENT_3D('',#463,#409,#410);
#339=DIRECTION('',(0.,0.,1.));
#340=DIRECTION('',(1.,0.,0.));
#341=DIRECTION('',(0.,0.,1.));
#342=DIRECTION('',(1.,0.,0.));
#343=DIRECTION('',(0.,0.,1.));
#344=DIRECTION('',(-1.,0.,0.));
#345=DIRECTION('',(0.,0.,1.));
#346=DIRECTION('',(1.,0.,0.));
#347=DIRECTION('',(0.,0.,1.));
#348=DIRECTION('',(1.,0.,0.));
#349=DIRECTION('',(0.,0.,1.));
#350=DIRECTION('',(1.,0.,0.));
#351=DIRECTION('',(0.,0.,-1.));
#352=DIRECTION('',(-1.,0.,-2.34868046394569E-016));
#353=DIRECTION('',(0.,0.,1.));
#354=DIRECTION('',(1.,0.,0.));
#355=DIRECTION('',(0.,0.,1.));
#356=DIRECTION('',(1.,0.,0.));
#357=DIRECTION('',(0.,0.,1.));
#358=DIRECTION('',(1.,0.,4.55473079807913E-016));
#359=DIRECTION('',(0.,0.,-1.));
#360=DIRECTION('',(-1.,0.,0.));
#361=DIRECTION('',(0.,0.,-1.));
#362=DIRECTION('',(-1.,0.,0.));
#363=DIRECTION('',(0.,0.,-1.));
#364=DIRECTION('',(-1.,0.,0.));
#365=DIRECTION('',(0.,0.,1.));
#366=DIRECTION('',(1.,0.,-2.75012452307609E-017));
#367=DIRECTION('',(0.,0.,1.));
#368=DIRECTION('',(1.,0.,0.));
#369=DIRECTION('',(0.,0.,-1.));
#370=DIRECTION('',(-1.,0.,0.));
#371=DIRECTION('',(0.,0.,1.));
#372=DIRECTION('',(1.,0.,0.));
#373=DIRECTION('',(0.,0.,1.));
#374=DIRECTION('',(1.,0.,0.));
#375=DIRECTION('',(0.,0.,1.));
#376=DIRECTION('',(1.,0.,0.));
#377=DIRECTION('',(0.,0.,1.));
#378=DIRECTION('',(1.,0.,0.));
#379=DIRECTION('',(0.,0.,1.));
#380=DIRECTION('',(1.,0.,0.));
#381=DIRECTION('',(0.,0.,-1.));
#382=DIRECTION('',(-1.,0.,-3.59276752151616E-017));
#383=DIRECTION('',(0.,0.,1.));
#384=DIRECTION('',(1.,0.,0.));
#385=DIRECTION('',(0.,0.,-1.));
#386=DIRECTION('',(-1.,0.,3.41846959004471E-017));
#387=DIRECTION('',(0.,0.,1.));
#388=DIRECTION('',(1.,0.,0.));
#389=DIRECTION('',(0.,0.,-1.));
#390=DIRECTION('',(-1.,0.,0.));
#391=DIRECTION('',(0.,0.,-1.));
#392=DIRECTION('',(-1.,0.,0.));
#393=DIRECTION('',(0.,0.,-1.));
#394=DIRECTION('',(-1.,0.,0.));
#395=DIRECTION('',(0.,0.,-1.));
#396=DIRECTION('',(-1.,0.,0.));
#397=DIRECTION('',(0.,0.,-1.));
#398=DIRECTION('',(-1.,0.,0.));
#399=DIRECTION('',(0.,0.,-1.));
#400=DIRECTION('',(-1.,0.,0.));
#401=DIRECTION('',(0.,0.,-1.));
#402=DIRECTION('',(-1.,0.,0.));
#403=DIRECTION('',(0.,0.,1.));
#404=DIRECTION('',(1.,0.,0.));
#405=DIRECTION('',(0.,0.,-1.));
#406=DIRECTION('',(-1.,0.,0.));
#407=DIRECTION('',(0.,0.,-1.));
#408=DIRECTION('',(-1.,0.,0.));
#409=DIRECTION('',(0.,0.,-1.));
#410=DIRECTION('',(-1.,0.,0.));
#411=CARTESIAN_POINT('',(0.,0.,0.));
#412=CARTESIAN_POINT('',(0.,0.,-120.15963005639));
#413=CARTESIAN_POINT('',(15.0403377741641,0.,-120.15963005639));
#414=CARTESIAN_POINT('',(0.,0.,-123.7308239984));
#415=CARTESIAN_POINT('',(-11.5745763876258,0.,-123.7308239984));
#416=CARTESIAN_POINT('',(0.,0.,-120.038119940227));
#417=CARTESIAN_POINT('',(0.,0.,-102.91948856026));
#418=CARTESIAN_POINT('',(14.6427517924488,0.,-102.91948856026));
#419=CARTESIAN_POINT('',(0.,0.,-110.91948856026));
#420=CARTESIAN_POINT('',(15.4644377967236,0.,-110.91948856026));
#421=CARTESIAN_POINT('',(0.,0.,-110.91948856026));
#422=CARTESIAN_POINT('',(0.,0.,-90.));
#423=CARTESIAN_POINT('',(14.6427517924488,0.,-90.));
#424=CARTESIAN_POINT('',(0.,0.,-120.));
#425=CARTESIAN_POINT('',(0.,0.,-120.15963005639));
#426=CARTESIAN_POINT('',(0.,0.,-1.50000000000002));
#427=CARTESIAN_POINT('',(-16.,0.,-1.50000000000002));
#428=CARTESIAN_POINT('',(0.,0.,-87.2299999999999));
#429=CARTESIAN_POINT('',(-16.,0.,-87.2299999999999));
#430=CARTESIAN_POINT('',(0.,0.,-177.022081209803));
#431=CARTESIAN_POINT('',(0.,0.,-90.));
#432=CARTESIAN_POINT('',(0.,0.,-123.7308239984));
#433=CARTESIAN_POINT('',(10.58714803306,0.,-123.7308239984));
#434=CARTESIAN_POINT('',(10.4200548556809,1.87354217420569,-123.7308239984));
#435=CARTESIAN_POINT('',(0.,0.,-120.));
#436=CARTESIAN_POINT('',(4.96329692251297,0.,-120.));
#437=CARTESIAN_POINT('',(0.,0.,-120.));
#438=CARTESIAN_POINT('',(0.,0.,-121.938022538107));
#439=CARTESIAN_POINT('',(7.76904172032164,0.,-121.938022538107));
#440=CARTESIAN_POINT('',(0.,0.,-123.));
#441=CARTESIAN_POINT('',(0.,0.,-122.144997616976));
#442=CARTESIAN_POINT('',(7.84738201310401,0.,-122.144997616976));
#443=CARTESIAN_POINT('',(0.,0.,-121.938022538107));
#444=CARTESIAN_POINT('',(0.,0.,-123.576917364063));
#445=CARTESIAN_POINT('',(10.161382013104,0.,-123.576917364063));
#446=CARTESIAN_POINT('',(0.,0.,-122.144997616976));
#447=CARTESIAN_POINT('',(0.,0.,-122.641525050511));
#448=CARTESIAN_POINT('',(0.,0.,0.));
#449=CARTESIAN_POINT('',(-14.5,0.,0.));
#450=CARTESIAN_POINT('',(0.,0.,0.));
#451=CARTESIAN_POINT('',(0.,0.,0.));
#452=CARTESIAN_POINT('',(0.,0.,-113.));
#453=CARTESIAN_POINT('',(-16.,0.,-113.));
#454=CARTESIAN_POINT('',(0.,0.,-125.));
#455=CARTESIAN_POINT('',(-16.,0.,-125.));
#456=CARTESIAN_POINT('',(0.,0.,0.));
#457=CARTESIAN_POINT('',(0.,0.,-113.));
#458=CARTESIAN_POINT('',(-5.,0.,-113.));
#459=CARTESIAN_POINT('',(16.,0.,-113.));
#460=CARTESIAN_POINT('',(0.,0.,-125.));
#461=CARTESIAN_POINT('',(-5.,0.,-125.));
#462=CARTESIAN_POINT('',(0.,0.,0.));
#463=CARTESIAN_POINT('',(5.,0.,-125.));
#464=MECHANICAL_DESIGN_GEOMETRIC_PRESENTATION_REPRESENTATION('',(#94,#95),
#465);
#465=(
GEOMETRIC_REPRESENTATION_CONTEXT(3)
GLOBAL_UNCERTAINTY_ASSIGNED_CONTEXT((#466))
GLOBAL_UNIT_ASSIGNED_CONTEXT((#472,#468,#467))
REPRESENTATION_CONTEXT('R790_032A32S1_16M_SIM',
'TOP_LEVEL_ASSEMBLY_PART')
);
#466=UNCERTAINTY_MEASURE_WITH_UNIT(LENGTH_MEASURE(2.E-005),#472,
'DISTANCE_ACCURACY_VALUE','Maximum Tolerance applied to model');
#467=(
NAMED_UNIT(*)
SI_UNIT($,.STERADIAN.)
SOLID_ANGLE_UNIT()
);
#468=(
CONVERSION_BASED_UNIT('DEGREE',#470)
NAMED_UNIT(#469)
PLANE_ANGLE_UNIT()
);
#469=DIMENSIONAL_EXPONENTS(0.,0.,0.,0.,0.,0.,0.);
#470=PLANE_ANGLE_MEASURE_WITH_UNIT(PLANE_ANGLE_MEASURE(0.0174532925),#471);
#471=(
NAMED_UNIT(*)
PLANE_ANGLE_UNIT()
SI_UNIT($,.RADIAN.)
);
#472=(
LENGTH_UNIT()
NAMED_UNIT(*)
SI_UNIT(.MILLI.,.METRE.)
);
ENDSEC;
END-ISO-10303-21;
