ISO-10303-21;
HEADER;
/* Generated by software containing ST-Developer
 * from STEP Tools, Inc. (www.steptools.com) 
 */
/* OPTION: using custom schema-name function */

FILE_DESCRIPTION(
/* description */ ('3-D model version:1'),
/* implementation_level */ '2;1');

FILE_NAME(
/* name */ 'R790-025A25S2-16L',
/* time_stamp */ '2015-10-15T06:48:37+02:00',
/* author */ ('InteractiveCad'),
/* organization */ ('AB Sandvik Coromant'),
/* preprocessor_version */ 'ST-DEVELOPER v15',
/* originating_system */ 'SIEMENS PLM Software NX 8.5',
/* authorisation */ '');

FILE_SCHEMA (('AP203_CONFIGURATION_CONTROLLED_3D_DESIGN_OF_MECHANICAL_PARTS_AND_ASSEMBLIES_MIM_LF { 1 0 10303 403 2 1 2}'));
ENDSEC;

DATA;
#10=SHAPE_REPRESENTATION_RELATIONSHIP('None',
'relationship between R790_025A25S2_16L_SIM-None and R790_025A25S2_16L
_SIM-None',#92,#11);
#11=ADVANCED_BREP_SHAPE_REPRESENTATION('R790_025A25S2_16L_SIM-None',(#110,
#111),#489);
#12=CC_DESIGN_APPROVAL(#24,(#82));
#13=CC_DESIGN_APPROVAL(#25,(#84));
#14=CC_DESIGN_APPROVAL(#26,(#31));
#15=APPROVAL_PERSON_ORGANIZATION(#69,#24,#18);
#16=APPROVAL_PERSON_ORGANIZATION(#70,#25,#19);
#17=APPROVAL_PERSON_ORGANIZATION(#71,#26,#20);
#18=APPROVAL_ROLE('approver');
#19=APPROVAL_ROLE('approver');
#20=APPROVAL_ROLE('approver');
#21=APPROVAL_DATE_TIME(#39,#24);
#22=APPROVAL_DATE_TIME(#40,#25);
#23=APPROVAL_DATE_TIME(#41,#26);
#24=APPROVAL(#27,' ');
#25=APPROVAL(#28,' ');
#26=APPROVAL(#29,' ');
#27=APPROVAL_STATUS('not_yet_approved');
#28=APPROVAL_STATUS('not_yet_approved');
#29=APPROVAL_STATUS('not_yet_approved');
#30=CC_DESIGN_SECURITY_CLASSIFICATION(#31,(#84));
#31=SECURITY_CLASSIFICATION(' ',' ',#32);
#32=SECURITY_CLASSIFICATION_LEVEL('confidential');
#33=CC_DESIGN_DATE_AND_TIME_ASSIGNMENT(#37,#35,(#82));
#34=CC_DESIGN_DATE_AND_TIME_ASSIGNMENT(#38,#36,(#31));
#35=DATE_TIME_ROLE('creation_date');
#36=DATE_TIME_ROLE('classification_date');
#37=DATE_AND_TIME(#52,#42);
#38=DATE_AND_TIME(#53,#43);
#39=DATE_AND_TIME(#54,#44);
#40=DATE_AND_TIME(#55,#45);
#41=DATE_AND_TIME(#56,#46);
#42=LOCAL_TIME(0,0,0.,#47);
#43=LOCAL_TIME(0,0,0.,#48);
#44=LOCAL_TIME(0,0,0.,#49);
#45=LOCAL_TIME(0,0,0.,#50);
#46=LOCAL_TIME(0,0,0.,#51);
#47=COORDINATED_UNIVERSAL_TIME_OFFSET(0,0,.BEHIND.);
#48=COORDINATED_UNIVERSAL_TIME_OFFSET(0,0,.BEHIND.);
#49=COORDINATED_UNIVERSAL_TIME_OFFSET(0,0,.BEHIND.);
#50=COORDINATED_UNIVERSAL_TIME_OFFSET(0,0,.BEHIND.);
#51=COORDINATED_UNIVERSAL_TIME_OFFSET(0,0,.BEHIND.);
#52=CALENDAR_DATE(0,1,1);
#53=CALENDAR_DATE(0,1,1);
#54=CALENDAR_DATE(0,1,1);
#55=CALENDAR_DATE(0,1,1);
#56=CALENDAR_DATE(0,1,1);
#57=CC_DESIGN_PERSON_AND_ORGANIZATION_ASSIGNMENT(#65,#61,(#82,#84));
#58=CC_DESIGN_PERSON_AND_ORGANIZATION_ASSIGNMENT(#66,#62,(#86));
#59=CC_DESIGN_PERSON_AND_ORGANIZATION_ASSIGNMENT(#67,#63,(#84));
#60=CC_DESIGN_PERSON_AND_ORGANIZATION_ASSIGNMENT(#68,#64,(#31));
#61=PERSON_AND_ORGANIZATION_ROLE('creator');
#62=PERSON_AND_ORGANIZATION_ROLE('design_owner');
#63=PERSON_AND_ORGANIZATION_ROLE('design_supplier');
#64=PERSON_AND_ORGANIZATION_ROLE('classification_officer');
#65=PERSON_AND_ORGANIZATION(#79,#72);
#66=PERSON_AND_ORGANIZATION(#79,#73);
#67=PERSON_AND_ORGANIZATION(#79,#74);
#68=PERSON_AND_ORGANIZATION(#79,#75);
#69=PERSON_AND_ORGANIZATION(#79,#76);
#70=PERSON_AND_ORGANIZATION(#79,#77);
#71=PERSON_AND_ORGANIZATION(#79,#78);
#72=ORGANIZATION(' ',' ',' ');
#73=ORGANIZATION(' ',' ',' ');
#74=ORGANIZATION(' ',' ',' ');
#75=ORGANIZATION(' ',' ',' ');
#76=ORGANIZATION(' ',' ',' ');
#77=ORGANIZATION(' ',' ',' ');
#78=ORGANIZATION(' ',' ',' ');
#79=PERSON(' ',' ',' ',(' '),$,$);
#80=SHAPE_DEFINITION_REPRESENTATION(#81,#92);
#81=PRODUCT_DEFINITION_SHAPE('','',#82);
#82=PRODUCT_DEFINITION(' ','',#84,#83);
#83=DESIGN_CONTEXT('',#91,'design');
#84=PRODUCT_DEFINITION_FORMATION_WITH_SPECIFIED_SOURCE(' ',' ',#86,
 .NOT_KNOWN.);
#85=PRODUCT_RELATED_PRODUCT_CATEGORY('detail','',(#86));
#86=PRODUCT('R790_025A25S2_16L_SIM','R790_025A25S2_16L_SIM',' ',(#89));
#87=PRODUCT_CATEGORY('part',' ');
#88=PRODUCT_CATEGORY(' ','');
#89=MECHANICAL_CONTEXT(' ',#91,'mechanical');
#90=APPLICATION_PROTOCOL_DEFINITION('international standard',
'config_control_design',2010,#91);
#91=APPLICATION_CONTEXT(
'configuration controlled 3D designs of mechanical parts and assemblie
s');
#92=SHAPE_REPRESENTATION('R790_025A25S2_16L_SIM-None',(#303),#489);
#93=PRESENTATION_LAYER_ASSIGNMENT('1','Layer 1',(#110,#111));
#94=STYLED_ITEM('',(#96),#110);
#95=STYLED_ITEM('',(#97),#111);
#96=PRESENTATION_STYLE_ASSIGNMENT((#98));
#97=PRESENTATION_STYLE_ASSIGNMENT((#99));
#98=SURFACE_STYLE_USAGE(.BOTH.,#100);
#99=SURFACE_STYLE_USAGE(.BOTH.,#101);
#100=SURFACE_SIDE_STYLE('',(#102));
#101=SURFACE_SIDE_STYLE('',(#103));
#102=SURFACE_STYLE_FILL_AREA(#104);
#103=SURFACE_STYLE_FILL_AREA(#105);
#104=FILL_AREA_STYLE('',(#106));
#105=FILL_AREA_STYLE('',(#107));
#106=FILL_AREA_STYLE_COLOUR('',#108);
#107=FILL_AREA_STYLE_COLOUR('',#109);
#108=COLOUR_RGB('TLS_NOCUT',0.499992370489052,0.499992370489052,0.499992370489052);
#109=COLOUR_RGB('TLS_CUT',0.8,0.8,0.8);
#110=MANIFOLD_SOLID_BREP('TURN_SOLID',#112);
#111=MANIFOLD_SOLID_BREP('',#113);
#112=CLOSED_SHELL('',(#132,#133,#134,#135,#136,#137,#138,#139,#140,#141,
#142,#143,#144,#145));
#113=CLOSED_SHELL('',(#146,#147,#148,#149));
#114=(
BOUNDED_SURFACE()
B_SPLINE_SURFACE(3,3,((#437,#438,#439,#440,#441,#442,#443),(#444,#445,#446,
#447,#448,#449,#450),(#451,#452,#453,#454,#455,#456,#457),(#458,#459,#460,
#461,#462,#463,#464)),.UNSPECIFIED.,.F.,.T.,.F.)
B_SPLINE_SURFACE_WITH_KNOTS((4,4),(1,3,3,3,1),(0.,1.),(-0.5,0.,0.5,1.,1.5),
 .UNSPECIFIED.)
GEOMETRIC_REPRESENTATION_ITEM()
RATIONAL_B_SPLINE_SURFACE(((1.,0.333333333333333,0.333333333333333,1.,0.333333333333333,
0.333333333333333,1.),(0.881865209708364,0.293955069902788,0.293955069902788,
0.881865209708364,0.293955069902788,0.293955069902788,0.881865209708364),
(0.881865209708364,0.293955069902788,0.293955069902788,0.881865209708364,
0.293955069902788,0.293955069902788,0.881865209708364),(1.,0.333333333333333,
0.333333333333333,1.,0.333333333333333,0.333333333333333,1.)))
REPRESENTATION_ITEM('')
SURFACE()
);
#115=FACE_OUTER_BOUND('',#198,.T.);
#116=FACE_OUTER_BOUND('',#207,.T.);
#117=PLANE('',#318);
#118=PLANE('',#320);
#119=PLANE('',#328);
#120=PLANE('',#334);
#121=PLANE('',#337);
#122=CYLINDRICAL_SURFACE('',#311,11.3090565938807);
#123=CYLINDRICAL_SURFACE('',#315,12.5);
#124=CYLINDRICAL_SURFACE('',#332,12.5);
#125=CYLINDRICAL_SURFACE('',#336,1.5);
#126=CONICAL_SURFACE('',#309,12.1307425981555,5.8643283042661);
#127=CONICAL_SURFACE('',#312,11.6963310004543,2.68334654304326);
#128=CONICAL_SURFACE('',#316,11.309057,23.2649640579987);
#129=CONICAL_SURFACE('',#323,4.44740059825951,20.7317088900196);
#130=CONICAL_SURFACE('',#325,4.50337523939418,58.4515493321155);
#131=CONICAL_SURFACE('',#329,11.,45.0000000000001);
#132=ADVANCED_FACE('',(#152,#153),#150,.T.);
#133=ADVANCED_FACE('',(#154,#155),#126,.T.);
#134=ADVANCED_FACE('',(#156,#157),#122,.T.);
#135=ADVANCED_FACE('',(#158,#159),#127,.T.);
#136=ADVANCED_FACE('',(#160,#161),#123,.T.);
#137=ADVANCED_FACE('',(#162,#163),#128,.T.);
#138=ADVANCED_FACE('',(#164,#165),#117,.T.);
#139=ADVANCED_FACE('',(#115),#118,.F.);
#140=ADVANCED_FACE('',(#166,#167),#114,.T.);
#141=ADVANCED_FACE('',(#168,#169),#129,.F.);
#142=ADVANCED_FACE('',(#170,#171),#130,.F.);
#143=ADVANCED_FACE('',(#172,#173),#151,.T.);
#144=ADVANCED_FACE('',(#116),#119,.F.);
#145=ADVANCED_FACE('',(#174,#175),#131,.T.);
#146=ADVANCED_FACE('',(#176,#177),#124,.T.);
#147=ADVANCED_FACE('',(#178,#179),#120,.T.);
#148=ADVANCED_FACE('',(#180,#181),#125,.F.);
#149=ADVANCED_FACE('',(#182,#183),#121,.T.);
#150=TOROIDAL_SURFACE('',#306,7.99758792586413,3.7);
#151=TOROIDAL_SURFACE('',#326,7.39291656897607,1.1);
#152=FACE_BOUND('',#184,.T.);
#153=FACE_BOUND('',#185,.T.);
#154=FACE_BOUND('',#186,.T.);
#155=FACE_BOUND('',#187,.T.);
#156=FACE_BOUND('',#188,.T.);
#157=FACE_BOUND('',#189,.T.);
#158=FACE_BOUND('',#190,.T.);
#159=FACE_BOUND('',#191,.T.);
#160=FACE_BOUND('',#192,.T.);
#161=FACE_BOUND('',#193,.T.);
#162=FACE_BOUND('',#194,.T.);
#163=FACE_BOUND('',#195,.T.);
#164=FACE_BOUND('',#196,.T.);
#165=FACE_BOUND('',#197,.T.);
#166=FACE_BOUND('',#199,.T.);
#167=FACE_BOUND('',#200,.T.);
#168=FACE_BOUND('',#201,.T.);
#169=FACE_BOUND('',#202,.T.);
#170=FACE_BOUND('',#203,.T.);
#171=FACE_BOUND('',#204,.T.);
#172=FACE_BOUND('',#205,.T.);
#173=FACE_BOUND('',#206,.T.);
#174=FACE_BOUND('',#208,.T.);
#175=FACE_BOUND('',#209,.T.);
#176=FACE_BOUND('',#210,.T.);
#177=FACE_BOUND('',#211,.T.);
#178=FACE_BOUND('',#212,.T.);
#179=FACE_BOUND('',#213,.T.);
#180=FACE_BOUND('',#214,.T.);
#181=FACE_BOUND('',#215,.T.);
#182=FACE_BOUND('',#216,.T.);
#183=FACE_BOUND('',#217,.T.);
#184=EDGE_LOOP('',(#218));
#185=EDGE_LOOP('',(#219));
#186=EDGE_LOOP('',(#220));
#187=EDGE_LOOP('',(#221));
#188=EDGE_LOOP('',(#222));
#189=EDGE_LOOP('',(#223));
#190=EDGE_LOOP('',(#224));
#191=EDGE_LOOP('',(#225));
#192=EDGE_LOOP('',(#226));
#193=EDGE_LOOP('',(#227));
#194=EDGE_LOOP('',(#228));
#195=EDGE_LOOP('',(#229));
#196=EDGE_LOOP('',(#230));
#197=EDGE_LOOP('',(#231));
#198=EDGE_LOOP('',(#232));
#199=EDGE_LOOP('',(#233));
#200=EDGE_LOOP('',(#234));
#201=EDGE_LOOP('',(#235));
#202=EDGE_LOOP('',(#236));
#203=EDGE_LOOP('',(#237));
#204=EDGE_LOOP('',(#238));
#205=EDGE_LOOP('',(#239));
#206=EDGE_LOOP('',(#240));
#207=EDGE_LOOP('',(#241));
#208=EDGE_LOOP('',(#242));
#209=EDGE_LOOP('',(#243));
#210=EDGE_LOOP('',(#244));
#211=EDGE_LOOP('',(#245));
#212=EDGE_LOOP('',(#246));
#213=EDGE_LOOP('',(#247));
#214=EDGE_LOOP('',(#248));
#215=EDGE_LOOP('',(#249));
#216=EDGE_LOOP('',(#250));
#217=EDGE_LOOP('',(#251));
#218=ORIENTED_EDGE('',*,*,#269,.F.);
#219=ORIENTED_EDGE('',*,*,#270,.T.);
#220=ORIENTED_EDGE('',*,*,#271,.F.);
#221=ORIENTED_EDGE('',*,*,#272,.T.);
#222=ORIENTED_EDGE('',*,*,#273,.F.);
#223=ORIENTED_EDGE('',*,*,#271,.T.);
#224=ORIENTED_EDGE('',*,*,#272,.F.);
#225=ORIENTED_EDGE('',*,*,#269,.T.);
#226=ORIENTED_EDGE('',*,*,#274,.T.);
#227=ORIENTED_EDGE('',*,*,#275,.F.);
#228=ORIENTED_EDGE('',*,*,#275,.T.);
#229=ORIENTED_EDGE('',*,*,#273,.T.);
#230=ORIENTED_EDGE('',*,*,#276,.T.);
#231=ORIENTED_EDGE('',*,*,#270,.F.);
#232=ORIENTED_EDGE('',*,*,#277,.F.);
#233=ORIENTED_EDGE('',*,*,#278,.F.);
#234=ORIENTED_EDGE('',*,*,#277,.T.);
#235=ORIENTED_EDGE('',*,*,#279,.F.);
#236=ORIENTED_EDGE('',*,*,#278,.T.);
#237=ORIENTED_EDGE('',*,*,#280,.F.);
#238=ORIENTED_EDGE('',*,*,#279,.T.);
#239=ORIENTED_EDGE('',*,*,#280,.T.);
#240=ORIENTED_EDGE('',*,*,#276,.F.);
#241=ORIENTED_EDGE('',*,*,#281,.F.);
#242=ORIENTED_EDGE('',*,*,#274,.F.);
#243=ORIENTED_EDGE('',*,*,#281,.T.);
#244=ORIENTED_EDGE('',*,*,#282,.T.);
#245=ORIENTED_EDGE('',*,*,#283,.F.);
#246=ORIENTED_EDGE('',*,*,#284,.T.);
#247=ORIENTED_EDGE('',*,*,#282,.F.);
#248=ORIENTED_EDGE('',*,*,#285,.T.);
#249=ORIENTED_EDGE('',*,*,#284,.F.);
#250=ORIENTED_EDGE('',*,*,#283,.T.);
#251=ORIENTED_EDGE('',*,*,#285,.F.);
#252=VERTEX_POINT('',#410);
#253=VERTEX_POINT('',#412);
#254=VERTEX_POINT('',#415);
#255=VERTEX_POINT('',#417);
#256=VERTEX_POINT('',#420);
#257=VERTEX_POINT('',#424);
#258=VERTEX_POINT('',#426);
#259=VERTEX_POINT('',#430);
#260=VERTEX_POINT('',#433);
#261=VERTEX_POINT('',#436);
#262=VERTEX_POINT('',#466);
#263=VERTEX_POINT('',#469);
#264=VERTEX_POINT('',#473);
#265=VERTEX_POINT('',#477);
#266=VERTEX_POINT('',#479);
#267=VERTEX_POINT('',#482);
#268=VERTEX_POINT('',#485);
#269=EDGE_CURVE('',#252,#252,#286,.T.);
#270=EDGE_CURVE('',#253,#253,#287,.T.);
#271=EDGE_CURVE('',#254,#254,#288,.T.);
#272=EDGE_CURVE('',#255,#255,#289,.T.);
#273=EDGE_CURVE('',#256,#256,#290,.T.);
#274=EDGE_CURVE('',#257,#257,#291,.T.);
#275=EDGE_CURVE('',#258,#258,#292,.T.);
#276=EDGE_CURVE('',#259,#259,#293,.T.);
#277=EDGE_CURVE('',#260,#260,#294,.T.);
#278=EDGE_CURVE('',#261,#261,#295,.T.);
#279=EDGE_CURVE('',#262,#262,#296,.T.);
#280=EDGE_CURVE('',#263,#263,#297,.T.);
#281=EDGE_CURVE('',#264,#264,#298,.T.);
#282=EDGE_CURVE('',#265,#265,#299,.T.);
#283=EDGE_CURVE('',#266,#266,#300,.T.);
#284=EDGE_CURVE('',#267,#267,#301,.T.);
#285=EDGE_CURVE('',#268,#268,#302,.T.);
#286=CIRCLE('',#304,11.6963310004543);
#287=CIRCLE('',#305,8.18777017966674);
#288=CIRCLE('',#307,11.3090565938807);
#289=CIRCLE('',#308,12.1307425981555);
#290=CIRCLE('',#310,11.3090565938807);
#291=CIRCLE('',#313,12.5);
#292=CIRCLE('',#314,12.5);
#293=CIRCLE('',#317,7.35446511152939);
#294=CIRCLE('',#319,1.64165580045083);
#295=CIRCLE('',#321,4.44740059825951);
#296=CIRCLE('',#322,4.50337523939418);
#297=CIRCLE('',#324,6.81737523939418);
#298=CIRCLE('',#327,11.);
#299=CIRCLE('',#330,12.5);
#300=CIRCLE('',#331,12.5);
#301=CIRCLE('',#333,1.5);
#302=CIRCLE('',#335,1.5);
#303=AXIS2_PLACEMENT_3D('',#408,#338,#339);
#304=AXIS2_PLACEMENT_3D('',#409,#340,#341);
#305=AXIS2_PLACEMENT_3D('',#411,#342,#343);
#306=AXIS2_PLACEMENT_3D('',#413,#344,#345);
#307=AXIS2_PLACEMENT_3D('',#414,#346,#347);
#308=AXIS2_PLACEMENT_3D('',#416,#348,#349);
#309=AXIS2_PLACEMENT_3D('',#418,#350,#351);
#310=AXIS2_PLACEMENT_3D('',#419,#352,#353);
#311=AXIS2_PLACEMENT_3D('',#421,#354,#355);
#312=AXIS2_PLACEMENT_3D('',#422,#356,#357);
#313=AXIS2_PLACEMENT_3D('',#423,#358,#359);
#314=AXIS2_PLACEMENT_3D('',#425,#360,#361);
#315=AXIS2_PLACEMENT_3D('',#427,#362,#363);
#316=AXIS2_PLACEMENT_3D('',#428,#364,#365);
#317=AXIS2_PLACEMENT_3D('',#429,#366,#367);
#318=AXIS2_PLACEMENT_3D('',#431,#368,#369);
#319=AXIS2_PLACEMENT_3D('',#432,#370,#371);
#320=AXIS2_PLACEMENT_3D('',#434,#372,#373);
#321=AXIS2_PLACEMENT_3D('',#435,#374,#375);
#322=AXIS2_PLACEMENT_3D('',#465,#376,#377);
#323=AXIS2_PLACEMENT_3D('',#467,#378,#379);
#324=AXIS2_PLACEMENT_3D('',#468,#380,#381);
#325=AXIS2_PLACEMENT_3D('',#470,#382,#383);
#326=AXIS2_PLACEMENT_3D('',#471,#384,#385);
#327=AXIS2_PLACEMENT_3D('',#472,#386,#387);
#328=AXIS2_PLACEMENT_3D('',#474,#388,#389);
#329=AXIS2_PLACEMENT_3D('',#475,#390,#391);
#330=AXIS2_PLACEMENT_3D('',#476,#392,#393);
#331=AXIS2_PLACEMENT_3D('',#478,#394,#395);
#332=AXIS2_PLACEMENT_3D('',#480,#396,#397);
#333=AXIS2_PLACEMENT_3D('',#481,#398,#399);
#334=AXIS2_PLACEMENT_3D('',#483,#400,#401);
#335=AXIS2_PLACEMENT_3D('',#484,#402,#403);
#336=AXIS2_PLACEMENT_3D('',#486,#404,#405);
#337=AXIS2_PLACEMENT_3D('',#487,#406,#407);
#338=DIRECTION('',(0.,0.,1.));
#339=DIRECTION('',(1.,0.,0.));
#340=DIRECTION('',(0.,0.,1.));
#341=DIRECTION('',(1.,0.,0.));
#342=DIRECTION('',(0.,0.,1.));
#343=DIRECTION('',(-1.,0.,0.));
#344=DIRECTION('',(0.,0.,1.));
#345=DIRECTION('',(1.,0.,0.));
#346=DIRECTION('',(0.,0.,1.));
#347=DIRECTION('',(1.,0.,0.));
#348=DIRECTION('',(0.,0.,1.));
#349=DIRECTION('',(1.,0.,0.));
#350=DIRECTION('',(0.,0.,-1.));
#351=DIRECTION('',(-1.,0.,8.45900832572919E-016));
#352=DIRECTION('',(0.,0.,1.));
#353=DIRECTION('',(1.,0.,0.));
#354=DIRECTION('',(0.,0.,1.));
#355=DIRECTION('',(1.,0.,0.));
#356=DIRECTION('',(0.,0.,1.));
#357=DIRECTION('',(1.,0.,2.36968567592142E-016));
#358=DIRECTION('',(0.,0.,-1.));
#359=DIRECTION('',(-1.,0.,0.));
#360=DIRECTION('',(0.,0.,-1.));
#361=DIRECTION('',(-1.,0.,0.));
#362=DIRECTION('',(0.,0.,-1.));
#363=DIRECTION('',(-1.,0.,0.));
#364=DIRECTION('',(0.,0.,1.));
#365=DIRECTION('',(1.,0.,-1.2580363066862E-016));
#366=DIRECTION('',(0.,0.,1.));
#367=DIRECTION('',(1.,0.,0.));
#368=DIRECTION('',(0.,0.,-1.));
#369=DIRECTION('',(-1.,0.,0.));
#370=DIRECTION('',(0.,0.,1.));
#371=DIRECTION('',(1.,0.,0.));
#372=DIRECTION('',(0.,0.,1.));
#373=DIRECTION('',(1.,0.,0.));
#374=DIRECTION('',(0.,0.,1.));
#375=DIRECTION('',(1.,0.,0.));
#376=DIRECTION('',(0.,0.,1.));
#377=DIRECTION('',(1.,0.,0.));
#378=DIRECTION('',(0.,0.,-1.));
#379=DIRECTION('',(-1.,0.,-1.08717920389323E-016));
#380=DIRECTION('',(0.,0.,1.));
#381=DIRECTION('',(1.,0.,0.));
#382=DIRECTION('',(0.,0.,-1.));
#383=DIRECTION('',(-1.,0.,-5.94788361600582E-017));
#384=DIRECTION('',(0.,0.,1.));
#385=DIRECTION('',(1.,0.,0.));
#386=DIRECTION('',(0.,0.,-1.));
#387=DIRECTION('',(-1.,0.,0.));
#388=DIRECTION('',(0.,0.,-1.));
#389=DIRECTION('',(-1.,0.,0.));
#390=DIRECTION('',(0.,0.,-1.));
#391=DIRECTION('',(-1.,0.,0.));
#392=DIRECTION('',(0.,0.,-1.));
#393=DIRECTION('',(-1.,0.,0.));
#394=DIRECTION('',(0.,0.,-1.));
#395=DIRECTION('',(-1.,0.,0.));
#396=DIRECTION('',(0.,0.,-1.));
#397=DIRECTION('',(-1.,0.,0.));
#398=DIRECTION('',(0.,0.,-1.));
#399=DIRECTION('',(-1.,0.,0.));
#400=DIRECTION('',(0.,0.,1.));
#401=DIRECTION('',(1.,0.,0.));
#402=DIRECTION('',(0.,0.,-1.));
#403=DIRECTION('',(-1.,0.,0.));
#404=DIRECTION('',(0.,0.,-1.));
#405=DIRECTION('',(-1.,0.,0.));
#406=DIRECTION('',(0.,0.,-1.));
#407=DIRECTION('',(-1.,0.,0.));
#408=CARTESIAN_POINT('',(0.,0.,0.));
#409=CARTESIAN_POINT('',(0.,0.,-120.06985724756));
#410=CARTESIAN_POINT('',(11.6963310004543,0.,-120.06985724756));
#411=CARTESIAN_POINT('',(0.,0.,-123.668531485918));
#412=CARTESIAN_POINT('',(-8.18777017966674,0.,-123.668531485918));
#413=CARTESIAN_POINT('',(0.,0.,-119.973422460417));
#414=CARTESIAN_POINT('',(0.,0.,-102.800927354328));
#415=CARTESIAN_POINT('',(11.3090565938807,0.,-102.800927354328));
#416=CARTESIAN_POINT('',(0.,0.,-110.800927354328));
#417=CARTESIAN_POINT('',(12.1307425981555,0.,-110.800927354328));
#418=CARTESIAN_POINT('',(0.,0.,-110.800927354328));
#419=CARTESIAN_POINT('',(0.,0.,-74.9999999999999));
#420=CARTESIAN_POINT('',(11.3090565938807,0.,-74.9999999999999));
#421=CARTESIAN_POINT('',(0.,0.,-120.));
#422=CARTESIAN_POINT('',(0.,0.,-120.06985724756));
#423=CARTESIAN_POINT('',(0.,0.,-1.5));
#424=CARTESIAN_POINT('',(-12.5,0.,-1.5));
#425=CARTESIAN_POINT('',(0.,0.,-72.2299999999999));
#426=CARTESIAN_POINT('',(-12.5,0.,-72.2299999999999));
#427=CARTESIAN_POINT('',(0.,0.,-177.000002133194));
#428=CARTESIAN_POINT('',(0.,0.,-74.9999999999999));
#429=CARTESIAN_POINT('',(0.,0.,-123.668531485918));
#430=CARTESIAN_POINT('',(7.35446511152939,0.,-123.668531485918));
#431=CARTESIAN_POINT('',(7.11460535908208,1.8629405951945,-123.668531485918));
#432=CARTESIAN_POINT('',(0.,0.,-120.));
#433=CARTESIAN_POINT('',(1.64165580045083,0.,-120.));
#434=CARTESIAN_POINT('',(0.,0.,-120.));
#435=CARTESIAN_POINT('',(0.,0.,-121.938022538107));
#436=CARTESIAN_POINT('',(4.44740059825951,0.,-121.938022538107));
#437=CARTESIAN_POINT('',(4.44740059825951,0.,-121.938022538107));
#438=CARTESIAN_POINT('',(4.44740059825951,8.89480119651902,-121.938022538107));
#439=CARTESIAN_POINT('',(-4.44740059825951,8.89480119651902,-121.938022538107));
#440=CARTESIAN_POINT('',(-4.44740059825951,0.,-121.938022538107));
#441=CARTESIAN_POINT('',(-4.44740059825951,-8.89480119651902,-121.938022538107));
#442=CARTESIAN_POINT('',(4.44740059825951,-8.89480119651902,-121.938022538107));
#443=CARTESIAN_POINT('',(4.44740059825951,0.,-121.938022538107));
#444=CARTESIAN_POINT('',(3.99112670782076,0.,-120.73254677199));
#445=CARTESIAN_POINT('',(3.99112670782076,7.98225341564152,-120.73254677199));
#446=CARTESIAN_POINT('',(-3.99112670782076,7.98225341564152,-120.73254677199));
#447=CARTESIAN_POINT('',(-3.99112670782076,0.,-120.73254677199));
#448=CARTESIAN_POINT('',(-3.99112670782076,-7.98225341564152,-120.73254677199));
#449=CARTESIAN_POINT('',(3.99112670782076,-7.98225341564152,-120.73254677199));
#450=CARTESIAN_POINT('',(3.99112670782076,0.,-120.73254677199));
#451=CARTESIAN_POINT('',(2.93059244970493,0.,-120.));
#452=CARTESIAN_POINT('',(2.93059244970492,5.86118489940985,-120.));
#453=CARTESIAN_POINT('',(-2.93059244970492,5.86118489940985,-120.));
#454=CARTESIAN_POINT('',(-2.93059244970493,0.,-120.));
#455=CARTESIAN_POINT('',(-2.93059244970492,-5.86118489940985,-120.));
#456=CARTESIAN_POINT('',(2.93059244970492,-5.86118489940985,-120.));
#457=CARTESIAN_POINT('',(2.93059244970493,0.,-120.));
#458=CARTESIAN_POINT('',(1.64165580045084,0.,-120.));
#459=CARTESIAN_POINT('',(1.64165580045084,3.28331160090167,-120.));
#460=CARTESIAN_POINT('',(-1.64165580045084,3.28331160090167,-120.));
#461=CARTESIAN_POINT('',(-1.64165580045084,0.,-120.));
#462=CARTESIAN_POINT('',(-1.64165580045084,-3.28331160090167,-120.));
#463=CARTESIAN_POINT('',(1.64165580045084,-3.28331160090167,-120.));
#464=CARTESIAN_POINT('',(1.64165580045084,0.,-120.));
#465=CARTESIAN_POINT('',(0.,0.,-122.085907558089));
#466=CARTESIAN_POINT('',(4.50337523939418,0.,-122.085907558089));
#467=CARTESIAN_POINT('',(0.,0.,-121.938022538107));
#468=CARTESIAN_POINT('',(0.,0.,-123.506621568057));
#469=CARTESIAN_POINT('',(6.81737523939418,0.,-123.506621568057));
#470=CARTESIAN_POINT('',(0.,0.,-122.085907558089));
#471=CARTESIAN_POINT('',(0.,0.,-122.569203743422));
#472=CARTESIAN_POINT('',(0.,0.,0.));
#473=CARTESIAN_POINT('',(-11.,0.,0.));
#474=CARTESIAN_POINT('',(0.,0.,0.));
#475=CARTESIAN_POINT('',(0.,0.,0.));
#476=CARTESIAN_POINT('',(0.,0.,-113.));
#477=CARTESIAN_POINT('',(-12.5,0.,-113.));
#478=CARTESIAN_POINT('',(0.,0.,-125.));
#479=CARTESIAN_POINT('',(-12.5,0.,-125.));
#480=CARTESIAN_POINT('',(0.,0.,0.));
#481=CARTESIAN_POINT('',(0.,0.,-113.));
#482=CARTESIAN_POINT('',(-1.5,0.,-113.));
#483=CARTESIAN_POINT('',(12.5,0.,-113.));
#484=CARTESIAN_POINT('',(0.,0.,-125.));
#485=CARTESIAN_POINT('',(-1.5,0.,-125.));
#486=CARTESIAN_POINT('',(0.,0.,0.));
#487=CARTESIAN_POINT('',(1.5,0.,-125.));
#488=MECHANICAL_DESIGN_GEOMETRIC_PRESENTATION_REPRESENTATION('',(#94,#95),
#489);
#489=(
GEOMETRIC_REPRESENTATION_CONTEXT(3)
GLOBAL_UNCERTAINTY_ASSIGNED_CONTEXT((#490))
GLOBAL_UNIT_ASSIGNED_CONTEXT((#496,#492,#491))
REPRESENTATION_CONTEXT('R790_025A25S2_16L_SIM',
'TOP_LEVEL_ASSEMBLY_PART')
);
#490=UNCERTAINTY_MEASURE_WITH_UNIT(LENGTH_MEASURE(0.0254),#496,
'DISTANCE_ACCURACY_VALUE','Maximum Tolerance applied to model');
#491=(
NAMED_UNIT(*)
SI_UNIT($,.STERADIAN.)
SOLID_ANGLE_UNIT()
);
#492=(
CONVERSION_BASED_UNIT('DEGREE',#494)
NAMED_UNIT(#493)
PLANE_ANGLE_UNIT()
);
#493=DIMENSIONAL_EXPONENTS(0.,0.,0.,0.,0.,0.,0.);
#494=PLANE_ANGLE_MEASURE_WITH_UNIT(PLANE_ANGLE_MEASURE(0.0174532925),#495);
#495=(
NAMED_UNIT(*)
PLANE_ANGLE_UNIT()
SI_UNIT($,.RADIAN.)
);
#496=(
LENGTH_UNIT()
NAMED_UNIT(*)
SI_UNIT(.MILLI.,.METRE.)
);
ENDSEC;
END-ISO-10303-21;
