ISO-10303-21;
HEADER;
/* Generated by software containing ST-Developer
 * from STEP Tools, Inc. (www.steptools.com) 
 */
/* OPTION: using custom schema-name function */

FILE_DESCRIPTION(
/* description */ ('3-D model version:1'),
/* implementation_level */ '2;1');

FILE_NAME(
/* name */ 'QS-A06HP-M',
/* time_stamp */ '2015-12-10T14:46:12+01:00',
/* author */ ('InteractiveCad'),
/* organization */ ('AB Sandvik Coromant'),
/* preprocessor_version */ 'ST-DEVELOPER v15',
/* originating_system */ 'SIEMENS PLM Software NX 8.5',
/* authorisation */ '');

FILE_SCHEMA (('AP203_CONFIGURATION_CONTROLLED_3D_DESIGN_OF_MECHANICAL_PARTS_AND_ASSEMBLIES_MIM_LF { 1 0 10303 403 2 1 2}'));
ENDSEC;

DATA;
#10=SHAPE_REPRESENTATION_RELATIONSHIP('None',
'relationship between QS_A06HP_M_SIM-None and QS_A06HP_M_SIM-None',#92,
#11);
#11=ADVANCED_BREP_SHAPE_REPRESENTATION('QS_A06HP_M_SIM-None',(#102),#290);
#12=CC_DESIGN_APPROVAL(#24,(#82));
#13=CC_DESIGN_APPROVAL(#25,(#84));
#14=CC_DESIGN_APPROVAL(#26,(#31));
#15=APPROVAL_PERSON_ORGANIZATION(#69,#24,#18);
#16=APPROVAL_PERSON_ORGANIZATION(#70,#25,#19);
#17=APPROVAL_PERSON_ORGANIZATION(#71,#26,#20);
#18=APPROVAL_ROLE('approver');
#19=APPROVAL_ROLE('approver');
#20=APPROVAL_ROLE('approver');
#21=APPROVAL_DATE_TIME(#39,#24);
#22=APPROVAL_DATE_TIME(#40,#25);
#23=APPROVAL_DATE_TIME(#41,#26);
#24=APPROVAL(#27,' ');
#25=APPROVAL(#28,' ');
#26=APPROVAL(#29,' ');
#27=APPROVAL_STATUS('not_yet_approved');
#28=APPROVAL_STATUS('not_yet_approved');
#29=APPROVAL_STATUS('not_yet_approved');
#30=CC_DESIGN_SECURITY_CLASSIFICATION(#31,(#84));
#31=SECURITY_CLASSIFICATION(' ',' ',#32);
#32=SECURITY_CLASSIFICATION_LEVEL('confidential');
#33=CC_DESIGN_DATE_AND_TIME_ASSIGNMENT(#37,#35,(#82));
#34=CC_DESIGN_DATE_AND_TIME_ASSIGNMENT(#38,#36,(#31));
#35=DATE_TIME_ROLE('creation_date');
#36=DATE_TIME_ROLE('classification_date');
#37=DATE_AND_TIME(#52,#42);
#38=DATE_AND_TIME(#53,#43);
#39=DATE_AND_TIME(#54,#44);
#40=DATE_AND_TIME(#55,#45);
#41=DATE_AND_TIME(#56,#46);
#42=LOCAL_TIME(0,0,0.,#47);
#43=LOCAL_TIME(0,0,0.,#48);
#44=LOCAL_TIME(0,0,0.,#49);
#45=LOCAL_TIME(0,0,0.,#50);
#46=LOCAL_TIME(0,0,0.,#51);
#47=COORDINATED_UNIVERSAL_TIME_OFFSET(0,0,.BEHIND.);
#48=COORDINATED_UNIVERSAL_TIME_OFFSET(0,0,.BEHIND.);
#49=COORDINATED_UNIVERSAL_TIME_OFFSET(0,0,.BEHIND.);
#50=COORDINATED_UNIVERSAL_TIME_OFFSET(0,0,.BEHIND.);
#51=COORDINATED_UNIVERSAL_TIME_OFFSET(0,0,.BEHIND.);
#52=CALENDAR_DATE(0,1,1);
#53=CALENDAR_DATE(0,1,1);
#54=CALENDAR_DATE(0,1,1);
#55=CALENDAR_DATE(0,1,1);
#56=CALENDAR_DATE(0,1,1);
#57=CC_DESIGN_PERSON_AND_ORGANIZATION_ASSIGNMENT(#65,#61,(#82,#84));
#58=CC_DESIGN_PERSON_AND_ORGANIZATION_ASSIGNMENT(#66,#62,(#86));
#59=CC_DESIGN_PERSON_AND_ORGANIZATION_ASSIGNMENT(#67,#63,(#84));
#60=CC_DESIGN_PERSON_AND_ORGANIZATION_ASSIGNMENT(#68,#64,(#31));
#61=PERSON_AND_ORGANIZATION_ROLE('creator');
#62=PERSON_AND_ORGANIZATION_ROLE('design_owner');
#63=PERSON_AND_ORGANIZATION_ROLE('design_supplier');
#64=PERSON_AND_ORGANIZATION_ROLE('classification_officer');
#65=PERSON_AND_ORGANIZATION(#79,#72);
#66=PERSON_AND_ORGANIZATION(#79,#73);
#67=PERSON_AND_ORGANIZATION(#79,#74);
#68=PERSON_AND_ORGANIZATION(#79,#75);
#69=PERSON_AND_ORGANIZATION(#79,#76);
#70=PERSON_AND_ORGANIZATION(#79,#77);
#71=PERSON_AND_ORGANIZATION(#79,#78);
#72=ORGANIZATION(' ',' ',' ');
#73=ORGANIZATION(' ',' ',' ');
#74=ORGANIZATION(' ',' ',' ');
#75=ORGANIZATION(' ',' ',' ');
#76=ORGANIZATION(' ',' ',' ');
#77=ORGANIZATION(' ',' ',' ');
#78=ORGANIZATION(' ',' ',' ');
#79=PERSON(' ',' ',' ',(' '),$,$);
#80=SHAPE_DEFINITION_REPRESENTATION(#81,#92);
#81=PRODUCT_DEFINITION_SHAPE('','',#82);
#82=PRODUCT_DEFINITION(' ','',#84,#83);
#83=DESIGN_CONTEXT('',#91,'design');
#84=PRODUCT_DEFINITION_FORMATION_WITH_SPECIFIED_SOURCE(' ',' ',#86,
 .NOT_KNOWN.);
#85=PRODUCT_RELATED_PRODUCT_CATEGORY('detail','',(#86));
#86=PRODUCT('QS_A06HP_M_SIM','QS_A06HP_M_SIM',' ',(#89));
#87=PRODUCT_CATEGORY('part',' ');
#88=PRODUCT_CATEGORY(' ','');
#89=MECHANICAL_CONTEXT(' ',#91,'mechanical');
#90=APPLICATION_PROTOCOL_DEFINITION('international standard',
'config_control_design',2010,#91);
#91=APPLICATION_CONTEXT(
'configuration controlled 3D designs of mechanical parts and assemblie
s');
#92=SHAPE_REPRESENTATION('QS_A06HP_M_SIM-None',(#217),#290);
#93=PRESENTATION_LAYER_ASSIGNMENT('1','Layer 1',(#102));
#94=STYLED_ITEM('',(#95),#102);
#95=PRESENTATION_STYLE_ASSIGNMENT((#96));
#96=SURFACE_STYLE_USAGE(.BOTH.,#97);
#97=SURFACE_SIDE_STYLE('',(#98));
#98=SURFACE_STYLE_FILL_AREA(#99);
#99=FILL_AREA_STYLE('',(#100));
#100=FILL_AREA_STYLE_COLOUR('',#101);
#101=COLOUR_RGB('Medium Gray',0.490196078431373,0.490196078431373,0.490196078431373);
#102=MANIFOLD_SOLID_BREP('',#103);
#103=CLOSED_SHELL('',(#104,#105,#106,#107,#108,#109,#110));
#104=ADVANCED_FACE('',(#118),#111,.T.);
#105=ADVANCED_FACE('',(#119),#112,.T.);
#106=ADVANCED_FACE('',(#120),#113,.F.);
#107=ADVANCED_FACE('',(#121),#114,.T.);
#108=ADVANCED_FACE('',(#122),#115,.T.);
#109=ADVANCED_FACE('',(#123),#116,.T.);
#110=ADVANCED_FACE('',(#124),#117,.T.);
#111=PLANE('',#218);
#112=PLANE('',#219);
#113=PLANE('',#220);
#114=PLANE('',#221);
#115=PLANE('',#222);
#116=PLANE('',#223);
#117=PLANE('',#224);
#118=FACE_OUTER_BOUND('',#125,.T.);
#119=FACE_OUTER_BOUND('',#126,.T.);
#120=FACE_OUTER_BOUND('',#127,.T.);
#121=FACE_OUTER_BOUND('',#128,.T.);
#122=FACE_OUTER_BOUND('',#129,.T.);
#123=FACE_OUTER_BOUND('',#130,.T.);
#124=FACE_OUTER_BOUND('',#131,.T.);
#125=EDGE_LOOP('',(#132,#133,#134,#135));
#126=EDGE_LOOP('',(#136,#137,#138,#139));
#127=EDGE_LOOP('',(#140,#141,#142,#143,#144));
#128=EDGE_LOOP('',(#145,#146,#147,#148,#149));
#129=EDGE_LOOP('',(#150,#151,#152,#153));
#130=EDGE_LOOP('',(#154,#155,#156,#157));
#131=EDGE_LOOP('',(#158,#159,#160,#161));
#132=ORIENTED_EDGE('',*,*,#172,.F.);
#133=ORIENTED_EDGE('',*,*,#173,.T.);
#134=ORIENTED_EDGE('',*,*,#174,.T.);
#135=ORIENTED_EDGE('',*,*,#175,.T.);
#136=ORIENTED_EDGE('',*,*,#176,.T.);
#137=ORIENTED_EDGE('',*,*,#177,.T.);
#138=ORIENTED_EDGE('',*,*,#178,.F.);
#139=ORIENTED_EDGE('',*,*,#179,.F.);
#140=ORIENTED_EDGE('',*,*,#180,.F.);
#141=ORIENTED_EDGE('',*,*,#176,.F.);
#142=ORIENTED_EDGE('',*,*,#181,.F.);
#143=ORIENTED_EDGE('',*,*,#182,.F.);
#144=ORIENTED_EDGE('',*,*,#174,.F.);
#145=ORIENTED_EDGE('',*,*,#178,.T.);
#146=ORIENTED_EDGE('',*,*,#183,.T.);
#147=ORIENTED_EDGE('',*,*,#172,.T.);
#148=ORIENTED_EDGE('',*,*,#184,.T.);
#149=ORIENTED_EDGE('',*,*,#185,.T.);
#150=ORIENTED_EDGE('',*,*,#184,.F.);
#151=ORIENTED_EDGE('',*,*,#175,.F.);
#152=ORIENTED_EDGE('',*,*,#182,.T.);
#153=ORIENTED_EDGE('',*,*,#186,.T.);
#154=ORIENTED_EDGE('',*,*,#185,.F.);
#155=ORIENTED_EDGE('',*,*,#186,.F.);
#156=ORIENTED_EDGE('',*,*,#181,.T.);
#157=ORIENTED_EDGE('',*,*,#179,.T.);
#158=ORIENTED_EDGE('',*,*,#177,.F.);
#159=ORIENTED_EDGE('',*,*,#180,.T.);
#160=ORIENTED_EDGE('',*,*,#173,.F.);
#161=ORIENTED_EDGE('',*,*,#183,.F.);
#162=VERTEX_POINT('',#258);
#163=VERTEX_POINT('',#259);
#164=VERTEX_POINT('',#261);
#165=VERTEX_POINT('',#263);
#166=VERTEX_POINT('',#267);
#167=VERTEX_POINT('',#268);
#168=VERTEX_POINT('',#270);
#169=VERTEX_POINT('',#272);
#170=VERTEX_POINT('',#277);
#171=VERTEX_POINT('',#282);
#172=EDGE_CURVE('',#162,#163,#187,.T.);
#173=EDGE_CURVE('',#162,#164,#188,.T.);
#174=EDGE_CURVE('',#164,#165,#189,.T.);
#175=EDGE_CURVE('',#165,#163,#190,.T.);
#176=EDGE_CURVE('',#166,#167,#191,.T.);
#177=EDGE_CURVE('',#167,#168,#192,.T.);
#178=EDGE_CURVE('',#169,#168,#193,.T.);
#179=EDGE_CURVE('',#166,#169,#194,.T.);
#180=EDGE_CURVE('',#167,#164,#195,.T.);
#181=EDGE_CURVE('',#170,#166,#196,.T.);
#182=EDGE_CURVE('',#165,#170,#197,.T.);
#183=EDGE_CURVE('',#168,#162,#198,.T.);
#184=EDGE_CURVE('',#163,#171,#199,.T.);
#185=EDGE_CURVE('',#171,#169,#200,.T.);
#186=EDGE_CURVE('',#170,#171,#201,.T.);
#187=LINE('',#257,#202);
#188=LINE('',#260,#203);
#189=LINE('',#262,#204);
#190=LINE('',#264,#205);
#191=LINE('',#266,#206);
#192=LINE('',#269,#207);
#193=LINE('',#271,#208);
#194=LINE('',#273,#209);
#195=LINE('',#275,#210);
#196=LINE('',#276,#211);
#197=LINE('',#278,#212);
#198=LINE('',#280,#213);
#199=LINE('',#281,#214);
#200=LINE('',#283,#215);
#201=LINE('',#285,#216);
#202=VECTOR('',#227,1.);
#203=VECTOR('',#228,1.);
#204=VECTOR('',#229,1.);
#205=VECTOR('',#230,1.);
#206=VECTOR('',#233,1.);
#207=VECTOR('',#234,1.);
#208=VECTOR('',#235,1.);
#209=VECTOR('',#236,1.);
#210=VECTOR('',#239,1.);
#211=VECTOR('',#240,1.);
#212=VECTOR('',#241,1.);
#213=VECTOR('',#244,1.);
#214=VECTOR('',#245,1.);
#215=VECTOR('',#246,1.);
#216=VECTOR('',#249,1.);
#217=AXIS2_PLACEMENT_3D('',#256,#225,#226);
#218=AXIS2_PLACEMENT_3D('',#265,#231,#232);
#219=AXIS2_PLACEMENT_3D('',#274,#237,#238);
#220=AXIS2_PLACEMENT_3D('',#279,#242,#243);
#221=AXIS2_PLACEMENT_3D('',#284,#247,#248);
#222=AXIS2_PLACEMENT_3D('',#286,#250,#251);
#223=AXIS2_PLACEMENT_3D('',#287,#252,#253);
#224=AXIS2_PLACEMENT_3D('',#288,#254,#255);
#225=DIRECTION('',(0.,0.,1.));
#226=DIRECTION('',(1.,0.,0.));
#227=DIRECTION('',(0.,0.,1.));
#228=DIRECTION('',(0.,1.,0.));
#229=DIRECTION('',(0.,0.,1.));
#230=DIRECTION('',(0.,-1.,0.));
#231=DIRECTION('',(1.,0.,0.));
#232=DIRECTION('',(0.,0.,-1.));
#233=DIRECTION('',(0.710185375623285,0.,-0.704014724455969));
#234=DIRECTION('',(0.,-1.,0.));
#235=DIRECTION('',(0.710185375623285,0.,-0.704014724455969));
#236=DIRECTION('',(0.,-1.,0.));
#237=DIRECTION('',(-0.704014724455969,0.,-0.710185375623285));
#238=DIRECTION('',(-0.710185375623285,0.,0.704014724455969));
#239=DIRECTION('',(1.,0.,0.));
#240=DIRECTION('',(3.97770945461315E-017,0.,-1.));
#241=DIRECTION('',(-1.,0.,-5.81707229594993E-017));
#242=DIRECTION('',(0.,-1.,0.));
#243=DIRECTION('',(0.,0.,1.));
#244=DIRECTION('',(1.,0.,0.));
#245=DIRECTION('',(-1.,0.,-5.81707229594993E-017));
#246=DIRECTION('',(3.97770945461315E-017,0.,-1.));
#247=DIRECTION('',(0.,-1.,0.));
#248=DIRECTION('',(0.,0.,1.));
#249=DIRECTION('',(0.,-1.,0.));
#250=DIRECTION('',(-5.81707229594993E-017,0.,1.));
#251=DIRECTION('',(1.,0.,5.81707229594993E-017));
#252=DIRECTION('',(-1.,0.,-3.97770945461315E-017));
#253=DIRECTION('',(-3.97770945461315E-017,0.,1.));
#254=DIRECTION('',(0.,0.,-1.));
#255=DIRECTION('',(-1.,0.,0.));
#256=CARTESIAN_POINT('',(0.,0.,0.));
#257=CARTESIAN_POINT('',(9.5,0.,-51.));
#258=CARTESIAN_POINT('',(9.5,0.,-50.5));
#259=CARTESIAN_POINT('',(9.5,0.,0.));
#260=CARTESIAN_POINT('',(9.5,9.5,-50.5));
#261=CARTESIAN_POINT('',(9.5,9.5,-50.5));
#262=CARTESIAN_POINT('',(9.5,9.5,-51.));
#263=CARTESIAN_POINT('',(9.5,9.5,0.));
#264=CARTESIAN_POINT('',(9.5,9.5,0.));
#265=CARTESIAN_POINT('',(9.5,9.5,-51.));
#266=CARTESIAN_POINT('',(1.77635683940025E-015,9.5,-41.5825434993477));
#267=CARTESIAN_POINT('',(2.5422111839423E-015,9.5,-41.5825434993477));
#268=CARTESIAN_POINT('',(8.99561752691176,9.5,-50.5));
#269=CARTESIAN_POINT('',(8.99561752691176,9.5,-50.5));
#270=CARTESIAN_POINT('',(8.99561752691176,0.,-50.5));
#271=CARTESIAN_POINT('',(1.77635683940025E-015,0.,-41.5825434993477));
#272=CARTESIAN_POINT('',(2.5422111839423E-015,0.,-41.5825434993477));
#273=CARTESIAN_POINT('',(2.5422111839423E-015,9.5,-41.5825434993477));
#274=CARTESIAN_POINT('',(1.77635683940025E-015,9.5,-41.5825434993477));
#275=CARTESIAN_POINT('',(9.5,9.5,-50.5));
#276=CARTESIAN_POINT('',(8.88178419700125E-016,9.5,0.));
#277=CARTESIAN_POINT('',(0.,9.5,0.));
#278=CARTESIAN_POINT('',(9.5,9.5,5.52621868115243E-016));
#279=CARTESIAN_POINT('',(9.5,9.5,5.52621868115243E-016));
#280=CARTESIAN_POINT('',(9.5,0.,-50.5));
#281=CARTESIAN_POINT('',(9.5,0.,5.52621868115243E-016));
#282=CARTESIAN_POINT('',(0.,0.,0.));
#283=CARTESIAN_POINT('',(8.88178419700125E-016,0.,0.));
#284=CARTESIAN_POINT('',(9.5,0.,5.52621868115243E-016));
#285=CARTESIAN_POINT('',(0.,9.5,0.));
#286=CARTESIAN_POINT('',(9.5,9.5,5.52621868115243E-016));
#287=CARTESIAN_POINT('',(8.88178419700125E-016,9.5,0.));
#288=CARTESIAN_POINT('',(9.5,4.75,-50.5));
#289=MECHANICAL_DESIGN_GEOMETRIC_PRESENTATION_REPRESENTATION('',(#94),#290);
#290=(
GEOMETRIC_REPRESENTATION_CONTEXT(3)
GLOBAL_UNCERTAINTY_ASSIGNED_CONTEXT((#291))
GLOBAL_UNIT_ASSIGNED_CONTEXT((#297,#293,#292))
REPRESENTATION_CONTEXT('QS_A06HP_M_SIM','TOP_LEVEL_ASSEMBLY_PART')
);
#291=UNCERTAINTY_MEASURE_WITH_UNIT(LENGTH_MEASURE(2.E-005),#297,
'DISTANCE_ACCURACY_VALUE','Maximum Tolerance applied to model');
#292=(
NAMED_UNIT(*)
SI_UNIT($,.STERADIAN.)
SOLID_ANGLE_UNIT()
);
#293=(
CONVERSION_BASED_UNIT('DEGREE',#295)
NAMED_UNIT(#294)
PLANE_ANGLE_UNIT()
);
#294=DIMENSIONAL_EXPONENTS(0.,0.,0.,0.,0.,0.,0.);
#295=PLANE_ANGLE_MEASURE_WITH_UNIT(PLANE_ANGLE_MEASURE(0.0174532925),#296);
#296=(
NAMED_UNIT(*)
PLANE_ANGLE_UNIT()
SI_UNIT($,.RADIAN.)
);
#297=(
LENGTH_UNIT()
NAMED_UNIT(*)
SI_UNIT(.MILLI.,.METRE.)
);
ENDSEC;
END-ISO-10303-21;
