ISO-10303-21;
HEADER;
/* Generated by software containing ST-Developer
 * from STEP Tools, Inc. (www.steptools.com) 
 */
/* OPTION: using custom schema-name function */

FILE_DESCRIPTION(
/* description */ (''),
/* implementation_level */ '2;1');

FILE_NAME(
/* name */ '1493819306246.stp',
/* time_stamp */ '2017-05-03T15:48:30+02:00',
/* author */ (''),
/* organization */ ('SMS'),
/* preprocessor_version */ 'ST-DEVELOPER v15',
/* originating_system */ 'SIEMENS PLM Software NX 8.5',
/* authorisation */ '');

FILE_SCHEMA (('AUTOMOTIVE_DESIGN { 1 0 10303 214 3 1 1 1 }'));
ENDSEC;

DATA;
#10=CONSTRUCTIVE_GEOMETRY_REPRESENTATION_RELATIONSHIP(
'supplemental geometry','',#24,#11);
#11=CONSTRUCTIVE_GEOMETRY_REPRESENTATION('supplemental geometry',(#276,
#277,#278),#468);
#12=SHAPE_REPRESENTATION_RELATIONSHIP('None',
'relationship between 200843127MOD000_02-None and 200843127MOD000_02-N
one',#24,#13);
#13=ADVANCED_BREP_SHAPE_REPRESENTATION('200843127MOD000_02-None',(#30),
#468);
#14=SHAPE_DEFINITION_REPRESENTATION(#15,#24);
#15=PRODUCT_DEFINITION_SHAPE('','',#16);
#16=PRODUCT_DEFINITION(' ','',#18,#17);
#17=PRODUCT_DEFINITION_CONTEXT('part definition',#23,'design');
#18=PRODUCT_DEFINITION_FORMATION_WITH_SPECIFIED_SOURCE(' ',' ',#20,
 .NOT_KNOWN.);
#19=PRODUCT_RELATED_PRODUCT_CATEGORY('part','',(#20));
#20=PRODUCT('200843127MOD000_02','200843127MOD000_02',' ',(#21));
#21=PRODUCT_CONTEXT(' ',#23,'mechanical');
#22=APPLICATION_PROTOCOL_DEFINITION('international standard',
'automotive_design',2010,#23);
#23=APPLICATION_CONTEXT(
'core data for automotive mechanical design processes');
#24=SHAPE_REPRESENTATION('200843127MOD000_02-None',(#275),#468);
#25=SURFACE_STYLE_USAGE(.BOTH.,#26);
#26=SURFACE_SIDE_STYLE('',(#27));
#27=SURFACE_STYLE_FILL_AREA(#28);
#28=FILL_AREA_STYLE('',(#29));
#29=FILL_AREA_STYLE_COLOUR('',#271);
#30=MANIFOLD_SOLID_BREP('',#31);
#31=CLOSED_SHELL('',(#71,#72,#73,#74,#75,#76,#77,#78,#79,#80,#81,#82,#83,
#84,#85,#86,#87,#88,#89));
#32=FACE_OUTER_BOUND('',#132,.T.);
#33=FACE_OUTER_BOUND('',#133,.T.);
#34=FACE_OUTER_BOUND('',#134,.T.);
#35=FACE_OUTER_BOUND('',#135,.T.);
#36=FACE_OUTER_BOUND('',#136,.T.);
#37=FACE_OUTER_BOUND('',#137,.T.);
#38=FACE_OUTER_BOUND('',#138,.T.);
#39=FACE_OUTER_BOUND('',#143,.T.);
#40=CONICAL_SURFACE('',#292,5.63155903752234,2.19999999999997);
#41=CONICAL_SURFACE('',#294,4.55949583781245,6.);
#42=CONICAL_SURFACE('',#304,7.75,60.);
#43=CONICAL_SURFACE('',#313,8.,30.);
#44=PLANE('',#290);
#45=PLANE('',#295);
#46=PLANE('',#296);
#47=PLANE('',#297);
#48=PLANE('',#298);
#49=PLANE('',#299);
#50=PLANE('',#300);
#51=PLANE('',#301);
#52=PLANE('',#302);
#53=PLANE('',#308);
#54=PLANE('',#312);
#55=LINE('',#412,#63);
#56=LINE('',#416,#64);
#57=LINE('',#417,#65);
#58=LINE('',#422,#66);
#59=LINE('',#441,#67);
#60=LINE('',#443,#68);
#61=LINE('',#446,#69);
#62=LINE('',#448,#70);
#63=VECTOR('',#330,1.);
#64=VECTOR('',#333,1.);
#65=VECTOR('',#334,1.);
#66=VECTOR('',#337,1.);
#67=VECTOR('',#362,1.);
#68=VECTOR('',#365,1.);
#69=VECTOR('',#370,1.);
#70=VECTOR('',#373,1.);
#71=ADVANCED_FACE('',(#94,#95),#90,.T.);
#72=ADVANCED_FACE('CU_SU1',(#96,#97,#98,#99),#91,.T.);
#73=ADVANCED_FACE('',(#100,#101),#44,.F.);
#74=ADVANCED_FACE('',(#102,#103),#40,.T.);
#75=ADVANCED_FACE('',(#104,#105),#41,.T.);
#76=ADVANCED_FACE('',(#106,#107),#45,.F.);
#77=ADVANCED_FACE('',(#32),#46,.F.);
#78=ADVANCED_FACE('',(#33),#47,.T.);
#79=ADVANCED_FACE('CU_SU3',(#34),#48,.T.);
#80=ADVANCED_FACE('',(#35),#49,.T.);
#81=ADVANCED_FACE('',(#36),#50,.T.);
#82=ADVANCED_FACE('CU_SU4',(#37),#51,.T.);
#83=ADVANCED_FACE('',(#38),#52,.T.);
#84=ADVANCED_FACE('',(#108,#109),#42,.T.);
#85=ADVANCED_FACE('',(#110,#111),#92,.T.);
#86=ADVANCED_FACE('',(#39),#53,.T.);
#87=ADVANCED_FACE('',(#112,#113),#93,.T.);
#88=ADVANCED_FACE('',(#114,#115),#54,.T.);
#89=ADVANCED_FACE('',(#116,#117),#43,.T.);
#90=CYLINDRICAL_SURFACE('',#281,3.5);
#91=CYLINDRICAL_SURFACE('',#288,7.75);
#92=CYLINDRICAL_SURFACE('',#306,6.5);
#93=CYLINDRICAL_SURFACE('',#311,8.);
#94=FACE_BOUND('',#118,.T.);
#95=FACE_BOUND('',#119,.T.);
#96=FACE_BOUND('',#120,.T.);
#97=FACE_BOUND('',#121,.T.);
#98=FACE_BOUND('',#122,.T.);
#99=FACE_BOUND('',#123,.T.);
#100=FACE_BOUND('',#124,.T.);
#101=FACE_BOUND('',#125,.T.);
#102=FACE_BOUND('',#126,.T.);
#103=FACE_BOUND('',#127,.T.);
#104=FACE_BOUND('',#128,.T.);
#105=FACE_BOUND('',#129,.T.);
#106=FACE_BOUND('',#130,.T.);
#107=FACE_BOUND('',#131,.T.);
#108=FACE_BOUND('',#139,.T.);
#109=FACE_BOUND('',#140,.T.);
#110=FACE_BOUND('',#141,.T.);
#111=FACE_BOUND('',#142,.T.);
#112=FACE_BOUND('',#144,.T.);
#113=FACE_BOUND('',#145,.T.);
#114=FACE_BOUND('',#146,.T.);
#115=FACE_BOUND('',#147,.T.);
#116=FACE_BOUND('',#148,.T.);
#117=FACE_BOUND('',#149,.T.);
#118=EDGE_LOOP('',(#150));
#119=EDGE_LOOP('',(#151));
#120=EDGE_LOOP('',(#152,#153,#154,#155));
#121=EDGE_LOOP('',(#156,#157,#158,#159));
#122=EDGE_LOOP('',(#160));
#123=EDGE_LOOP('',(#161));
#124=EDGE_LOOP('',(#162));
#125=EDGE_LOOP('',(#163));
#126=EDGE_LOOP('',(#164));
#127=EDGE_LOOP('',(#165));
#128=EDGE_LOOP('',(#166));
#129=EDGE_LOOP('',(#167));
#130=EDGE_LOOP('',(#168));
#131=EDGE_LOOP('',(#169));
#132=EDGE_LOOP('',(#170));
#133=EDGE_LOOP('',(#171,#172));
#134=EDGE_LOOP('',(#173,#174,#175,#176));
#135=EDGE_LOOP('',(#177,#178));
#136=EDGE_LOOP('',(#179,#180));
#137=EDGE_LOOP('',(#181,#182,#183,#184));
#138=EDGE_LOOP('',(#185,#186));
#139=EDGE_LOOP('',(#187));
#140=EDGE_LOOP('',(#188));
#141=EDGE_LOOP('',(#189));
#142=EDGE_LOOP('',(#190));
#143=EDGE_LOOP('',(#191));
#144=EDGE_LOOP('',(#192));
#145=EDGE_LOOP('',(#193));
#146=EDGE_LOOP('',(#194));
#147=EDGE_LOOP('',(#195));
#148=EDGE_LOOP('',(#196));
#149=EDGE_LOOP('',(#197));
#150=ORIENTED_EDGE('',*,*,#218,.F.);
#151=ORIENTED_EDGE('',*,*,#219,.T.);
#152=ORIENTED_EDGE('',*,*,#220,.F.);
#153=ORIENTED_EDGE('',*,*,#221,.F.);
#154=ORIENTED_EDGE('',*,*,#222,.F.);
#155=ORIENTED_EDGE('',*,*,#223,.F.);
#156=ORIENTED_EDGE('',*,*,#224,.F.);
#157=ORIENTED_EDGE('',*,*,#225,.F.);
#158=ORIENTED_EDGE('',*,*,#226,.F.);
#159=ORIENTED_EDGE('',*,*,#227,.F.);
#160=ORIENTED_EDGE('',*,*,#228,.F.);
#161=ORIENTED_EDGE('',*,*,#229,.T.);
#162=ORIENTED_EDGE('',*,*,#230,.T.);
#163=ORIENTED_EDGE('',*,*,#229,.F.);
#164=ORIENTED_EDGE('',*,*,#230,.F.);
#165=ORIENTED_EDGE('',*,*,#231,.T.);
#166=ORIENTED_EDGE('',*,*,#231,.F.);
#167=ORIENTED_EDGE('',*,*,#232,.T.);
#168=ORIENTED_EDGE('',*,*,#218,.T.);
#169=ORIENTED_EDGE('',*,*,#232,.F.);
#170=ORIENTED_EDGE('',*,*,#219,.F.);
#171=ORIENTED_EDGE('',*,*,#225,.T.);
#172=ORIENTED_EDGE('',*,*,#233,.F.);
#173=ORIENTED_EDGE('',*,*,#226,.T.);
#174=ORIENTED_EDGE('',*,*,#233,.T.);
#175=ORIENTED_EDGE('',*,*,#224,.T.);
#176=ORIENTED_EDGE('',*,*,#234,.F.);
#177=ORIENTED_EDGE('',*,*,#227,.T.);
#178=ORIENTED_EDGE('',*,*,#234,.T.);
#179=ORIENTED_EDGE('',*,*,#220,.T.);
#180=ORIENTED_EDGE('',*,*,#235,.F.);
#181=ORIENTED_EDGE('',*,*,#221,.T.);
#182=ORIENTED_EDGE('',*,*,#235,.T.);
#183=ORIENTED_EDGE('',*,*,#223,.T.);
#184=ORIENTED_EDGE('',*,*,#236,.F.);
#185=ORIENTED_EDGE('',*,*,#222,.T.);
#186=ORIENTED_EDGE('',*,*,#236,.T.);
#187=ORIENTED_EDGE('',*,*,#237,.T.);
#188=ORIENTED_EDGE('',*,*,#228,.T.);
#189=ORIENTED_EDGE('',*,*,#238,.F.);
#190=ORIENTED_EDGE('',*,*,#237,.F.);
#191=ORIENTED_EDGE('',*,*,#239,.T.);
#192=ORIENTED_EDGE('',*,*,#240,.T.);
#193=ORIENTED_EDGE('',*,*,#241,.T.);
#194=ORIENTED_EDGE('',*,*,#238,.T.);
#195=ORIENTED_EDGE('',*,*,#241,.F.);
#196=ORIENTED_EDGE('',*,*,#239,.F.);
#197=ORIENTED_EDGE('',*,*,#240,.F.);
#198=VERTEX_POINT('',#405);
#199=VERTEX_POINT('',#407);
#200=VERTEX_POINT('',#410);
#201=VERTEX_POINT('',#411);
#202=VERTEX_POINT('',#413);
#203=VERTEX_POINT('',#415);
#204=VERTEX_POINT('',#418);
#205=VERTEX_POINT('',#419);
#206=VERTEX_POINT('',#421);
#207=VERTEX_POINT('',#423);
#208=VERTEX_POINT('',#426);
#209=VERTEX_POINT('',#428);
#210=VERTEX_POINT('',#431);
#211=VERTEX_POINT('',#434);
#212=VERTEX_POINT('',#437);
#213=VERTEX_POINT('',#452);
#214=VERTEX_POINT('',#455);
#215=VERTEX_POINT('',#458);
#216=VERTEX_POINT('',#461);
#217=VERTEX_POINT('',#463);
#218=EDGE_CURVE('',#198,#198,#242,.T.);
#219=EDGE_CURVE('',#199,#199,#243,.T.);
#220=EDGE_CURVE('',#200,#201,#244,.T.);
#221=EDGE_CURVE('',#202,#200,#55,.T.);
#222=EDGE_CURVE('',#203,#202,#245,.T.);
#223=EDGE_CURVE('',#201,#203,#56,.T.);
#224=EDGE_CURVE('',#204,#205,#57,.T.);
#225=EDGE_CURVE('',#206,#204,#246,.T.);
#226=EDGE_CURVE('',#207,#206,#58,.T.);
#227=EDGE_CURVE('',#205,#207,#247,.T.);
#228=EDGE_CURVE('',#208,#208,#248,.T.);
#229=EDGE_CURVE('',#209,#209,#249,.T.);
#230=EDGE_CURVE('',#210,#210,#250,.T.);
#231=EDGE_CURVE('',#211,#211,#251,.T.);
#232=EDGE_CURVE('',#212,#212,#252,.T.);
#233=EDGE_CURVE('',#206,#204,#59,.T.);
#234=EDGE_CURVE('',#207,#205,#60,.T.);
#235=EDGE_CURVE('',#200,#201,#61,.T.);
#236=EDGE_CURVE('',#202,#203,#62,.T.);
#237=EDGE_CURVE('',#213,#213,#253,.T.);
#238=EDGE_CURVE('',#214,#214,#254,.T.);
#239=EDGE_CURVE('',#215,#215,#255,.T.);
#240=EDGE_CURVE('',#216,#216,#256,.T.);
#241=EDGE_CURVE('',#217,#217,#257,.T.);
#242=CIRCLE('',#279,3.5);
#243=CIRCLE('',#280,3.5);
#244=CIRCLE('',#282,7.75);
#245=CIRCLE('',#283,7.75);
#246=CIRCLE('',#284,7.75);
#247=CIRCLE('',#285,7.75);
#248=CIRCLE('',#286,7.75);
#249=CIRCLE('',#287,7.75);
#250=CIRCLE('',#289,5.73912418747422);
#251=CIRCLE('',#291,5.63155903752234);
#252=CIRCLE('',#293,4.55949583781245);
#253=CIRCLE('',#303,6.5);
#254=CIRCLE('',#305,6.5);
#255=CIRCLE('',#307,7.59585481156726);
#256=CIRCLE('',#309,8.);
#257=CIRCLE('',#310,8.);
#258=PRESENTATION_LAYER_ASSIGNMENT('1','Layer 1',(#276,#277,#278,#30));
#259=STYLED_ITEM('',(#263),#276);
#260=STYLED_ITEM('',(#264),#277);
#261=STYLED_ITEM('',(#265),#278);
#262=STYLED_ITEM('',(#266),#30);
#263=PRESENTATION_STYLE_ASSIGNMENT((#267));
#264=PRESENTATION_STYLE_ASSIGNMENT((#268));
#265=PRESENTATION_STYLE_ASSIGNMENT((#269));
#266=PRESENTATION_STYLE_ASSIGNMENT((#25));
#267=CURVE_STYLE('',#272,POSITIVE_LENGTH_MEASURE(0.13),#270);
#268=CURVE_STYLE('',#273,POSITIVE_LENGTH_MEASURE(0.13),#270);
#269=CURVE_STYLE('',#274,POSITIVE_LENGTH_MEASURE(0.13),#270);
#270=COLOUR_RGB('Strong Emerald',0.,0.803921568627451,0.525490196078431);
#271=COLOUR_RGB('TLS_NOCUT',0.499992370489052,0.499992370489052,0.499992370489052);
#272=DRAUGHTING_PRE_DEFINED_CURVE_FONT('continuous');
#273=DRAUGHTING_PRE_DEFINED_CURVE_FONT('continuous');
#274=DRAUGHTING_PRE_DEFINED_CURVE_FONT('continuous');
#275=AXIS2_PLACEMENT_3D('',#400,#314,#315);
#276=AXIS2_PLACEMENT_3D('PCS',#401,#316,#317);
#277=AXIS2_PLACEMENT_3D('MCS',#402,#318,#319);
#278=AXIS2_PLACEMENT_3D('CSW',#403,#320,#321);
#279=AXIS2_PLACEMENT_3D('',#404,#322,#323);
#280=AXIS2_PLACEMENT_3D('',#406,#324,#325);
#281=AXIS2_PLACEMENT_3D('',#408,#326,#327);
#282=AXIS2_PLACEMENT_3D('',#409,#328,#329);
#283=AXIS2_PLACEMENT_3D('',#414,#331,#332);
#284=AXIS2_PLACEMENT_3D('',#420,#335,#336);
#285=AXIS2_PLACEMENT_3D('',#424,#338,#339);
#286=AXIS2_PLACEMENT_3D('',#425,#340,#341);
#287=AXIS2_PLACEMENT_3D('',#427,#342,#343);
#288=AXIS2_PLACEMENT_3D('',#429,#344,#345);
#289=AXIS2_PLACEMENT_3D('',#430,#346,#347);
#290=AXIS2_PLACEMENT_3D('',#432,#348,#349);
#291=AXIS2_PLACEMENT_3D('',#433,#350,#351);
#292=AXIS2_PLACEMENT_3D('',#435,#352,#353);
#293=AXIS2_PLACEMENT_3D('',#436,#354,#355);
#294=AXIS2_PLACEMENT_3D('',#438,#356,#357);
#295=AXIS2_PLACEMENT_3D('',#439,#358,#359);
#296=AXIS2_PLACEMENT_3D('',#440,#360,#361);
#297=AXIS2_PLACEMENT_3D('',#442,#363,#364);
#298=AXIS2_PLACEMENT_3D('',#444,#366,#367);
#299=AXIS2_PLACEMENT_3D('',#445,#368,#369);
#300=AXIS2_PLACEMENT_3D('',#447,#371,#372);
#301=AXIS2_PLACEMENT_3D('',#449,#374,#375);
#302=AXIS2_PLACEMENT_3D('',#450,#376,#377);
#303=AXIS2_PLACEMENT_3D('',#451,#378,#379);
#304=AXIS2_PLACEMENT_3D('',#453,#380,#381);
#305=AXIS2_PLACEMENT_3D('',#454,#382,#383);
#306=AXIS2_PLACEMENT_3D('',#456,#384,#385);
#307=AXIS2_PLACEMENT_3D('',#457,#386,#387);
#308=AXIS2_PLACEMENT_3D('',#459,#388,#389);
#309=AXIS2_PLACEMENT_3D('',#460,#390,#391);
#310=AXIS2_PLACEMENT_3D('',#462,#392,#393);
#311=AXIS2_PLACEMENT_3D('',#464,#394,#395);
#312=AXIS2_PLACEMENT_3D('',#465,#396,#397);
#313=AXIS2_PLACEMENT_3D('',#466,#398,#399);
#314=DIRECTION('',(0.,0.,1.));
#315=DIRECTION('',(1.,0.,0.));
#316=DIRECTION('',(0.,0.,1.));
#317=DIRECTION('',(1.,0.,0.));
#318=DIRECTION('',(0.,0.,1.));
#319=DIRECTION('',(1.,0.,0.));
#320=DIRECTION('',(0.,0.,1.));
#321=DIRECTION('',(1.,0.,0.));
#322=DIRECTION('',(0.,0.,-1.));
#323=DIRECTION('',(-1.,0.,0.));
#324=DIRECTION('',(0.,0.,-1.));
#325=DIRECTION('',(-1.,0.,0.));
#326=DIRECTION('',(0.,0.,-1.));
#327=DIRECTION('',(1.,0.,0.));
#328=DIRECTION('',(0.,0.,1.));
#329=DIRECTION('',(-1.,0.,0.));
#330=DIRECTION('',(0.,0.,-1.));
#331=DIRECTION('',(0.,-1.0842021724855E-016,-1.));
#332=DIRECTION('',(0.,1.,-1.11917643611407E-016));
#333=DIRECTION('',(0.,0.,1.));
#334=DIRECTION('',(0.,0.,1.));
#335=DIRECTION('',(0.,0.,1.));
#336=DIRECTION('',(-1.,0.,0.));
#337=DIRECTION('',(0.,0.,-1.));
#338=DIRECTION('',(0.,1.0842021724855E-016,-1.));
#339=DIRECTION('',(0.,1.,1.11917643611407E-016));
#340=DIRECTION('',(0.,0.,-1.));
#341=DIRECTION('',(1.,0.,0.));
#342=DIRECTION('',(0.,0.,-1.));
#343=DIRECTION('',(1.,0.,0.));
#344=DIRECTION('',(0.,0.,-1.));
#345=DIRECTION('',(1.,0.,0.));
#346=DIRECTION('',(0.,0.,-1.));
#347=DIRECTION('',(-1.,0.,0.));
#348=DIRECTION('',(0.,0.,-1.));
#349=DIRECTION('',(1.,0.,0.));
#350=DIRECTION('',(0.,0.,-1.));
#351=DIRECTION('',(1.,0.,0.));
#352=DIRECTION('',(0.,0.,-1.));
#353=DIRECTION('',(1.,0.,-3.44599965977552E-016));
#354=DIRECTION('',(0.,0.,-1.));
#355=DIRECTION('',(1.,0.,0.));
#356=DIRECTION('',(0.,0.,-1.));
#357=DIRECTION('',(1.,0.,1.1072999440789E-016));
#358=DIRECTION('',(0.,0.,-1.));
#359=DIRECTION('',(1.,0.,0.));
#360=DIRECTION('',(0.,0.,-1.));
#361=DIRECTION('',(1.,0.,0.));
#362=DIRECTION('',(1.,0.,0.));
#363=DIRECTION('',(0.,0.,1.));
#364=DIRECTION('',(-1.,0.,0.));
#365=DIRECTION('',(1.,0.,0.));
#366=DIRECTION('',(0.,-1.,0.));
#367=DIRECTION('',(0.,0.,-1.));
#368=DIRECTION('',(0.,1.0842021724855E-016,-1.));
#369=DIRECTION('',(0.,1.,1.0842021724855E-016));
#370=DIRECTION('',(-1.,0.,0.));
#371=DIRECTION('',(0.,0.,1.));
#372=DIRECTION('',(-1.,0.,0.));
#373=DIRECTION('',(-1.,0.,0.));
#374=DIRECTION('',(0.,1.,0.));
#375=DIRECTION('',(0.,0.,-1.));
#376=DIRECTION('',(0.,-1.0842021724855E-016,-1.));
#377=DIRECTION('',(0.,-1.,1.0842021724855E-016));
#378=DIRECTION('',(0.,0.,1.));
#379=DIRECTION('',(-1.,0.,0.));
#380=DIRECTION('',(0.,0.,1.));
#381=DIRECTION('',(-1.,0.,-2.39299598220213E-017));
#382=DIRECTION('',(0.,0.,-1.));
#383=DIRECTION('',(1.,0.,0.));
#384=DIRECTION('',(0.,0.,1.));
#385=DIRECTION('',(-1.,0.,0.));
#386=DIRECTION('',(0.,0.,-1.));
#387=DIRECTION('',(0.5,0.866025403784439,0.));
#388=DIRECTION('',(0.,0.,-1.));
#389=DIRECTION('',(0.5,0.866025403784439,0.));
#390=DIRECTION('',(0.,0.,1.));
#391=DIRECTION('',(0.5,0.866025403784439,0.));
#392=DIRECTION('',(0.,0.,-1.));
#393=DIRECTION('',(1.,0.,0.));
#394=DIRECTION('',(0.,0.,1.));
#395=DIRECTION('',(-0.5,-0.866025403784439,0.));
#396=DIRECTION('',(0.,0.,1.));
#397=DIRECTION('',(-0.5,-0.866025403784439,0.));
#398=DIRECTION('',(0.,0.,1.));
#399=DIRECTION('',(-0.5,-0.866025403784439,1.77813890309992E-017));
#400=CARTESIAN_POINT('',(0.,0.,0.));
#401=CARTESIAN_POINT('',(0.,0.,0.));
#402=CARTESIAN_POINT('',(0.,0.,0.));
#403=CARTESIAN_POINT('',(0.,0.,-20.5));
#404=CARTESIAN_POINT('',(0.,0.,13.));
#405=CARTESIAN_POINT('',(-3.5,0.,13.));
#406=CARTESIAN_POINT('',(0.,0.,17.));
#407=CARTESIAN_POINT('',(-3.5,0.,17.));
#408=CARTESIAN_POINT('',(0.,0.,66.0749858115762));
#409=CARTESIAN_POINT('',(0.,0.,-7.1));
#410=CARTESIAN_POINT('',(4.90535421758716,6.,-7.1));
#411=CARTESIAN_POINT('',(-4.90535421758716,6.,-7.1));
#412=CARTESIAN_POINT('',(4.90535421758715,6.,66.0749858115762));
#413=CARTESIAN_POINT('',(4.90535421758716,6.,-1.6));
#414=CARTESIAN_POINT('',(0.,0.,-1.6));
#415=CARTESIAN_POINT('',(-4.90535421758716,6.,-1.6));
#416=CARTESIAN_POINT('',(-4.90535421758715,6.,66.0749858115762));
#417=CARTESIAN_POINT('',(4.90535421758715,-6.,66.0749858115762));
#418=CARTESIAN_POINT('',(4.90535421758716,-6.,-7.1));
#419=CARTESIAN_POINT('',(4.90535421758716,-6.,-1.6));
#420=CARTESIAN_POINT('',(0.,0.,-7.1));
#421=CARTESIAN_POINT('',(-4.90535421758716,-6.,-7.1));
#422=CARTESIAN_POINT('',(-4.90535421758715,-6.,66.0749858115762));
#423=CARTESIAN_POINT('',(-4.90535421758716,-6.,-1.6));
#424=CARTESIAN_POINT('',(0.,0.,-1.6));
#425=CARTESIAN_POINT('',(0.,0.,-8.7));
#426=CARTESIAN_POINT('',(7.75,0.,-8.7));
#427=CARTESIAN_POINT('',(0.,0.,0.));
#428=CARTESIAN_POINT('',(7.75,0.,0.));
#429=CARTESIAN_POINT('',(0.,0.,66.0749858115762));
#430=CARTESIAN_POINT('',(0.,0.,0.));
#431=CARTESIAN_POINT('',(-5.73912418747422,0.,0.));
#432=CARTESIAN_POINT('',(5.73912418747422,0.,-1.54154983774457E-016));
#433=CARTESIAN_POINT('',(0.,0.,2.80000000000004));
#434=CARTESIAN_POINT('',(5.63155903752234,0.,2.80000000000004));
#435=CARTESIAN_POINT('',(0.,0.,2.80000000000004));
#436=CARTESIAN_POINT('',(0.,0.,13.));
#437=CARTESIAN_POINT('',(4.55949583781245,0.,13.));
#438=CARTESIAN_POINT('',(0.,0.,13.));
#439=CARTESIAN_POINT('',(3.5,0.,13.));
#440=CARTESIAN_POINT('',(0.,0.,17.));
#441=CARTESIAN_POINT('',(10.,-6.,-7.1));
#442=CARTESIAN_POINT('',(10.,-10.,-7.1));
#443=CARTESIAN_POINT('',(10.,-6.,-1.6));
#444=CARTESIAN_POINT('',(10.,-6.,-7.1));
#445=CARTESIAN_POINT('',(10.,-6.,-1.6));
#446=CARTESIAN_POINT('',(10.,6.,-7.1));
#447=CARTESIAN_POINT('',(10.,10.,-7.1));
#448=CARTESIAN_POINT('',(10.,6.,-1.6));
#449=CARTESIAN_POINT('',(10.,6.,-7.1));
#450=CARTESIAN_POINT('',(10.,6.,-1.6));
#451=CARTESIAN_POINT('',(1.77635683940025E-015,0.,-9.42168783648704));
#452=CARTESIAN_POINT('',(-6.5,0.,-9.42168783648704));
#453=CARTESIAN_POINT('',(1.77635683940025E-015,0.,-8.7));
#454=CARTESIAN_POINT('',(1.77635683940025E-015,0.,-16.));
#455=CARTESIAN_POINT('',(6.5,0.,-16.));
#456=CARTESIAN_POINT('',(1.77635683940025E-015,0.,-8.7));
#457=CARTESIAN_POINT('',(1.77635683940025E-015,0.,-28.));
#458=CARTESIAN_POINT('',(3.79792740578363,6.57820323027551,-28.));
#459=CARTESIAN_POINT('',(1.77635683940025E-015,0.,-28.));
#460=CARTESIAN_POINT('',(1.77635683940025E-015,0.,-27.3));
#461=CARTESIAN_POINT('',(4.,6.92820323027551,-27.3));
#462=CARTESIAN_POINT('',(1.77635683940025E-015,0.,-16.));
#463=CARTESIAN_POINT('',(8.,0.,-16.));
#464=CARTESIAN_POINT('',(1.77635683940025E-015,0.,-28.));
#465=CARTESIAN_POINT('',(1.77635683940025E-015,0.,-16.));
#466=CARTESIAN_POINT('',(1.77635683940025E-015,0.,-27.3));
#467=MECHANICAL_DESIGN_GEOMETRIC_PRESENTATION_REPRESENTATION('',(#259,#260,
#261,#262),#468);
#468=(
GEOMETRIC_REPRESENTATION_CONTEXT(3)
GLOBAL_UNCERTAINTY_ASSIGNED_CONTEXT((#469))
GLOBAL_UNIT_ASSIGNED_CONTEXT((#475,#471,#470))
REPRESENTATION_CONTEXT('1493819306246','TOP_LEVEL_ASSEMBLY_PART')
);
#469=UNCERTAINTY_MEASURE_WITH_UNIT(LENGTH_MEASURE(2.E-005),#475,
'DISTANCE_ACCURACY_VALUE','Maximum Tolerance applied to model');
#470=(
NAMED_UNIT(*)
SI_UNIT($,.STERADIAN.)
SOLID_ANGLE_UNIT()
);
#471=(
CONVERSION_BASED_UNIT('DEGREE',#473)
NAMED_UNIT(#472)
PLANE_ANGLE_UNIT()
);
#472=DIMENSIONAL_EXPONENTS(0.,0.,0.,0.,0.,0.,0.);
#473=PLANE_ANGLE_MEASURE_WITH_UNIT(PLANE_ANGLE_MEASURE(0.0174532925),#474);
#474=(
NAMED_UNIT(*)
PLANE_ANGLE_UNIT()
SI_UNIT($,.RADIAN.)
);
#475=(
LENGTH_UNIT()
NAMED_UNIT(*)
SI_UNIT(.MILLI.,.METRE.)
);
ENDSEC;
END-ISO-10303-21;
