ISO-10303-21;
HEADER;
/* Generated by software containing ST-Developer
 * from STEP Tools, Inc. (www.steptools.com) 
 */
/* OPTION: using custom schema-name function */

FILE_DESCRIPTION(
/* description */ (''),
/* implementation_level */ '2;1');

FILE_NAME(
/* name */ '1493819230453.stp',
/* time_stamp */ '2017-05-03T15:47:15+02:00',
/* author */ (''),
/* organization */ ('SMS'),
/* preprocessor_version */ 'ST-DEVELOPER v15',
/* originating_system */ 'SIEMENS PLM Software NX 8.5',
/* authorisation */ '');

FILE_SCHEMA (('AUTOMOTIVE_DESIGN { 1 0 10303 214 3 1 1 1 }'));
ENDSEC;

DATA;
#10=CONSTRUCTIVE_GEOMETRY_REPRESENTATION_RELATIONSHIP(
'supplemental geometry','',#24,#11);
#11=CONSTRUCTIVE_GEOMETRY_REPRESENTATION('supplemental geometry',(#276,
#277,#278),#468);
#12=SHAPE_REPRESENTATION_RELATIONSHIP('None',
'relationship between 200843126MOD000_02-None and 200843126MOD000_02-N
one',#24,#13);
#13=ADVANCED_BREP_SHAPE_REPRESENTATION('200843126MOD000_02-None',(#30),
#468);
#14=SHAPE_DEFINITION_REPRESENTATION(#15,#24);
#15=PRODUCT_DEFINITION_SHAPE('','',#16);
#16=PRODUCT_DEFINITION(' ','',#18,#17);
#17=PRODUCT_DEFINITION_CONTEXT('part definition',#23,'design');
#18=PRODUCT_DEFINITION_FORMATION_WITH_SPECIFIED_SOURCE(' ',' ',#20,
 .NOT_KNOWN.);
#19=PRODUCT_RELATED_PRODUCT_CATEGORY('part','',(#20));
#20=PRODUCT('200843126MOD000_02','200843126MOD000_02',' ',(#21));
#21=PRODUCT_CONTEXT(' ',#23,'mechanical');
#22=APPLICATION_PROTOCOL_DEFINITION('international standard',
'automotive_design',2010,#23);
#23=APPLICATION_CONTEXT(
'core data for automotive mechanical design processes');
#24=SHAPE_REPRESENTATION('200843126MOD000_02-None',(#275),#468);
#25=SURFACE_STYLE_USAGE(.BOTH.,#26);
#26=SURFACE_SIDE_STYLE('',(#27));
#27=SURFACE_STYLE_FILL_AREA(#28);
#28=FILL_AREA_STYLE('',(#29));
#29=FILL_AREA_STYLE_COLOUR('',#271);
#30=MANIFOLD_SOLID_BREP('',#31);
#31=CLOSED_SHELL('',(#71,#72,#73,#74,#75,#76,#77,#78,#79,#80,#81,#82,#83,
#84,#85,#86,#87,#88,#89));
#32=LINE('',#421,#40);
#33=LINE('',#425,#41);
#34=LINE('',#426,#42);
#35=LINE('',#431,#43);
#36=LINE('',#450,#44);
#37=LINE('',#452,#45);
#38=LINE('',#455,#46);
#39=LINE('',#457,#47);
#40=VECTOR('',#342,1.);
#41=VECTOR('',#345,1.);
#42=VECTOR('',#346,1.);
#43=VECTOR('',#349,1.);
#44=VECTOR('',#374,1.);
#45=VECTOR('',#377,1.);
#46=VECTOR('',#382,1.);
#47=VECTOR('',#385,1.);
#48=CONICAL_SURFACE('',#284,6.,30.);
#49=CONICAL_SURFACE('',#298,4.51887581252578,2.19999999999997);
#50=CONICAL_SURFACE('',#300,3.75161489508635,6.);
#51=CONICAL_SURFACE('',#310,5.85,60.);
#52=PLANE('',#283);
#53=PLANE('',#296);
#54=PLANE('',#301);
#55=PLANE('',#302);
#56=PLANE('',#303);
#57=PLANE('',#304);
#58=PLANE('',#305);
#59=PLANE('',#306);
#60=PLANE('',#307);
#61=PLANE('',#308);
#62=PLANE('',#313);
#63=FACE_OUTER_BOUND('',#120,.T.);
#64=FACE_OUTER_BOUND('',#137,.T.);
#65=FACE_OUTER_BOUND('',#138,.T.);
#66=FACE_OUTER_BOUND('',#139,.T.);
#67=FACE_OUTER_BOUND('',#140,.T.);
#68=FACE_OUTER_BOUND('',#141,.T.);
#69=FACE_OUTER_BOUND('',#142,.T.);
#70=FACE_OUTER_BOUND('',#143,.T.);
#71=ADVANCED_FACE('',(#94,#95),#90,.T.);
#72=ADVANCED_FACE('',(#63),#52,.T.);
#73=ADVANCED_FACE('',(#96,#97),#48,.T.);
#74=ADVANCED_FACE('',(#98,#99),#91,.T.);
#75=ADVANCED_FACE('CU_SU1',(#100,#101,#102,#103),#92,.T.);
#76=ADVANCED_FACE('',(#104,#105),#53,.F.);
#77=ADVANCED_FACE('',(#106,#107),#49,.T.);
#78=ADVANCED_FACE('',(#108,#109),#50,.T.);
#79=ADVANCED_FACE('',(#110,#111),#54,.F.);
#80=ADVANCED_FACE('',(#64),#55,.F.);
#81=ADVANCED_FACE('',(#65),#56,.T.);
#82=ADVANCED_FACE('CU_SU3',(#66),#57,.T.);
#83=ADVANCED_FACE('',(#67),#58,.T.);
#84=ADVANCED_FACE('',(#68),#59,.T.);
#85=ADVANCED_FACE('CU_SU4',(#69),#60,.T.);
#86=ADVANCED_FACE('',(#70),#61,.T.);
#87=ADVANCED_FACE('',(#112,#113),#51,.T.);
#88=ADVANCED_FACE('',(#114,#115),#93,.T.);
#89=ADVANCED_FACE('',(#116,#117),#62,.T.);
#90=CYLINDRICAL_SURFACE('',#281,6.);
#91=CYLINDRICAL_SURFACE('',#287,2.75);
#92=CYLINDRICAL_SURFACE('',#294,5.85);
#93=CYLINDRICAL_SURFACE('',#312,5.);
#94=FACE_BOUND('',#118,.T.);
#95=FACE_BOUND('',#119,.T.);
#96=FACE_BOUND('',#121,.T.);
#97=FACE_BOUND('',#122,.T.);
#98=FACE_BOUND('',#123,.T.);
#99=FACE_BOUND('',#124,.T.);
#100=FACE_BOUND('',#125,.T.);
#101=FACE_BOUND('',#126,.T.);
#102=FACE_BOUND('',#127,.T.);
#103=FACE_BOUND('',#128,.T.);
#104=FACE_BOUND('',#129,.T.);
#105=FACE_BOUND('',#130,.T.);
#106=FACE_BOUND('',#131,.T.);
#107=FACE_BOUND('',#132,.T.);
#108=FACE_BOUND('',#133,.T.);
#109=FACE_BOUND('',#134,.T.);
#110=FACE_BOUND('',#135,.T.);
#111=FACE_BOUND('',#136,.T.);
#112=FACE_BOUND('',#144,.T.);
#113=FACE_BOUND('',#145,.T.);
#114=FACE_BOUND('',#146,.T.);
#115=FACE_BOUND('',#147,.T.);
#116=FACE_BOUND('',#148,.T.);
#117=FACE_BOUND('',#149,.T.);
#118=EDGE_LOOP('',(#150));
#119=EDGE_LOOP('',(#151));
#120=EDGE_LOOP('',(#152));
#121=EDGE_LOOP('',(#153));
#122=EDGE_LOOP('',(#154));
#123=EDGE_LOOP('',(#155));
#124=EDGE_LOOP('',(#156));
#125=EDGE_LOOP('',(#157,#158,#159,#160));
#126=EDGE_LOOP('',(#161,#162,#163,#164));
#127=EDGE_LOOP('',(#165));
#128=EDGE_LOOP('',(#166));
#129=EDGE_LOOP('',(#167));
#130=EDGE_LOOP('',(#168));
#131=EDGE_LOOP('',(#169));
#132=EDGE_LOOP('',(#170));
#133=EDGE_LOOP('',(#171));
#134=EDGE_LOOP('',(#172));
#135=EDGE_LOOP('',(#173));
#136=EDGE_LOOP('',(#174));
#137=EDGE_LOOP('',(#175));
#138=EDGE_LOOP('',(#176,#177));
#139=EDGE_LOOP('',(#178,#179,#180,#181));
#140=EDGE_LOOP('',(#182,#183));
#141=EDGE_LOOP('',(#184,#185));
#142=EDGE_LOOP('',(#186,#187,#188,#189));
#143=EDGE_LOOP('',(#190,#191));
#144=EDGE_LOOP('',(#192));
#145=EDGE_LOOP('',(#193));
#146=EDGE_LOOP('',(#194));
#147=EDGE_LOOP('',(#195));
#148=EDGE_LOOP('',(#196));
#149=EDGE_LOOP('',(#197));
#150=ORIENTED_EDGE('',*,*,#218,.T.);
#151=ORIENTED_EDGE('',*,*,#219,.T.);
#152=ORIENTED_EDGE('',*,*,#220,.T.);
#153=ORIENTED_EDGE('',*,*,#220,.F.);
#154=ORIENTED_EDGE('',*,*,#218,.F.);
#155=ORIENTED_EDGE('',*,*,#221,.F.);
#156=ORIENTED_EDGE('',*,*,#222,.T.);
#157=ORIENTED_EDGE('',*,*,#223,.F.);
#158=ORIENTED_EDGE('',*,*,#224,.F.);
#159=ORIENTED_EDGE('',*,*,#225,.F.);
#160=ORIENTED_EDGE('',*,*,#226,.F.);
#161=ORIENTED_EDGE('',*,*,#227,.F.);
#162=ORIENTED_EDGE('',*,*,#228,.F.);
#163=ORIENTED_EDGE('',*,*,#229,.F.);
#164=ORIENTED_EDGE('',*,*,#230,.F.);
#165=ORIENTED_EDGE('',*,*,#231,.F.);
#166=ORIENTED_EDGE('',*,*,#232,.T.);
#167=ORIENTED_EDGE('',*,*,#233,.T.);
#168=ORIENTED_EDGE('',*,*,#232,.F.);
#169=ORIENTED_EDGE('',*,*,#233,.F.);
#170=ORIENTED_EDGE('',*,*,#234,.T.);
#171=ORIENTED_EDGE('',*,*,#234,.F.);
#172=ORIENTED_EDGE('',*,*,#235,.T.);
#173=ORIENTED_EDGE('',*,*,#221,.T.);
#174=ORIENTED_EDGE('',*,*,#235,.F.);
#175=ORIENTED_EDGE('',*,*,#222,.F.);
#176=ORIENTED_EDGE('',*,*,#228,.T.);
#177=ORIENTED_EDGE('',*,*,#236,.F.);
#178=ORIENTED_EDGE('',*,*,#229,.T.);
#179=ORIENTED_EDGE('',*,*,#236,.T.);
#180=ORIENTED_EDGE('',*,*,#227,.T.);
#181=ORIENTED_EDGE('',*,*,#237,.F.);
#182=ORIENTED_EDGE('',*,*,#230,.T.);
#183=ORIENTED_EDGE('',*,*,#237,.T.);
#184=ORIENTED_EDGE('',*,*,#223,.T.);
#185=ORIENTED_EDGE('',*,*,#238,.F.);
#186=ORIENTED_EDGE('',*,*,#224,.T.);
#187=ORIENTED_EDGE('',*,*,#238,.T.);
#188=ORIENTED_EDGE('',*,*,#226,.T.);
#189=ORIENTED_EDGE('',*,*,#239,.F.);
#190=ORIENTED_EDGE('',*,*,#225,.T.);
#191=ORIENTED_EDGE('',*,*,#239,.T.);
#192=ORIENTED_EDGE('',*,*,#240,.T.);
#193=ORIENTED_EDGE('',*,*,#231,.T.);
#194=ORIENTED_EDGE('',*,*,#241,.F.);
#195=ORIENTED_EDGE('',*,*,#240,.F.);
#196=ORIENTED_EDGE('',*,*,#219,.F.);
#197=ORIENTED_EDGE('',*,*,#241,.T.);
#198=VERTEX_POINT('',#405);
#199=VERTEX_POINT('',#407);
#200=VERTEX_POINT('',#410);
#201=VERTEX_POINT('',#414);
#202=VERTEX_POINT('',#416);
#203=VERTEX_POINT('',#419);
#204=VERTEX_POINT('',#420);
#205=VERTEX_POINT('',#422);
#206=VERTEX_POINT('',#424);
#207=VERTEX_POINT('',#427);
#208=VERTEX_POINT('',#428);
#209=VERTEX_POINT('',#430);
#210=VERTEX_POINT('',#432);
#211=VERTEX_POINT('',#435);
#212=VERTEX_POINT('',#437);
#213=VERTEX_POINT('',#440);
#214=VERTEX_POINT('',#443);
#215=VERTEX_POINT('',#446);
#216=VERTEX_POINT('',#461);
#217=VERTEX_POINT('',#464);
#218=EDGE_CURVE('',#198,#198,#242,.T.);
#219=EDGE_CURVE('',#199,#199,#243,.T.);
#220=EDGE_CURVE('',#200,#200,#244,.T.);
#221=EDGE_CURVE('',#201,#201,#245,.T.);
#222=EDGE_CURVE('',#202,#202,#246,.T.);
#223=EDGE_CURVE('',#203,#204,#247,.T.);
#224=EDGE_CURVE('',#205,#203,#32,.T.);
#225=EDGE_CURVE('',#206,#205,#248,.T.);
#226=EDGE_CURVE('',#204,#206,#33,.T.);
#227=EDGE_CURVE('',#207,#208,#34,.T.);
#228=EDGE_CURVE('',#209,#207,#249,.T.);
#229=EDGE_CURVE('',#210,#209,#35,.T.);
#230=EDGE_CURVE('',#208,#210,#250,.T.);
#231=EDGE_CURVE('',#211,#211,#251,.T.);
#232=EDGE_CURVE('',#212,#212,#252,.T.);
#233=EDGE_CURVE('',#213,#213,#253,.T.);
#234=EDGE_CURVE('',#214,#214,#254,.T.);
#235=EDGE_CURVE('',#215,#215,#255,.T.);
#236=EDGE_CURVE('',#209,#207,#36,.T.);
#237=EDGE_CURVE('',#210,#208,#37,.T.);
#238=EDGE_CURVE('',#203,#204,#38,.T.);
#239=EDGE_CURVE('',#205,#206,#39,.T.);
#240=EDGE_CURVE('',#216,#216,#256,.T.);
#241=EDGE_CURVE('',#217,#217,#257,.T.);
#242=CIRCLE('',#279,6.);
#243=CIRCLE('',#280,6.);
#244=CIRCLE('',#282,5.42264973081038);
#245=CIRCLE('',#285,2.75);
#246=CIRCLE('',#286,2.75);
#247=CIRCLE('',#288,5.85);
#248=CIRCLE('',#289,5.85);
#249=CIRCLE('',#290,5.85);
#250=CIRCLE('',#291,5.85);
#251=CIRCLE('',#292,5.85);
#252=CIRCLE('',#293,5.85);
#253=CIRCLE('',#295,4.61491612498281);
#254=CIRCLE('',#297,4.51887581252578);
#255=CIRCLE('',#299,3.75161489508635);
#256=CIRCLE('',#309,5.);
#257=CIRCLE('',#311,5.);
#258=PRESENTATION_LAYER_ASSIGNMENT('1','Layer 1',(#276,#277,#278,#30));
#259=STYLED_ITEM('',(#263),#276);
#260=STYLED_ITEM('',(#264),#277);
#261=STYLED_ITEM('',(#265),#278);
#262=STYLED_ITEM('',(#266),#30);
#263=PRESENTATION_STYLE_ASSIGNMENT((#267));
#264=PRESENTATION_STYLE_ASSIGNMENT((#268));
#265=PRESENTATION_STYLE_ASSIGNMENT((#269));
#266=PRESENTATION_STYLE_ASSIGNMENT((#25));
#267=CURVE_STYLE('',#272,POSITIVE_LENGTH_MEASURE(0.13),#270);
#268=CURVE_STYLE('',#273,POSITIVE_LENGTH_MEASURE(0.13),#270);
#269=CURVE_STYLE('',#274,POSITIVE_LENGTH_MEASURE(0.13),#270);
#270=COLOUR_RGB('Strong Emerald',0.,0.803921568627451,0.525490196078431);
#271=COLOUR_RGB('TLS_NOCUT',0.499992370489052,0.499992370489052,0.499992370489052);
#272=DRAUGHTING_PRE_DEFINED_CURVE_FONT('continuous');
#273=DRAUGHTING_PRE_DEFINED_CURVE_FONT('continuous');
#274=DRAUGHTING_PRE_DEFINED_CURVE_FONT('continuous');
#275=AXIS2_PLACEMENT_3D('',#400,#314,#315);
#276=AXIS2_PLACEMENT_3D('PCS',#401,#316,#317);
#277=AXIS2_PLACEMENT_3D('MCS',#402,#318,#319);
#278=AXIS2_PLACEMENT_3D('CSW',#403,#320,#321);
#279=AXIS2_PLACEMENT_3D('',#404,#322,#323);
#280=AXIS2_PLACEMENT_3D('',#406,#324,#325);
#281=AXIS2_PLACEMENT_3D('',#408,#326,#327);
#282=AXIS2_PLACEMENT_3D('',#409,#328,#329);
#283=AXIS2_PLACEMENT_3D('',#411,#330,#331);
#284=AXIS2_PLACEMENT_3D('',#412,#332,#333);
#285=AXIS2_PLACEMENT_3D('',#413,#334,#335);
#286=AXIS2_PLACEMENT_3D('',#415,#336,#337);
#287=AXIS2_PLACEMENT_3D('',#417,#338,#339);
#288=AXIS2_PLACEMENT_3D('',#418,#340,#341);
#289=AXIS2_PLACEMENT_3D('',#423,#343,#344);
#290=AXIS2_PLACEMENT_3D('',#429,#347,#348);
#291=AXIS2_PLACEMENT_3D('',#433,#350,#351);
#292=AXIS2_PLACEMENT_3D('',#434,#352,#353);
#293=AXIS2_PLACEMENT_3D('',#436,#354,#355);
#294=AXIS2_PLACEMENT_3D('',#438,#356,#357);
#295=AXIS2_PLACEMENT_3D('',#439,#358,#359);
#296=AXIS2_PLACEMENT_3D('',#441,#360,#361);
#297=AXIS2_PLACEMENT_3D('',#442,#362,#363);
#298=AXIS2_PLACEMENT_3D('',#444,#364,#365);
#299=AXIS2_PLACEMENT_3D('',#445,#366,#367);
#300=AXIS2_PLACEMENT_3D('',#447,#368,#369);
#301=AXIS2_PLACEMENT_3D('',#448,#370,#371);
#302=AXIS2_PLACEMENT_3D('',#449,#372,#373);
#303=AXIS2_PLACEMENT_3D('',#451,#375,#376);
#304=AXIS2_PLACEMENT_3D('',#453,#378,#379);
#305=AXIS2_PLACEMENT_3D('',#454,#380,#381);
#306=AXIS2_PLACEMENT_3D('',#456,#383,#384);
#307=AXIS2_PLACEMENT_3D('',#458,#386,#387);
#308=AXIS2_PLACEMENT_3D('',#459,#388,#389);
#309=AXIS2_PLACEMENT_3D('',#460,#390,#391);
#310=AXIS2_PLACEMENT_3D('',#462,#392,#393);
#311=AXIS2_PLACEMENT_3D('',#463,#394,#395);
#312=AXIS2_PLACEMENT_3D('',#465,#396,#397);
#313=AXIS2_PLACEMENT_3D('',#466,#398,#399);
#314=DIRECTION('',(0.,0.,1.));
#315=DIRECTION('',(1.,0.,0.));
#316=DIRECTION('',(0.,0.,1.));
#317=DIRECTION('',(1.,0.,0.));
#318=DIRECTION('',(0.,0.,1.));
#319=DIRECTION('',(1.,0.,0.));
#320=DIRECTION('',(0.,0.,1.));
#321=DIRECTION('',(1.,0.,0.));
#322=DIRECTION('',(0.,0.,1.));
#323=DIRECTION('',(-0.5,-0.866025403784439,0.));
#324=DIRECTION('',(0.,0.,-1.));
#325=DIRECTION('',(1.,0.,0.));
#326=DIRECTION('',(0.,0.,1.));
#327=DIRECTION('',(0.5,0.866025403784439,0.));
#328=DIRECTION('',(0.,0.,-1.));
#329=DIRECTION('',(-0.5,-0.866025403784439,0.));
#330=DIRECTION('',(0.,0.,-1.));
#331=DIRECTION('',(-0.5,-0.866025403784439,0.));
#332=DIRECTION('',(0.,0.,1.));
#333=DIRECTION('',(0.5,0.866025403784439,-3.56847040469179E-017));
#334=DIRECTION('',(0.,0.,-1.));
#335=DIRECTION('',(-1.,0.,0.));
#336=DIRECTION('',(0.,0.,-1.));
#337=DIRECTION('',(-1.,0.,0.));
#338=DIRECTION('',(0.,0.,-1.));
#339=DIRECTION('',(-1.,0.,0.));
#340=DIRECTION('',(0.,0.,1.));
#341=DIRECTION('',(1.,0.,0.));
#342=DIRECTION('',(0.,0.,-1.));
#343=DIRECTION('',(0.,1.62630325872825E-016,-1.));
#344=DIRECTION('',(0.,-1.,-1.48266963758701E-016));
#345=DIRECTION('',(0.,0.,1.));
#346=DIRECTION('',(0.,0.,1.));
#347=DIRECTION('',(0.,0.,1.));
#348=DIRECTION('',(1.,0.,0.));
#349=DIRECTION('',(0.,0.,-1.));
#350=DIRECTION('',(0.,-1.62630325872825E-016,-1.));
#351=DIRECTION('',(0.,-1.,1.48266963758701E-016));
#352=DIRECTION('',(0.,0.,-1.));
#353=DIRECTION('',(-1.,0.,0.));
#354=DIRECTION('',(0.,0.,-1.));
#355=DIRECTION('',(-1.,0.,0.));
#356=DIRECTION('',(0.,0.,-1.));
#357=DIRECTION('',(-1.,0.,0.));
#358=DIRECTION('',(0.,0.,-1.));
#359=DIRECTION('',(-1.,0.,0.));
#360=DIRECTION('',(0.,0.,-1.));
#361=DIRECTION('',(-1.,0.,0.));
#362=DIRECTION('',(0.,0.,-1.));
#363=DIRECTION('',(-1.,0.,0.));
#364=DIRECTION('',(0.,0.,-1.));
#365=DIRECTION('',(-1.,0.,2.92925235072957E-016));
#366=DIRECTION('',(0.,0.,-1.));
#367=DIRECTION('',(-1.,0.,0.));
#368=DIRECTION('',(0.,0.,-1.));
#369=DIRECTION('',(-1.,0.,2.86847445695092E-016));
#370=DIRECTION('',(0.,0.,-1.));
#371=DIRECTION('',(-1.,0.,0.));
#372=DIRECTION('',(0.,0.,-1.));
#373=DIRECTION('',(-1.,0.,0.));
#374=DIRECTION('',(-1.,0.,0.));
#375=DIRECTION('',(0.,0.,1.));
#376=DIRECTION('',(1.,0.,0.));
#377=DIRECTION('',(-1.,0.,0.));
#378=DIRECTION('',(0.,1.,0.));
#379=DIRECTION('',(0.,0.,-1.));
#380=DIRECTION('',(0.,-1.62630325872825E-016,-1.));
#381=DIRECTION('',(0.,-1.,1.62630325872826E-016));
#382=DIRECTION('',(1.,0.,0.));
#383=DIRECTION('',(0.,0.,1.));
#384=DIRECTION('',(1.,0.,0.));
#385=DIRECTION('',(1.,0.,0.));
#386=DIRECTION('',(0.,-1.,0.));
#387=DIRECTION('',(0.,0.,-1.));
#388=DIRECTION('',(0.,1.62630325872825E-016,-1.));
#389=DIRECTION('',(0.,1.,1.62630325872826E-016));
#390=DIRECTION('',(0.,0.,1.));
#391=DIRECTION('',(1.,0.,0.));
#392=DIRECTION('',(0.,0.,1.));
#393=DIRECTION('',(1.,0.,2.79488087673413E-017));
#394=DIRECTION('',(0.,0.,-1.));
#395=DIRECTION('',(1.,0.,0.));
#396=DIRECTION('',(0.,0.,1.));
#397=DIRECTION('',(1.,0.,0.));
#398=DIRECTION('',(0.,0.,1.));
#399=DIRECTION('',(0.5,0.866025403784439,0.));
#400=CARTESIAN_POINT('',(0.,0.,0.));
#401=CARTESIAN_POINT('',(0.,0.,0.));
#402=CARTESIAN_POINT('',(0.,0.,0.));
#403=CARTESIAN_POINT('',(0.,0.,-18.));
#404=CARTESIAN_POINT('',(-1.33226762955019E-015,0.,-23.));
#405=CARTESIAN_POINT('',(-3.,-5.19615242270663,-23.));
#406=CARTESIAN_POINT('',(-1.33226762955019E-015,0.,-13.2));
#407=CARTESIAN_POINT('',(6.,0.,-13.2));
#408=CARTESIAN_POINT('',(-1.33226762955019E-015,0.,-24.));
#409=CARTESIAN_POINT('',(-1.33226762955019E-015,0.,-24.));
#410=CARTESIAN_POINT('',(-2.71132486540519,-4.69615242270664,-24.));
#411=CARTESIAN_POINT('',(-1.33226762955019E-015,0.,-24.));
#412=CARTESIAN_POINT('',(-1.33226762955019E-015,0.,-23.));
#413=CARTESIAN_POINT('',(0.,0.,9.8));
#414=CARTESIAN_POINT('',(-2.75,0.,9.8));
#415=CARTESIAN_POINT('',(0.,0.,13.8));
#416=CARTESIAN_POINT('',(-2.75,0.,13.8));
#417=CARTESIAN_POINT('',(0.,0.,66.0749858115762));
#418=CARTESIAN_POINT('',(0.,0.,-5.6));
#419=CARTESIAN_POINT('',(-3.03685692781204,-5.,-5.6));
#420=CARTESIAN_POINT('',(3.03685692781204,-5.,-5.6));
#421=CARTESIAN_POINT('',(-3.03685692781204,-5.,66.0749858115762));
#422=CARTESIAN_POINT('',(-3.03685692781204,-5.,-1.9));
#423=CARTESIAN_POINT('',(0.,0.,-1.9));
#424=CARTESIAN_POINT('',(3.03685692781204,-5.,-1.9));
#425=CARTESIAN_POINT('',(3.03685692781204,-5.,66.0749858115762));
#426=CARTESIAN_POINT('',(-3.03685692781204,5.,66.0749858115762));
#427=CARTESIAN_POINT('',(-3.03685692781204,5.,-5.6));
#428=CARTESIAN_POINT('',(-3.03685692781204,5.,-1.9));
#429=CARTESIAN_POINT('',(0.,0.,-5.6));
#430=CARTESIAN_POINT('',(3.03685692781204,5.,-5.6));
#431=CARTESIAN_POINT('',(3.03685692781204,5.,66.0749858115762));
#432=CARTESIAN_POINT('',(3.03685692781204,5.,-1.9));
#433=CARTESIAN_POINT('',(0.,0.,-1.9));
#434=CARTESIAN_POINT('',(0.,0.,-7.5));
#435=CARTESIAN_POINT('',(-5.85,0.,-7.5));
#436=CARTESIAN_POINT('',(0.,0.,0.));
#437=CARTESIAN_POINT('',(-5.85,0.,0.));
#438=CARTESIAN_POINT('',(0.,0.,66.0749858115762));
#439=CARTESIAN_POINT('',(0.,0.,0.));
#440=CARTESIAN_POINT('',(-4.61491612498281,0.,0.));
#441=CARTESIAN_POINT('',(-4.61491612498281,0.,-9.87397161130383E-017));
#442=CARTESIAN_POINT('',(0.,0.,2.50000000000005));
#443=CARTESIAN_POINT('',(-4.51887581252578,0.,2.50000000000005));
#444=CARTESIAN_POINT('',(0.,0.,2.50000000000005));
#445=CARTESIAN_POINT('',(0.,0.,9.8));
#446=CARTESIAN_POINT('',(-3.75161489508635,0.,9.8));
#447=CARTESIAN_POINT('',(0.,0.,9.8));
#448=CARTESIAN_POINT('',(-2.75,0.,9.8));
#449=CARTESIAN_POINT('',(0.,0.,13.8));
#450=CARTESIAN_POINT('',(-10.,5.,-5.6));
#451=CARTESIAN_POINT('',(-10.,9.,-5.6));
#452=CARTESIAN_POINT('',(-10.,5.,-1.9));
#453=CARTESIAN_POINT('',(-10.,5.,-5.6));
#454=CARTESIAN_POINT('',(-10.,5.,-1.9));
#455=CARTESIAN_POINT('',(-10.,-5.,-5.6));
#456=CARTESIAN_POINT('',(-10.,-9.,-5.6));
#457=CARTESIAN_POINT('',(-10.,-5.,-1.9));
#458=CARTESIAN_POINT('',(-10.,-5.,-5.6));
#459=CARTESIAN_POINT('',(-10.,-5.,-1.9));
#460=CARTESIAN_POINT('',(-1.33226762955019E-015,0.,-7.99074772881118));
#461=CARTESIAN_POINT('',(5.,0.,-7.99074772881118));
#462=CARTESIAN_POINT('',(-1.33226762955019E-015,0.,-7.5));
#463=CARTESIAN_POINT('',(-1.33226762955019E-015,0.,-13.2));
#464=CARTESIAN_POINT('',(5.,0.,-13.2));
#465=CARTESIAN_POINT('',(-1.33226762955019E-015,0.,-7.5));
#466=CARTESIAN_POINT('',(-1.33226762955019E-015,0.,-13.2));
#467=MECHANICAL_DESIGN_GEOMETRIC_PRESENTATION_REPRESENTATION('',(#259,#260,
#261,#262),#468);
#468=(
GEOMETRIC_REPRESENTATION_CONTEXT(3)
GLOBAL_UNCERTAINTY_ASSIGNED_CONTEXT((#469))
GLOBAL_UNIT_ASSIGNED_CONTEXT((#475,#471,#470))
REPRESENTATION_CONTEXT('1493819230453','TOP_LEVEL_ASSEMBLY_PART')
);
#469=UNCERTAINTY_MEASURE_WITH_UNIT(LENGTH_MEASURE(2.E-005),#475,
'DISTANCE_ACCURACY_VALUE','Maximum Tolerance applied to model');
#470=(
NAMED_UNIT(*)
SI_UNIT($,.STERADIAN.)
SOLID_ANGLE_UNIT()
);
#471=(
CONVERSION_BASED_UNIT('DEGREE',#473)
NAMED_UNIT(#472)
PLANE_ANGLE_UNIT()
);
#472=DIMENSIONAL_EXPONENTS(0.,0.,0.,0.,0.,0.,0.);
#473=PLANE_ANGLE_MEASURE_WITH_UNIT(PLANE_ANGLE_MEASURE(0.0174532925),#474);
#474=(
NAMED_UNIT(*)
PLANE_ANGLE_UNIT()
SI_UNIT($,.RADIAN.)
);
#475=(
LENGTH_UNIT()
NAMED_UNIT(*)
SI_UNIT(.MILLI.,.METRE.)
);
ENDSEC;
END-ISO-10303-21;
