ISO-10303-21;
HEADER;
FILE_DESCRIPTION(
/* description */ ('3-D model version:1'),
/* implementation_level */ '2;1');
FILE_NAME(
/* name */ 'EH20-A19.7-SH-200',
/* time_stamp */ '2016-12-02T14:03:51',
/* author */ ('CappDp'),
/* organization */ ('AB Sandvik Coromant'),
/* preprocessor_version */ 'ST-DEVELOPER v11',
/* originating_system */ 'SIEMENS UGS NX 6.0',
/* authorization */ '');
FILE_SCHEMA(('AUTOMOTIVE_DESIGN'));
ENDSEC;
DATA;
#10=SHAPE_REPRESENTATION_RELATIONSHIP('None','relationship between 1348_1_3D-None and 1348_1_3D-None',
     #94,#11);
#11=ADVANCED_BREP_SHAPE_REPRESENTATION('1348_1_3D-None',(#104),#541);
#15=APPROVAL_PERSON_ORGANIZATION(#69,#24,#18);
#16=APPROVAL_PERSON_ORGANIZATION(#70,#25,#19);
#17=APPROVAL_PERSON_ORGANIZATION(#71,#26,#20);
#18=APPROVAL_ROLE('approver');
#19=APPROVAL_ROLE('approver');
#20=APPROVAL_ROLE('approver');
#21=APPROVAL_DATE_TIME(#39,#24);
#22=APPROVAL_DATE_TIME(#40,#25);
#23=APPROVAL_DATE_TIME(#41,#26);
#24=APPROVAL(#27,' ');
#25=APPROVAL(#28,' ');
#26=APPROVAL(#29,' ');
#27=APPROVAL_STATUS('not_yet_approved');
#28=APPROVAL_STATUS('not_yet_approved');
#29=APPROVAL_STATUS('not_yet_approved');
#31=SECURITY_CLASSIFICATION(' ',' ',#32);
#32=SECURITY_CLASSIFICATION_LEVEL('confidential');
#35=DATE_TIME_ROLE('creation_date');
#36=DATE_TIME_ROLE('classification_date');
#37=DATE_AND_TIME(#52,#42);
#38=DATE_AND_TIME(#53,#43);
#39=DATE_AND_TIME(#54,#44);
#40=DATE_AND_TIME(#55,#45);
#41=DATE_AND_TIME(#56,#46);
#42=LOCAL_TIME(0,0,0.0,#47);
#43=LOCAL_TIME(0,0,0.0,#48);
#44=LOCAL_TIME(0,0,0.0,#49);
#45=LOCAL_TIME(0,0,0.0,#50);
#46=LOCAL_TIME(0,0,0.0,#51);
#47=COORDINATED_UNIVERSAL_TIME_OFFSET(0,0,.BEHIND.);
#48=COORDINATED_UNIVERSAL_TIME_OFFSET(0,0,.BEHIND.);
#49=COORDINATED_UNIVERSAL_TIME_OFFSET(0,0,.BEHIND.);
#50=COORDINATED_UNIVERSAL_TIME_OFFSET(0,0,.BEHIND.);
#51=COORDINATED_UNIVERSAL_TIME_OFFSET(0,0,.BEHIND.);
#52=CALENDAR_DATE(0,1,1);
#53=CALENDAR_DATE(0,1,1);
#54=CALENDAR_DATE(0,1,1);
#55=CALENDAR_DATE(0,1,1);
#56=CALENDAR_DATE(0,1,1);
#61=PERSON_AND_ORGANIZATION_ROLE('creator');
#62=PERSON_AND_ORGANIZATION_ROLE('design_owner');
#63=PERSON_AND_ORGANIZATION_ROLE('design_supplier');
#64=PERSON_AND_ORGANIZATION_ROLE('classification_officer');
#65=PERSON_AND_ORGANIZATION(#79,#72);
#66=PERSON_AND_ORGANIZATION(#79,#73);
#67=PERSON_AND_ORGANIZATION(#79,#74);
#68=PERSON_AND_ORGANIZATION(#79,#75);
#69=PERSON_AND_ORGANIZATION(#79,#76);
#70=PERSON_AND_ORGANIZATION(#79,#77);
#71=PERSON_AND_ORGANIZATION(#79,#78);
#72=ORGANIZATION(' ',' ',' ');
#73=ORGANIZATION(' ',' ',' ');
#74=ORGANIZATION(' ',' ',' ');
#75=ORGANIZATION(' ',' ',' ');
#76=ORGANIZATION(' ',' ',' ');
#77=ORGANIZATION(' ',' ',' ');
#78=ORGANIZATION(' ',' ',' ');
#79=PERSON(' ',' ',' ',(' '),$,$);
#80=SHAPE_DEFINITION_REPRESENTATION(#81,#94);
#81=PRODUCT_DEFINITION_SHAPE('','',#82);
#82=PRODUCT_DEFINITION(' ','',#84,$);
#84=PRODUCT_DEFINITION_FORMATION_WITH_SPECIFIED_SOURCE(' ',' ',#86,.NOT_KNOWN.);
#85=PRODUCT_RELATED_PRODUCT_CATEGORY('detail','',(#86));
#86=PRODUCT('1348_1_3D','1348_1_3D',' ',());
#87=PRODUCT_CATEGORY_RELATIONSHIP(' ',' ',#89,#90);
#88=PRODUCT_CATEGORY_RELATIONSHIP('','',#90,#85);
#89=PRODUCT_CATEGORY('part',' ');
#90=PRODUCT_CATEGORY(' ','');
#92=APPLICATION_PROTOCOL_DEFINITION('international standard','config_control_design',
     1994,#93);
#93=APPLICATION_CONTEXT('configuration controlled 3D designs of mechanical parts and assemblies');
#94=SHAPE_REPRESENTATION('1348_1_3D-None',(#342),#541);
#95=PRESENTATION_LAYER_ASSIGNMENT('1','Layer 1',(#104));
#96=STYLED_ITEM('',(#97),#104);
#97=PRESENTATION_STYLE_ASSIGNMENT((#98));
#98=SURFACE_STYLE_USAGE(.BOTH.,#99);
#99=SURFACE_SIDE_STYLE('',(#100));
#100=SURFACE_STYLE_FILL_AREA(#101);
#101=FILL_AREA_STYLE('',(#102));
#102=FILL_AREA_STYLE_COLOUR('',#103);
#103=DRAUGHTING_PRE_DEFINED_COLOUR('white');
#104=MANIFOLD_SOLID_BREP('NOCUT',#105);
#105=CLOSED_SHELL('',(#126,#127,#128,#129,#130,#131,#132,#133,#134,#135,#136,#137,
     #138,#139,#140,#141,#142,#143,#144,#145,#146,#147));
#106=VERTEX_LOOP('',#287);
#107=FACE_OUTER_BOUND('',#206,.T.);
#108=PLANE('',#355);
#109=PLANE('',#357);
#110=CONICAL_SURFACE('',#349,9.61449978858492,15.4742350171877);
#111=CONICAL_SURFACE('',#358,8.84675,45.0);
#112=CONICAL_SURFACE('',#360,0.0,59.0);
#113=CONICAL_SURFACE('',#366,4.95554072893323,80.0000000000007);
#114=CONICAL_SURFACE('',#370,5.77120549174436,69.9999999999998);
#115=CONICAL_SURFACE('',#374,5.28680918566302,5.99999999999999);
#116=CONICAL_SURFACE('',#376,6.2153,70.0000000000001);
#117=CONICAL_SURFACE('',#384,7.25769807627063,2.0);
#118=CONICAL_SURFACE('',#385,7.32404753830495,46.9999999999999);
#119=TOROIDAL_SURFACE('',#347,9.44675,0.39999999999999);
#120=TOROIDAL_SURFACE('',#351,10.0,0.400000000000011);
#121=TOROIDAL_SURFACE('',#364,5.025,0.4);
#122=TOROIDAL_SURFACE('',#368,5.32657930542099,1.3);
#123=TOROIDAL_SURFACE('',#372,5.68461794381033,0.4);
#124=TOROIDAL_SURFACE('',#378,6.85769807627063,0.5);
#125=TOROIDAL_SURFACE('',#382,6.85769807627063,0.500000000000001);
#126=ADVANCED_FACE('FP_EH_SU1',(#152,#153),#148,.T.);
#127=ADVANCED_FACE('',(#154,#155),#119,.T.);
#128=ADVANCED_FACE('FP_EH_SU2',(#156,#157),#110,.T.);
#129=ADVANCED_FACE('',(#158,#159),#120,.F.);
#130=ADVANCED_FACE('FP_EH_SU3',(#160,#161),#149,.T.);
#131=ADVANCED_FACE('FP_EH_SU4',(#162,#163),#108,.T.);
#132=ADVANCED_FACE('',(#107),#109,.F.);
#133=ADVANCED_FACE('',(#164,#165),#111,.T.);
#134=ADVANCED_FACE('',(#166,#167),#112,.F.);
#135=ADVANCED_FACE('DCH3',(#168,#169),#150,.F.);
#136=ADVANCED_FACE('',(#170,#171),#121,.T.);
#137=ADVANCED_FACE('',(#172,#173),#113,.F.);
#138=ADVANCED_FACE('',(#174,#175),#122,.F.);
#139=ADVANCED_FACE('',(#176,#177),#114,.F.);
#140=ADVANCED_FACE('',(#178,#179),#123,.T.);
#141=ADVANCED_FACE('TSALN',(#180,#181),#115,.F.);
#142=ADVANCED_FACE('',(#182,#183),#116,.F.);
#143=ADVANCED_FACE('',(#184,#185),#124,.F.);
#144=ADVANCED_FACE('DCH2',(#186,#187),#151,.F.);
#145=ADVANCED_FACE('',(#188,#189),#125,.F.);
#146=ADVANCED_FACE('TSAN',(#190,#191),#117,.F.);
#147=ADVANCED_FACE('DCH4',(#192,#193),#118,.F.);
#148=CYLINDRICAL_SURFACE('',#345,9.84674999999999);
#149=CYLINDRICAL_SURFACE('',#353,9.6);
#150=CYLINDRICAL_SURFACE('',#362,4.625);
#151=CYLINDRICAL_SURFACE('',#380,7.35769807627063);
#152=FACE_BOUND('',#194,.T.);
#153=FACE_BOUND('',#195,.T.);
#154=FACE_BOUND('',#196,.T.);
#155=FACE_BOUND('',#197,.T.);
#156=FACE_BOUND('',#198,.T.);
#157=FACE_BOUND('',#199,.T.);
#158=FACE_BOUND('',#200,.T.);
#159=FACE_BOUND('',#201,.T.);
#160=FACE_BOUND('',#202,.T.);
#161=FACE_BOUND('',#203,.T.);
#162=FACE_BOUND('',#204,.T.);
#163=FACE_BOUND('',#205,.T.);
#164=FACE_BOUND('',#207,.T.);
#165=FACE_BOUND('',#208,.T.);
#166=FACE_BOUND('',#209,.T.);
#167=FACE_BOUND('',#106,.T.);
#168=FACE_BOUND('',#210,.T.);
#169=FACE_BOUND('',#211,.T.);
#170=FACE_BOUND('',#212,.T.);
#171=FACE_BOUND('',#213,.T.);
#172=FACE_BOUND('',#214,.T.);
#173=FACE_BOUND('',#215,.T.);
#174=FACE_BOUND('',#216,.T.);
#175=FACE_BOUND('',#217,.T.);
#176=FACE_BOUND('',#218,.T.);
#177=FACE_BOUND('',#219,.T.);
#178=FACE_BOUND('',#220,.T.);
#179=FACE_BOUND('',#221,.T.);
#180=FACE_BOUND('',#222,.T.);
#181=FACE_BOUND('',#223,.T.);
#182=FACE_BOUND('',#224,.T.);
#183=FACE_BOUND('',#225,.T.);
#184=FACE_BOUND('',#226,.T.);
#185=FACE_BOUND('',#227,.T.);
#186=FACE_BOUND('',#228,.T.);
#187=FACE_BOUND('',#229,.T.);
#188=FACE_BOUND('',#230,.T.);
#189=FACE_BOUND('',#231,.T.);
#190=FACE_BOUND('',#232,.T.);
#191=FACE_BOUND('',#233,.T.);
#192=FACE_BOUND('',#234,.T.);
#193=FACE_BOUND('',#235,.T.);
#194=EDGE_LOOP('',(#236));
#195=EDGE_LOOP('',(#237));
#196=EDGE_LOOP('',(#238));
#197=EDGE_LOOP('',(#239));
#198=EDGE_LOOP('',(#240));
#199=EDGE_LOOP('',(#241));
#200=EDGE_LOOP('',(#242));
#201=EDGE_LOOP('',(#243));
#202=EDGE_LOOP('',(#244));
#203=EDGE_LOOP('',(#245));
#204=EDGE_LOOP('',(#246));
#205=EDGE_LOOP('',(#247));
#206=EDGE_LOOP('',(#248));
#207=EDGE_LOOP('',(#249));
#208=EDGE_LOOP('',(#250));
#209=EDGE_LOOP('',(#251));
#210=EDGE_LOOP('',(#252));
#211=EDGE_LOOP('',(#253));
#212=EDGE_LOOP('',(#254));
#213=EDGE_LOOP('',(#255));
#214=EDGE_LOOP('',(#256));
#215=EDGE_LOOP('',(#257));
#216=EDGE_LOOP('',(#258));
#217=EDGE_LOOP('',(#259));
#218=EDGE_LOOP('',(#260));
#219=EDGE_LOOP('',(#261));
#220=EDGE_LOOP('',(#262));
#221=EDGE_LOOP('',(#263));
#222=EDGE_LOOP('',(#264));
#223=EDGE_LOOP('',(#265));
#224=EDGE_LOOP('',(#266));
#225=EDGE_LOOP('',(#267));
#226=EDGE_LOOP('',(#268));
#227=EDGE_LOOP('',(#269));
#228=EDGE_LOOP('',(#270));
#229=EDGE_LOOP('',(#271));
#230=EDGE_LOOP('',(#272));
#231=EDGE_LOOP('',(#273));
#232=EDGE_LOOP('',(#274));
#233=EDGE_LOOP('',(#275));
#234=EDGE_LOOP('',(#276));
#235=EDGE_LOOP('',(#277));
#236=ORIENTED_EDGE('',*,*,#300,.F.);
#237=ORIENTED_EDGE('',*,*,#301,.T.);
#238=ORIENTED_EDGE('',*,*,#300,.T.);
#239=ORIENTED_EDGE('',*,*,#302,.F.);
#240=ORIENTED_EDGE('',*,*,#302,.T.);
#241=ORIENTED_EDGE('',*,*,#303,.F.);
#242=ORIENTED_EDGE('',*,*,#303,.T.);
#243=ORIENTED_EDGE('',*,*,#304,.F.);
#244=ORIENTED_EDGE('',*,*,#304,.T.);
#245=ORIENTED_EDGE('',*,*,#305,.F.);
#246=ORIENTED_EDGE('',*,*,#306,.F.);
#247=ORIENTED_EDGE('',*,*,#305,.T.);
#248=ORIENTED_EDGE('',*,*,#307,.F.);
#249=ORIENTED_EDGE('',*,*,#301,.F.);
#250=ORIENTED_EDGE('',*,*,#307,.T.);
#251=ORIENTED_EDGE('',*,*,#308,.T.);
#252=ORIENTED_EDGE('',*,*,#309,.T.);
#253=ORIENTED_EDGE('',*,*,#308,.F.);
#254=ORIENTED_EDGE('',*,*,#310,.T.);
#255=ORIENTED_EDGE('',*,*,#309,.F.);
#256=ORIENTED_EDGE('',*,*,#311,.T.);
#257=ORIENTED_EDGE('',*,*,#310,.F.);
#258=ORIENTED_EDGE('',*,*,#312,.T.);
#259=ORIENTED_EDGE('',*,*,#311,.F.);
#260=ORIENTED_EDGE('',*,*,#313,.T.);
#261=ORIENTED_EDGE('',*,*,#312,.F.);
#262=ORIENTED_EDGE('',*,*,#314,.T.);
#263=ORIENTED_EDGE('',*,*,#313,.F.);
#264=ORIENTED_EDGE('',*,*,#315,.T.);
#265=ORIENTED_EDGE('',*,*,#314,.F.);
#266=ORIENTED_EDGE('',*,*,#316,.T.);
#267=ORIENTED_EDGE('',*,*,#315,.F.);
#268=ORIENTED_EDGE('',*,*,#317,.T.);
#269=ORIENTED_EDGE('',*,*,#316,.F.);
#270=ORIENTED_EDGE('',*,*,#318,.T.);
#271=ORIENTED_EDGE('',*,*,#317,.F.);
#272=ORIENTED_EDGE('',*,*,#319,.T.);
#273=ORIENTED_EDGE('',*,*,#318,.F.);
#274=ORIENTED_EDGE('',*,*,#320,.T.);
#275=ORIENTED_EDGE('',*,*,#319,.F.);
#276=ORIENTED_EDGE('',*,*,#306,.T.);
#277=ORIENTED_EDGE('',*,*,#320,.F.);
#278=VERTEX_POINT('',#476);
#279=VERTEX_POINT('',#478);
#280=VERTEX_POINT('',#481);
#281=VERTEX_POINT('',#484);
#282=VERTEX_POINT('',#487);
#283=VERTEX_POINT('',#490);
#284=VERTEX_POINT('',#493);
#285=VERTEX_POINT('',#496);
#286=VERTEX_POINT('',#500);
#287=VERTEX_POINT('',#501);
#288=VERTEX_POINT('',#504);
#289=VERTEX_POINT('',#507);
#290=VERTEX_POINT('',#510);
#291=VERTEX_POINT('',#513);
#292=VERTEX_POINT('',#516);
#293=VERTEX_POINT('',#519);
#294=VERTEX_POINT('',#522);
#295=VERTEX_POINT('',#525);
#296=VERTEX_POINT('',#528);
#297=VERTEX_POINT('',#531);
#298=VERTEX_POINT('',#534);
#299=VERTEX_POINT('',#537);
#300=EDGE_CURVE('',#278,#278,#321,.T.);
#301=EDGE_CURVE('',#279,#279,#322,.T.);
#302=EDGE_CURVE('',#280,#280,#323,.T.);
#303=EDGE_CURVE('',#281,#281,#324,.T.);
#304=EDGE_CURVE('',#282,#282,#325,.T.);
#305=EDGE_CURVE('',#283,#283,#326,.T.);
#306=EDGE_CURVE('',#284,#284,#327,.T.);
#307=EDGE_CURVE('',#285,#285,#328,.T.);
#308=EDGE_CURVE('',#286,#286,#329,.T.);
#309=EDGE_CURVE('',#288,#288,#330,.T.);
#310=EDGE_CURVE('',#289,#289,#331,.T.);
#311=EDGE_CURVE('',#290,#290,#332,.T.);
#312=EDGE_CURVE('',#291,#291,#333,.T.);
#313=EDGE_CURVE('',#292,#292,#334,.T.);
#314=EDGE_CURVE('',#293,#293,#335,.T.);
#315=EDGE_CURVE('',#294,#294,#336,.T.);
#316=EDGE_CURVE('',#295,#295,#337,.T.);
#317=EDGE_CURVE('',#296,#296,#338,.T.);
#318=EDGE_CURVE('',#297,#297,#339,.T.);
#319=EDGE_CURVE('',#298,#298,#340,.T.);
#320=EDGE_CURVE('',#299,#299,#341,.T.);
#321=CIRCLE('',#343,9.84674999999999);
#322=CIRCLE('',#344,9.84675);
#323=CIRCLE('',#346,9.83225021141506);
#324=CIRCLE('',#348,9.61449978858492);
#325=CIRCLE('',#350,9.6);
#326=CIRCLE('',#352,9.6);
#327=CIRCLE('',#354,7.96746876431976);
#328=CIRCLE('',#356,8.84675);
#329=CIRCLE('',#359,4.625);
#330=CIRCLE('',#361,4.625);
#331=CIRCLE('',#363,4.95554072893323);
#332=CIRCLE('',#365,5.552321936388);
#333=CIRCLE('',#367,5.77120549174436);
#334=CIRCLE('',#369,5.54780988648006);
#335=CIRCLE('',#371,5.28680918566302);
#336=CIRCLE('',#373,6.2153);
#337=CIRCLE('',#375,7.02870814793346);
#338=CIRCLE('',#377,7.35769807627063);
#339=CIRCLE('',#379,7.35769807627063);
#340=CIRCLE('',#381,7.25769807627063);
#341=CIRCLE('',#383,7.32404753830495);
#342=AXIS2_PLACEMENT_3D('',#474,#386,#387);
#343=AXIS2_PLACEMENT_3D('',#475,#388,#389);
#344=AXIS2_PLACEMENT_3D('',#477,#390,#391);
#345=AXIS2_PLACEMENT_3D('',#479,#392,#393);
#346=AXIS2_PLACEMENT_3D('',#480,#394,#395);
#347=AXIS2_PLACEMENT_3D('',#482,#396,#397);
#348=AXIS2_PLACEMENT_3D('',#483,#398,#399);
#349=AXIS2_PLACEMENT_3D('',#485,#400,#401);
#350=AXIS2_PLACEMENT_3D('',#486,#402,#403);
#351=AXIS2_PLACEMENT_3D('',#488,#404,#405);
#352=AXIS2_PLACEMENT_3D('',#489,#406,#407);
#353=AXIS2_PLACEMENT_3D('',#491,#408,#409);
#354=AXIS2_PLACEMENT_3D('',#492,#410,#411);
#355=AXIS2_PLACEMENT_3D('',#494,#412,#413);
#356=AXIS2_PLACEMENT_3D('',#495,#414,#415);
#357=AXIS2_PLACEMENT_3D('',#497,#416,#417);
#358=AXIS2_PLACEMENT_3D('',#498,#418,#419);
#359=AXIS2_PLACEMENT_3D('',#499,#420,#421);
#360=AXIS2_PLACEMENT_3D('',#502,#422,#423);
#361=AXIS2_PLACEMENT_3D('',#503,#424,#425);
#362=AXIS2_PLACEMENT_3D('',#505,#426,#427);
#363=AXIS2_PLACEMENT_3D('',#506,#428,#429);
#364=AXIS2_PLACEMENT_3D('',#508,#430,#431);
#365=AXIS2_PLACEMENT_3D('',#509,#432,#433);
#366=AXIS2_PLACEMENT_3D('',#511,#434,#435);
#367=AXIS2_PLACEMENT_3D('',#512,#436,#437);
#368=AXIS2_PLACEMENT_3D('',#514,#438,#439);
#369=AXIS2_PLACEMENT_3D('',#515,#440,#441);
#370=AXIS2_PLACEMENT_3D('',#517,#442,#443);
#371=AXIS2_PLACEMENT_3D('',#518,#444,#445);
#372=AXIS2_PLACEMENT_3D('',#520,#446,#447);
#373=AXIS2_PLACEMENT_3D('',#521,#448,#449);
#374=AXIS2_PLACEMENT_3D('',#523,#450,#451);
#375=AXIS2_PLACEMENT_3D('',#524,#452,#453);
#376=AXIS2_PLACEMENT_3D('',#526,#454,#455);
#377=AXIS2_PLACEMENT_3D('',#527,#456,#457);
#378=AXIS2_PLACEMENT_3D('',#529,#458,#459);
#379=AXIS2_PLACEMENT_3D('',#530,#460,#461);
#380=AXIS2_PLACEMENT_3D('',#532,#462,#463);
#381=AXIS2_PLACEMENT_3D('',#533,#464,#465);
#382=AXIS2_PLACEMENT_3D('',#535,#466,#467);
#383=AXIS2_PLACEMENT_3D('',#536,#468,#469);
#384=AXIS2_PLACEMENT_3D('',#538,#470,#471);
#385=AXIS2_PLACEMENT_3D('',#539,#472,#473);
#386=DIRECTION('',(0.0,0.0,1.0));
#387=DIRECTION('',(1.0,0.0,0.0));
#388=DIRECTION('',(0.0,0.0,-1.0));
#389=DIRECTION('',(1.0,0.0,0.0));
#390=DIRECTION('',(0.0,0.0,-1.0));
#391=DIRECTION('',(1.0,0.0,0.0));
#392=DIRECTION('',(0.0,0.0,-1.0));
#393=DIRECTION('',(1.0,0.0,0.0));
#394=DIRECTION('',(0.0,0.0,-1.0));
#395=DIRECTION('',(1.0,0.0,0.0));
#396=DIRECTION('',(0.0,0.0,-1.0));
#397=DIRECTION('',(1.0,0.0,0.0));
#398=DIRECTION('',(0.0,0.0,-1.0));
#399=DIRECTION('',(1.0,0.0,0.0));
#400=DIRECTION('',(0.0,0.0,1.0));
#401=DIRECTION('',(-1.0,0.0,-9.68933742893524E-17));
#402=DIRECTION('',(0.0,0.0,-1.0));
#403=DIRECTION('',(1.0,0.0,0.0));
#404=DIRECTION('',(0.0,0.0,-1.0));
#405=DIRECTION('',(1.0,0.0,0.0));
#406=DIRECTION('',(0.0,0.0,-1.0));
#407=DIRECTION('',(1.0,0.0,0.0));
#408=DIRECTION('',(0.0,0.0,-1.0));
#409=DIRECTION('',(1.0,0.0,0.0));
#410=DIRECTION('',(0.0,0.0,-1.0));
#411=DIRECTION('',(1.0,0.0,0.0));
#412=DIRECTION('',(0.0,0.0,-1.0));
#413=DIRECTION('',(1.0,0.0,0.0));
#414=DIRECTION('',(0.0,0.0,-1.0));
#415=DIRECTION('',(1.0,0.0,0.0));
#416=DIRECTION('',(0.0,0.0,-1.0));
#417=DIRECTION('',(1.0,0.0,0.0));
#418=DIRECTION('',(0.0,0.0,-1.0));
#419=DIRECTION('',(1.0,0.0,0.0));
#420=DIRECTION('',(0.0,0.0,-1.0));
#421=DIRECTION('',(1.0,0.0,0.0));
#422=DIRECTION('',(0.0,0.0,-1.0));
#423=DIRECTION('',(1.0,0.0,-3.33544646917461E-17));
#424=DIRECTION('',(0.0,0.0,-1.0));
#425=DIRECTION('',(1.0,0.0,0.0));
#426=DIRECTION('',(0.0,0.0,-1.0));
#427=DIRECTION('',(1.0,0.0,0.0));
#428=DIRECTION('',(0.0,0.0,-1.0));
#429=DIRECTION('',(1.0,0.0,0.0));
#430=DIRECTION('',(0.0,0.0,-1.0));
#431=DIRECTION('',(1.0,0.0,0.0));
#432=DIRECTION('',(0.0,0.0,-1.0));
#433=DIRECTION('',(1.0,0.0,0.0));
#434=DIRECTION('',(0.0,0.0,-1.0));
#435=DIRECTION('',(1.0,0.0,1.95591366982102E-17));
#436=DIRECTION('',(0.0,0.0,-1.0));
#437=DIRECTION('',(1.0,0.0,0.0));
#438=DIRECTION('',(0.0,0.0,-1.0));
#439=DIRECTION('',(1.0,0.0,0.0));
#440=DIRECTION('',(0.0,0.0,-1.0));
#441=DIRECTION('',(1.0,0.0,0.0));
#442=DIRECTION('',(0.0,0.0,1.0));
#443=DIRECTION('',(-1.0,0.0,0.0));
#444=DIRECTION('',(0.0,0.0,-1.0));
#445=DIRECTION('',(1.0,0.0,0.0));
#446=DIRECTION('',(0.0,0.0,-1.0));
#447=DIRECTION('',(1.0,0.0,0.0));
#448=DIRECTION('',(0.0,0.0,-1.0));
#449=DIRECTION('',(1.0,0.0,0.0));
#450=DIRECTION('',(0.0,0.0,-1.0));
#451=DIRECTION('',(1.0,0.0,5.02859190318897E-16));
#452=DIRECTION('',(0.0,0.0,-1.0));
#453=DIRECTION('',(1.0,0.0,0.0));
#454=DIRECTION('',(0.0,0.0,-1.0));
#455=DIRECTION('',(1.0,0.0,2.0158803790661E-17));
#456=DIRECTION('',(0.0,0.0,-1.0));
#457=DIRECTION('',(1.0,0.0,0.0));
#458=DIRECTION('',(0.0,0.0,-1.0));
#459=DIRECTION('',(1.0,0.0,0.0));
#460=DIRECTION('',(0.0,0.0,-1.0));
#461=DIRECTION('',(1.0,0.0,0.0));
#462=DIRECTION('',(0.0,0.0,-1.0));
#463=DIRECTION('',(1.0,0.0,0.0));
#464=DIRECTION('',(0.0,0.0,-1.0));
#465=DIRECTION('',(1.0,0.0,0.0));
#466=DIRECTION('',(0.0,0.0,-1.0));
#467=DIRECTION('',(1.0,0.0,0.0));
#468=DIRECTION('',(0.0,0.0,-1.0));
#469=DIRECTION('',(1.0,0.0,0.0));
#470=DIRECTION('',(0.0,0.0,-1.0));
#471=DIRECTION('',(1.0,0.0,0.0));
#472=DIRECTION('',(0.0,0.0,-1.0));
#473=DIRECTION('',(1.0,0.0,0.0));
#474=CARTESIAN_POINT('',(0.0,0.0,0.0));
#475=CARTESIAN_POINT('',(0.0,0.0,-196.0));
#476=CARTESIAN_POINT('',(9.84674999999999,0.0,-196.0));
#477=CARTESIAN_POINT('',(0.0,0.0,-0.999999999999999));
#478=CARTESIAN_POINT('',(9.84675,0.0,-0.999999999999999));
#479=CARTESIAN_POINT('',(0.0,0.0,70.5183697733042));
#480=CARTESIAN_POINT('',(0.0,0.0,-196.106722008035));
#481=CARTESIAN_POINT('',(9.83225021141506,0.0,-196.106722008035));
#482=CARTESIAN_POINT('',(0.0,0.0,-196.0));
#483=CARTESIAN_POINT('',(0.0,0.0,-196.893277991965));
#484=CARTESIAN_POINT('',(9.61449978858492,0.0,-196.893277991965));
#485=CARTESIAN_POINT('',(0.0,0.0,-196.893277991965));
#486=CARTESIAN_POINT('',(0.0,0.0,-197.0));
#487=CARTESIAN_POINT('',(9.6,0.0,-197.0));
#488=CARTESIAN_POINT('',(0.0,0.0,-197.0));
#489=CARTESIAN_POINT('',(0.0,0.0,-200.0));
#490=CARTESIAN_POINT('',(9.6,0.0,-200.0));
#491=CARTESIAN_POINT('',(0.0,0.0,70.5183697733042));
#492=CARTESIAN_POINT('',(0.0,0.0,-200.0));
#493=CARTESIAN_POINT('',(7.96746876431976,0.0,-200.0));
#494=CARTESIAN_POINT('',(2.66453525910038E-14,0.0,-200.0));
#495=CARTESIAN_POINT('',(0.0,0.0,0.0));
#496=CARTESIAN_POINT('',(8.84675,0.0,0.0));
#497=CARTESIAN_POINT('',(0.0,0.0,0.0));
#498=CARTESIAN_POINT('',(0.0,0.0,0.0));
#499=CARTESIAN_POINT('',(0.0,0.0,-178.5));
#500=CARTESIAN_POINT('',(4.625,0.0,-178.5));
#501=CARTESIAN_POINT('',(0.0,0.0,-175.721019636998));
#502=CARTESIAN_POINT('',(0.0,0.0,-175.721019636998));
#503=CARTESIAN_POINT('',(0.0,0.0,-182.5));
#504=CARTESIAN_POINT('',(4.625,0.0,-182.5));
#505=CARTESIAN_POINT('',(0.0,0.0,-200.0));
#506=CARTESIAN_POINT('',(0.0,0.0,-182.893923101205));
#507=CARTESIAN_POINT('',(4.95554072893323,0.0,-182.893923101205));
#508=CARTESIAN_POINT('',(0.0,0.0,-182.5));
#509=CARTESIAN_POINT('',(0.0,0.0,-182.999151729659));
#510=CARTESIAN_POINT('',(5.552321936388,0.0,-182.999151729659));
#511=CARTESIAN_POINT('',(0.0,0.0,-182.893923101205));
#512=CARTESIAN_POINT('',(0.0,0.0,-185.501002215597));
#513=CARTESIAN_POINT('',(5.77120549174436,0.0,-185.501002215597));
#514=CARTESIAN_POINT('',(0.0,0.0,-184.279401808575));
#515=CARTESIAN_POINT('',(0.0,0.0,-185.582311566379));
#516=CARTESIAN_POINT('',(5.54780988648006,0.0,-185.582311566379));
#517=CARTESIAN_POINT('',(0.0,0.0,-185.501002215597));
#518=CARTESIAN_POINT('',(0.0,0.0,-186.0));
#519=CARTESIAN_POINT('',(5.28680918566302,0.0,-186.0));
#520=CARTESIAN_POINT('',(0.0,0.0,-185.958188614693));
#521=CARTESIAN_POINT('',(0.0,0.0,-194.834));
#522=CARTESIAN_POINT('',(6.2153,0.0,-194.834));
#523=CARTESIAN_POINT('',(0.0,0.0,-186.0));
#524=CARTESIAN_POINT('',(0.0,0.0,-195.130056354157));
#525=CARTESIAN_POINT('',(7.02870814793346,0.0,-195.130056354157));
#526=CARTESIAN_POINT('',(0.0,0.0,-194.834));
#527=CARTESIAN_POINT('',(0.0,0.0,-195.59990266455));
#528=CARTESIAN_POINT('',(7.35769807627063,0.0,-195.59990266455));
#529=CARTESIAN_POINT('',(0.0,0.0,-195.59990266455));
#530=CARTESIAN_POINT('',(0.0,0.0,-197.2));
#531=CARTESIAN_POINT('',(7.35769807627063,0.0,-197.2));
#532=CARTESIAN_POINT('',(0.0,0.0,-200.0));
#533=CARTESIAN_POINT('',(0.0,0.0,-197.5));
#534=CARTESIAN_POINT('',(7.25769807627063,0.0,-197.5));
#535=CARTESIAN_POINT('',(0.0,0.0,-197.2));
#536=CARTESIAN_POINT('',(0.0,0.0,-199.4));
#537=CARTESIAN_POINT('',(7.32404753830495,0.0,-199.4));
#538=CARTESIAN_POINT('',(0.0,0.0,-197.5));
#539=CARTESIAN_POINT('',(0.0,0.0,-199.4));
#540=MECHANICAL_DESIGN_GEOMETRIC_PRESENTATION_REPRESENTATION('',(#96),#541);
#541=(GEOMETRIC_REPRESENTATION_CONTEXT(3)GLOBAL_UNCERTAINTY_ASSIGNED_CONTEXT((#542))
     GLOBAL_UNIT_ASSIGNED_CONTEXT((#548,#544,#543))REPRESENTATION_CONTEXT('1348_1_3D',
     'TOP_LEVEL_ASSEMBLY_PART'));
#542=UNCERTAINTY_MEASURE_WITH_UNIT(LENGTH_MEASURE(2.0E-5),#548,'DISTANCE_ACCURACY_VALUE',
     'Maximum Tolerance applied to model');
#543=(NAMED_UNIT(*)SI_UNIT($,.STERADIAN.)SOLID_ANGLE_UNIT());
#544=(CONVERSION_BASED_UNIT('DEGREE',#546)NAMED_UNIT(*)PLANE_ANGLE_UNIT());
#545=DIMENSIONAL_EXPONENTS(0.0,0.0,0.0,0.0,0.0,0.0,0.0);
#546=PLANE_ANGLE_MEASURE_WITH_UNIT(PLANE_ANGLE_MEASURE(0.0174532925),#547);
#547=(NAMED_UNIT(*)PLANE_ANGLE_UNIT()SI_UNIT($,.RADIAN.));
#548=(LENGTH_UNIT()NAMED_UNIT(*)SI_UNIT(.MILLI.,.METRE.));
#549=CARTESIAN_POINT('',(0.0,0.0,0.0));
#550=DIRECTION('',(0.0,0.0,1.0));
#551=DIRECTION('',(1.0,0.0,0.0));
#552=AXIS2_PLACEMENT_3D('PCS',#549,#550,#551);
#553=CARTESIAN_POINT('',(0.0,0.0,-47.0));
#554=DIRECTION('',(0.0,0.0,1.0));
#555=DIRECTION('',(1.0,0.0,0.0));
#556=AXIS2_PLACEMENT_3D('MCS',#553,#554,#555);
#557=CARTESIAN_POINT('',(0.0,0.0,-200.0));
#558=DIRECTION('',(0.0,0.0,1.0));
#559=DIRECTION('',(1.0,0.0,0.0));
#560=AXIS2_PLACEMENT_3D('CSW',#557,#558,#559);
#561=CONSTRUCTIVE_GEOMETRY_REPRESENTATION('supplemental geometry',(#552,#556,#560),
     #541);
#562=CONSTRUCTIVE_GEOMETRY_REPRESENTATION_RELATIONSHIP('supplemental geometry',$,
     #94,#561);
ENDSEC;
END-ISO-10303-21;
