ISO-10303-21;
HEADER;
FILE_DESCRIPTION(
/* description */ ('3-D model version:1'),
/* implementation_level */ '2;1');
FILE_NAME(
/* name */ 'EH10-A09.7-SS-080',
/* time_stamp */ '2016-12-02T14:02:40',
/* author */ ('InteractiveCad'),
/* organization */ ('AB Sandvik Coromant'),
/* preprocessor_version */ 'ST-DEVELOPER v15',
/* originating_system */ 'SIEMENS PLM Software NX 8.5',
/* authorization */ '');
FILE_SCHEMA(('AUTOMOTIVE_DESIGN'));
ENDSEC;
DATA;
#10=SHAPE_REPRESENTATION_RELATIONSHIP('None','relationship between EH10-A09.7-SS-080-635461140589907096-1-None and EH10-A09.7-SS-080-635461140589907096-1-None',
     #92,#11);
#11=ADVANCED_BREP_SHAPE_REPRESENTATION('EH10-A09.7-SS-080-635461140589907096-1-None',
     (#102),#519);
#15=APPROVAL_PERSON_ORGANIZATION(#69,#24,#18);
#16=APPROVAL_PERSON_ORGANIZATION(#70,#25,#19);
#17=APPROVAL_PERSON_ORGANIZATION(#71,#26,#20);
#18=APPROVAL_ROLE('approver');
#19=APPROVAL_ROLE('approver');
#20=APPROVAL_ROLE('approver');
#21=APPROVAL_DATE_TIME(#39,#24);
#22=APPROVAL_DATE_TIME(#40,#25);
#23=APPROVAL_DATE_TIME(#41,#26);
#24=APPROVAL(#27,' ');
#25=APPROVAL(#28,' ');
#26=APPROVAL(#29,' ');
#27=APPROVAL_STATUS('not_yet_approved');
#28=APPROVAL_STATUS('not_yet_approved');
#29=APPROVAL_STATUS('not_yet_approved');
#31=SECURITY_CLASSIFICATION(' ',' ',#32);
#32=SECURITY_CLASSIFICATION_LEVEL('confidential');
#35=DATE_TIME_ROLE('creation_date');
#36=DATE_TIME_ROLE('classification_date');
#37=DATE_AND_TIME(#52,#42);
#38=DATE_AND_TIME(#53,#43);
#39=DATE_AND_TIME(#54,#44);
#40=DATE_AND_TIME(#55,#45);
#41=DATE_AND_TIME(#56,#46);
#42=LOCAL_TIME(0,0,0.0,#47);
#43=LOCAL_TIME(0,0,0.0,#48);
#44=LOCAL_TIME(0,0,0.0,#49);
#45=LOCAL_TIME(0,0,0.0,#50);
#46=LOCAL_TIME(0,0,0.0,#51);
#47=COORDINATED_UNIVERSAL_TIME_OFFSET(0,0,.BEHIND.);
#48=COORDINATED_UNIVERSAL_TIME_OFFSET(0,0,.BEHIND.);
#49=COORDINATED_UNIVERSAL_TIME_OFFSET(0,0,.BEHIND.);
#50=COORDINATED_UNIVERSAL_TIME_OFFSET(0,0,.BEHIND.);
#51=COORDINATED_UNIVERSAL_TIME_OFFSET(0,0,.BEHIND.);
#52=CALENDAR_DATE(0,1,1);
#53=CALENDAR_DATE(0,1,1);
#54=CALENDAR_DATE(0,1,1);
#55=CALENDAR_DATE(0,1,1);
#56=CALENDAR_DATE(0,1,1);
#61=PERSON_AND_ORGANIZATION_ROLE('creator');
#62=PERSON_AND_ORGANIZATION_ROLE('design_owner');
#63=PERSON_AND_ORGANIZATION_ROLE('design_supplier');
#64=PERSON_AND_ORGANIZATION_ROLE('classification_officer');
#65=PERSON_AND_ORGANIZATION(#79,#72);
#66=PERSON_AND_ORGANIZATION(#79,#73);
#67=PERSON_AND_ORGANIZATION(#79,#74);
#68=PERSON_AND_ORGANIZATION(#79,#75);
#69=PERSON_AND_ORGANIZATION(#79,#76);
#70=PERSON_AND_ORGANIZATION(#79,#77);
#71=PERSON_AND_ORGANIZATION(#79,#78);
#72=ORGANIZATION(' ',' ',' ');
#73=ORGANIZATION(' ',' ',' ');
#74=ORGANIZATION(' ',' ',' ');
#75=ORGANIZATION(' ',' ',' ');
#76=ORGANIZATION(' ',' ',' ');
#77=ORGANIZATION(' ',' ',' ');
#78=ORGANIZATION(' ',' ',' ');
#79=PERSON(' ',' ',' ',(' '),$,$);
#80=SHAPE_DEFINITION_REPRESENTATION(#81,#92);
#81=PRODUCT_DEFINITION_SHAPE('','',#82);
#82=PRODUCT_DEFINITION(' ','',#84,$);
#84=PRODUCT_DEFINITION_FORMATION_WITH_SPECIFIED_SOURCE(' ',' ',#86,.NOT_KNOWN.);
#85=PRODUCT_RELATED_PRODUCT_CATEGORY('detail','',(#86));
#86=PRODUCT('EH10-A09.7-SS-080-635461140589907096-1','EH10-A09.7-SS-080-635461140589907096-1',
     ' ',());
#87=PRODUCT_CATEGORY('part',' ');
#88=PRODUCT_CATEGORY(' ','');
#90=APPLICATION_PROTOCOL_DEFINITION('international standard','config_control_design',
     2010,#91);
#91=APPLICATION_CONTEXT('configuration controlled 3D designs of mechanical parts and assemblies');
#92=SHAPE_REPRESENTATION('EH10-A09.7-SS-080-635461140589907096-1-None',(#329),#519);
#93=PRESENTATION_LAYER_ASSIGNMENT('1','Layer 1',(#102));
#94=STYLED_ITEM('',(#95),#102);
#95=PRESENTATION_STYLE_ASSIGNMENT((#96));
#96=SURFACE_STYLE_USAGE(.BOTH.,#97);
#97=SURFACE_SIDE_STYLE('',(#98));
#98=SURFACE_STYLE_FILL_AREA(#99);
#99=FILL_AREA_STYLE('',(#100));
#100=FILL_AREA_STYLE_COLOUR('',#101);
#101=COLOUR_RGB('TLS_NOCUT',0.499992370489052,0.499992370489052,0.499992370489052);
#102=MANIFOLD_SOLID_BREP('NOCUT',#103);
#103=CLOSED_SHELL('',(#123,#124,#125,#126,#127,#128,#129,#130,#131,#132,#133,#134,
     #135,#136,#137,#138,#139,#140,#141,#142,#143));
#104=VERTEX_LOOP('',#277);
#105=FACE_OUTER_BOUND('',#200,.T.);
#106=PLANE('',#342);
#107=PLANE('',#344);
#108=CONICAL_SURFACE('',#336,4.80047345784018,2.78798952500009);
#109=CONICAL_SURFACE('',#345,3.84775,45.0);
#110=CONICAL_SURFACE('',#347,4.44089209850063E-16,59.0000000000001);
#111=CONICAL_SURFACE('',#353,2.3732361909795,74.9999999999912);
#112=CONICAL_SURFACE('',#357,2.72160459229349,49.9999999999992);
#113=CONICAL_SURFACE('',#359,2.59027234429821,5.99999999999999);
#114=CONICAL_SURFACE('',#361,3.13,74.9999999999999);
#115=CONICAL_SURFACE('',#369,3.54813469186403,2.00000000000002);
#116=CONICAL_SURFACE('',#370,3.59003961525413,45.0);
#117=TOROIDAL_SURFACE('',#334,4.44775,0.400000000000007);
#118=TOROIDAL_SURFACE('',#338,5.2,0.399999999999995);
#119=TOROIDAL_SURFACE('',#351,2.425,0.2);
#120=TOROIDAL_SURFACE('',#355,2.20737450454426,0.799999999999997);
#121=TOROIDAL_SURFACE('',#363,3.44813469186403,0.2);
#122=TOROIDAL_SURFACE('',#367,3.44813469186403,0.2);
#123=ADVANCED_FACE('FP_EH_SU1',(#148,#149),#144,.T.);
#124=ADVANCED_FACE('',(#150,#151),#117,.T.);
#125=ADVANCED_FACE('FP_EH_SU2',(#152,#153),#108,.T.);
#126=ADVANCED_FACE('',(#154,#155),#118,.F.);
#127=ADVANCED_FACE('FP_EH_SU3',(#156,#157),#145,.T.);
#128=ADVANCED_FACE('FP_EH_SU4',(#158,#159),#106,.T.);
#129=ADVANCED_FACE('',(#105),#107,.F.);
#130=ADVANCED_FACE('',(#160,#161),#109,.T.);
#131=ADVANCED_FACE('',(#162,#163),#110,.F.);
#132=ADVANCED_FACE('DCH3',(#164,#165),#146,.F.);
#133=ADVANCED_FACE('',(#166,#167),#119,.T.);
#134=ADVANCED_FACE('',(#168,#169),#111,.F.);
#135=ADVANCED_FACE('',(#170,#171),#120,.F.);
#136=ADVANCED_FACE('',(#172,#173),#112,.F.);
#137=ADVANCED_FACE('TSALN',(#174,#175),#113,.F.);
#138=ADVANCED_FACE('',(#176,#177),#114,.F.);
#139=ADVANCED_FACE('',(#178,#179),#121,.F.);
#140=ADVANCED_FACE('DCH2',(#180,#181),#147,.F.);
#141=ADVANCED_FACE('',(#182,#183),#122,.F.);
#142=ADVANCED_FACE('TSAN',(#184,#185),#115,.F.);
#143=ADVANCED_FACE('DCH4',(#186,#187),#116,.F.);
#144=CYLINDRICAL_SURFACE('',#332,4.84775);
#145=CYLINDRICAL_SURFACE('',#340,4.8);
#146=CYLINDRICAL_SURFACE('',#349,2.225);
#147=CYLINDRICAL_SURFACE('',#365,3.64813469186403);
#148=FACE_BOUND('',#188,.T.);
#149=FACE_BOUND('',#189,.T.);
#150=FACE_BOUND('',#190,.T.);
#151=FACE_BOUND('',#191,.T.);
#152=FACE_BOUND('',#192,.T.);
#153=FACE_BOUND('',#193,.T.);
#154=FACE_BOUND('',#194,.T.);
#155=FACE_BOUND('',#195,.T.);
#156=FACE_BOUND('',#196,.T.);
#157=FACE_BOUND('',#197,.T.);
#158=FACE_BOUND('',#198,.T.);
#159=FACE_BOUND('',#199,.T.);
#160=FACE_BOUND('',#201,.T.);
#161=FACE_BOUND('',#202,.T.);
#162=FACE_BOUND('',#203,.T.);
#163=FACE_BOUND('',#104,.T.);
#164=FACE_BOUND('',#204,.T.);
#165=FACE_BOUND('',#205,.T.);
#166=FACE_BOUND('',#206,.T.);
#167=FACE_BOUND('',#207,.T.);
#168=FACE_BOUND('',#208,.T.);
#169=FACE_BOUND('',#209,.T.);
#170=FACE_BOUND('',#210,.T.);
#171=FACE_BOUND('',#211,.T.);
#172=FACE_BOUND('',#212,.T.);
#173=FACE_BOUND('',#213,.T.);
#174=FACE_BOUND('',#214,.T.);
#175=FACE_BOUND('',#215,.T.);
#176=FACE_BOUND('',#216,.T.);
#177=FACE_BOUND('',#217,.T.);
#178=FACE_BOUND('',#218,.T.);
#179=FACE_BOUND('',#219,.T.);
#180=FACE_BOUND('',#220,.T.);
#181=FACE_BOUND('',#221,.T.);
#182=FACE_BOUND('',#222,.T.);
#183=FACE_BOUND('',#223,.T.);
#184=FACE_BOUND('',#224,.T.);
#185=FACE_BOUND('',#225,.T.);
#186=FACE_BOUND('',#226,.T.);
#187=FACE_BOUND('',#227,.T.);
#188=EDGE_LOOP('',(#228));
#189=EDGE_LOOP('',(#229));
#190=EDGE_LOOP('',(#230));
#191=EDGE_LOOP('',(#231));
#192=EDGE_LOOP('',(#232));
#193=EDGE_LOOP('',(#233));
#194=EDGE_LOOP('',(#234));
#195=EDGE_LOOP('',(#235));
#196=EDGE_LOOP('',(#236));
#197=EDGE_LOOP('',(#237));
#198=EDGE_LOOP('',(#238));
#199=EDGE_LOOP('',(#239));
#200=EDGE_LOOP('',(#240));
#201=EDGE_LOOP('',(#241));
#202=EDGE_LOOP('',(#242));
#203=EDGE_LOOP('',(#243));
#204=EDGE_LOOP('',(#244));
#205=EDGE_LOOP('',(#245));
#206=EDGE_LOOP('',(#246));
#207=EDGE_LOOP('',(#247));
#208=EDGE_LOOP('',(#248));
#209=EDGE_LOOP('',(#249));
#210=EDGE_LOOP('',(#250));
#211=EDGE_LOOP('',(#251));
#212=EDGE_LOOP('',(#252));
#213=EDGE_LOOP('',(#253));
#214=EDGE_LOOP('',(#254));
#215=EDGE_LOOP('',(#255));
#216=EDGE_LOOP('',(#256));
#217=EDGE_LOOP('',(#257));
#218=EDGE_LOOP('',(#258));
#219=EDGE_LOOP('',(#259));
#220=EDGE_LOOP('',(#260));
#221=EDGE_LOOP('',(#261));
#222=EDGE_LOOP('',(#262));
#223=EDGE_LOOP('',(#263));
#224=EDGE_LOOP('',(#264));
#225=EDGE_LOOP('',(#265));
#226=EDGE_LOOP('',(#266));
#227=EDGE_LOOP('',(#267));
#228=ORIENTED_EDGE('',*,*,#289,.F.);
#229=ORIENTED_EDGE('',*,*,#290,.T.);
#230=ORIENTED_EDGE('',*,*,#289,.T.);
#231=ORIENTED_EDGE('',*,*,#291,.F.);
#232=ORIENTED_EDGE('',*,*,#291,.T.);
#233=ORIENTED_EDGE('',*,*,#292,.F.);
#234=ORIENTED_EDGE('',*,*,#292,.T.);
#235=ORIENTED_EDGE('',*,*,#293,.F.);
#236=ORIENTED_EDGE('',*,*,#293,.T.);
#237=ORIENTED_EDGE('',*,*,#294,.F.);
#238=ORIENTED_EDGE('',*,*,#295,.F.);
#239=ORIENTED_EDGE('',*,*,#294,.T.);
#240=ORIENTED_EDGE('',*,*,#296,.F.);
#241=ORIENTED_EDGE('',*,*,#290,.F.);
#242=ORIENTED_EDGE('',*,*,#296,.T.);
#243=ORIENTED_EDGE('',*,*,#297,.T.);
#244=ORIENTED_EDGE('',*,*,#298,.T.);
#245=ORIENTED_EDGE('',*,*,#297,.F.);
#246=ORIENTED_EDGE('',*,*,#299,.T.);
#247=ORIENTED_EDGE('',*,*,#298,.F.);
#248=ORIENTED_EDGE('',*,*,#300,.T.);
#249=ORIENTED_EDGE('',*,*,#299,.F.);
#250=ORIENTED_EDGE('',*,*,#301,.T.);
#251=ORIENTED_EDGE('',*,*,#300,.F.);
#252=ORIENTED_EDGE('',*,*,#302,.T.);
#253=ORIENTED_EDGE('',*,*,#301,.F.);
#254=ORIENTED_EDGE('',*,*,#303,.T.);
#255=ORIENTED_EDGE('',*,*,#302,.F.);
#256=ORIENTED_EDGE('',*,*,#304,.T.);
#257=ORIENTED_EDGE('',*,*,#303,.F.);
#258=ORIENTED_EDGE('',*,*,#305,.T.);
#259=ORIENTED_EDGE('',*,*,#304,.F.);
#260=ORIENTED_EDGE('',*,*,#306,.T.);
#261=ORIENTED_EDGE('',*,*,#305,.F.);
#262=ORIENTED_EDGE('',*,*,#307,.T.);
#263=ORIENTED_EDGE('',*,*,#306,.F.);
#264=ORIENTED_EDGE('',*,*,#308,.T.);
#265=ORIENTED_EDGE('',*,*,#307,.F.);
#266=ORIENTED_EDGE('',*,*,#295,.T.);
#267=ORIENTED_EDGE('',*,*,#308,.F.);
#268=VERTEX_POINT('',#457);
#269=VERTEX_POINT('',#459);
#270=VERTEX_POINT('',#462);
#271=VERTEX_POINT('',#465);
#272=VERTEX_POINT('',#468);
#273=VERTEX_POINT('',#471);
#274=VERTEX_POINT('',#474);
#275=VERTEX_POINT('',#477);
#276=VERTEX_POINT('',#481);
#277=VERTEX_POINT('',#482);
#278=VERTEX_POINT('',#485);
#279=VERTEX_POINT('',#488);
#280=VERTEX_POINT('',#491);
#281=VERTEX_POINT('',#494);
#282=VERTEX_POINT('',#497);
#283=VERTEX_POINT('',#500);
#284=VERTEX_POINT('',#503);
#285=VERTEX_POINT('',#506);
#286=VERTEX_POINT('',#509);
#287=VERTEX_POINT('',#512);
#288=VERTEX_POINT('',#515);
#289=EDGE_CURVE('',#268,#268,#309,.T.);
#290=EDGE_CURVE('',#269,#269,#310,.T.);
#291=EDGE_CURVE('',#270,#270,#311,.T.);
#292=EDGE_CURVE('',#271,#271,#312,.T.);
#293=EDGE_CURVE('',#272,#272,#313,.T.);
#294=EDGE_CURVE('',#273,#273,#314,.T.);
#295=EDGE_CURVE('',#274,#274,#315,.T.);
#296=EDGE_CURVE('',#275,#275,#316,.T.);
#297=EDGE_CURVE('',#276,#276,#317,.T.);
#298=EDGE_CURVE('',#278,#278,#318,.T.);
#299=EDGE_CURVE('',#279,#279,#319,.T.);
#300=EDGE_CURVE('',#280,#280,#320,.T.);
#301=EDGE_CURVE('',#281,#281,#321,.T.);
#302=EDGE_CURVE('',#282,#282,#322,.T.);
#303=EDGE_CURVE('',#283,#283,#323,.T.);
#304=EDGE_CURVE('',#284,#284,#324,.T.);
#305=EDGE_CURVE('',#285,#285,#325,.T.);
#306=EDGE_CURVE('',#286,#286,#326,.T.);
#307=EDGE_CURVE('',#287,#287,#327,.T.);
#308=EDGE_CURVE('',#288,#288,#328,.T.);
#309=CIRCLE('',#330,4.84775000000001);
#310=CIRCLE('',#331,4.84775);
#311=CIRCLE('',#333,4.84727654215983);
#312=CIRCLE('',#335,4.80047345784018);
#313=CIRCLE('',#337,4.8);
#314=CIRCLE('',#339,4.8);
#315=CIRCLE('',#341,4.09003961525413);
#316=CIRCLE('',#343,3.84775);
#317=CIRCLE('',#346,2.225);
#318=CIRCLE('',#348,2.225);
#319=CIRCLE('',#350,2.3732361909795);
#320=CIRCLE('',#352,2.41442974062627);
#321=CIRCLE('',#354,2.72160459229349);
#322=CIRCLE('',#356,2.59027234429821);
#323=CIRCLE('',#358,3.13);
#324=CIRCLE('',#360,3.49989850088453);
#325=CIRCLE('',#362,3.64813469186403);
#326=CIRCLE('',#364,3.64813469186403);
#327=CIRCLE('',#366,3.54813469186403);
#328=CIRCLE('',#368,3.59003961525413);
#329=AXIS2_PLACEMENT_3D('',#455,#371,#372);
#330=AXIS2_PLACEMENT_3D('',#456,#373,#374);
#331=AXIS2_PLACEMENT_3D('',#458,#375,#376);
#332=AXIS2_PLACEMENT_3D('',#460,#377,#378);
#333=AXIS2_PLACEMENT_3D('',#461,#379,#380);
#334=AXIS2_PLACEMENT_3D('',#463,#381,#382);
#335=AXIS2_PLACEMENT_3D('',#464,#383,#384);
#336=AXIS2_PLACEMENT_3D('',#466,#385,#386);
#337=AXIS2_PLACEMENT_3D('',#467,#387,#388);
#338=AXIS2_PLACEMENT_3D('',#469,#389,#390);
#339=AXIS2_PLACEMENT_3D('',#470,#391,#392);
#340=AXIS2_PLACEMENT_3D('',#472,#393,#394);
#341=AXIS2_PLACEMENT_3D('',#473,#395,#396);
#342=AXIS2_PLACEMENT_3D('',#475,#397,#398);
#343=AXIS2_PLACEMENT_3D('',#476,#399,#400);
#344=AXIS2_PLACEMENT_3D('',#478,#401,#402);
#345=AXIS2_PLACEMENT_3D('',#479,#403,#404);
#346=AXIS2_PLACEMENT_3D('',#480,#405,#406);
#347=AXIS2_PLACEMENT_3D('',#483,#407,#408);
#348=AXIS2_PLACEMENT_3D('',#484,#409,#410);
#349=AXIS2_PLACEMENT_3D('',#486,#411,#412);
#350=AXIS2_PLACEMENT_3D('',#487,#413,#414);
#351=AXIS2_PLACEMENT_3D('',#489,#415,#416);
#352=AXIS2_PLACEMENT_3D('',#490,#417,#418);
#353=AXIS2_PLACEMENT_3D('',#492,#419,#420);
#354=AXIS2_PLACEMENT_3D('',#493,#421,#422);
#355=AXIS2_PLACEMENT_3D('',#495,#423,#424);
#356=AXIS2_PLACEMENT_3D('',#496,#425,#426);
#357=AXIS2_PLACEMENT_3D('',#498,#427,#428);
#358=AXIS2_PLACEMENT_3D('',#499,#429,#430);
#359=AXIS2_PLACEMENT_3D('',#501,#431,#432);
#360=AXIS2_PLACEMENT_3D('',#502,#433,#434);
#361=AXIS2_PLACEMENT_3D('',#504,#435,#436);
#362=AXIS2_PLACEMENT_3D('',#505,#437,#438);
#363=AXIS2_PLACEMENT_3D('',#507,#439,#440);
#364=AXIS2_PLACEMENT_3D('',#508,#441,#442);
#365=AXIS2_PLACEMENT_3D('',#510,#443,#444);
#366=AXIS2_PLACEMENT_3D('',#511,#445,#446);
#367=AXIS2_PLACEMENT_3D('',#513,#447,#448);
#368=AXIS2_PLACEMENT_3D('',#514,#449,#450);
#369=AXIS2_PLACEMENT_3D('',#516,#451,#452);
#370=AXIS2_PLACEMENT_3D('',#517,#453,#454);
#371=DIRECTION('',(0.0,0.0,1.0));
#372=DIRECTION('',(1.0,0.0,0.0));
#373=DIRECTION('',(0.0,0.0,-1.0));
#374=DIRECTION('',(1.0,0.0,0.0));
#375=DIRECTION('',(0.0,0.0,-1.0));
#376=DIRECTION('',(1.0,0.0,0.0));
#377=DIRECTION('',(0.0,0.0,-1.0));
#378=DIRECTION('',(-1.0,0.0,0.0));
#379=DIRECTION('',(0.0,0.0,-1.0));
#380=DIRECTION('',(1.0,0.0,0.0));
#381=DIRECTION('',(0.0,0.0,-1.0));
#382=DIRECTION('',(-1.0,0.0,0.0));
#383=DIRECTION('',(0.0,0.0,-1.0));
#384=DIRECTION('',(1.0,0.0,0.0));
#385=DIRECTION('',(0.0,0.0,1.0));
#386=DIRECTION('',(1.0,0.0,2.59405121306837E-16));
#387=DIRECTION('',(0.0,0.0,-1.0));
#388=DIRECTION('',(1.0,0.0,0.0));
#389=DIRECTION('',(0.0,0.0,-1.0));
#390=DIRECTION('',(-1.0,0.0,0.0));
#391=DIRECTION('',(0.0,0.0,-1.0));
#392=DIRECTION('',(1.0,0.0,0.0));
#393=DIRECTION('',(0.0,0.0,-1.0));
#394=DIRECTION('',(-1.0,0.0,0.0));
#395=DIRECTION('',(0.0,0.0,-1.0));
#396=DIRECTION('',(1.0,0.0,0.0));
#397=DIRECTION('',(0.0,0.0,-1.0));
#398=DIRECTION('',(-1.0,0.0,0.0));
#399=DIRECTION('',(0.0,0.0,-1.0));
#400=DIRECTION('',(1.0,0.0,0.0));
#401=DIRECTION('',(0.0,0.0,-1.0));
#402=DIRECTION('',(-1.0,0.0,0.0));
#403=DIRECTION('',(0.0,0.0,-1.0));
#404=DIRECTION('',(-1.0,0.0,0.0));
#405=DIRECTION('',(0.0,0.0,-1.0));
#406=DIRECTION('',(1.0,0.0,0.0));
#407=DIRECTION('',(0.0,0.0,-1.0));
#408=DIRECTION('',(-1.0,0.0,5.83703132105555E-17));
#409=DIRECTION('',(0.0,0.0,-1.0));
#410=DIRECTION('',(1.0,0.0,0.0));
#411=DIRECTION('',(0.0,0.0,-1.0));
#412=DIRECTION('',(-1.0,0.0,0.0));
#413=DIRECTION('',(0.0,0.0,-1.0));
#414=DIRECTION('',(1.0,0.0,0.0));
#415=DIRECTION('',(0.0,0.0,-1.0));
#416=DIRECTION('',(-1.0,0.0,0.0));
#417=DIRECTION('',(0.0,0.0,-1.0));
#418=DIRECTION('',(1.0,0.0,0.0));
#419=DIRECTION('',(0.0,0.0,-1.0));
#420=DIRECTION('',(-1.0,0.0,2.6013252248921E-17));
#421=DIRECTION('',(0.0,0.0,-1.0));
#422=DIRECTION('',(1.0,0.0,0.0));
#423=DIRECTION('',(0.0,0.0,-1.0));
#424=DIRECTION('',(-1.0,0.0,0.0));
#425=DIRECTION('',(0.0,0.0,-1.0));
#426=DIRECTION('',(1.0,0.0,0.0));
#427=DIRECTION('',(0.0,0.0,1.0));
#428=DIRECTION('',(1.0,0.0,-1.16183139176962E-17));
#429=DIRECTION('',(0.0,0.0,-1.0));
#430=DIRECTION('',(1.0,0.0,0.0));
#431=DIRECTION('',(0.0,0.0,-1.0));
#432=DIRECTION('',(-1.0,0.0,-5.15450160488189E-16));
#433=DIRECTION('',(0.0,0.0,-1.0));
#434=DIRECTION('',(1.0,0.0,0.0));
#435=DIRECTION('',(0.0,0.0,-1.0));
#436=DIRECTION('',(-1.0,0.0,0.0));
#437=DIRECTION('',(0.0,0.0,-1.0));
#438=DIRECTION('',(1.0,0.0,0.0));
#439=DIRECTION('',(0.0,0.0,-1.0));
#440=DIRECTION('',(-1.0,0.0,0.0));
#441=DIRECTION('',(0.0,0.0,-1.0));
#442=DIRECTION('',(1.0,0.0,0.0));
#443=DIRECTION('',(0.0,0.0,-1.0));
#444=DIRECTION('',(-1.0,0.0,0.0));
#445=DIRECTION('',(0.0,0.0,-1.0));
#446=DIRECTION('',(1.0,0.0,0.0));
#447=DIRECTION('',(0.0,0.0,-1.0));
#448=DIRECTION('',(-1.0,0.0,0.0));
#449=DIRECTION('',(0.0,0.0,-1.0));
#450=DIRECTION('',(1.0,0.0,0.0));
#451=DIRECTION('',(0.0,0.0,-1.0));
#452=DIRECTION('',(-1.0,0.0,-1.08226018668812E-15));
#453=DIRECTION('',(0.0,0.0,-1.0));
#454=DIRECTION('',(-1.0,0.0,9.67970095557579E-17));
#455=CARTESIAN_POINT('',(0.0,0.0,0.0));
#456=CARTESIAN_POINT('',(0.0,0.0,-77.0));
#457=CARTESIAN_POINT('',(4.84775000000001,0.0,-77.0));
#458=CARTESIAN_POINT('',(0.0,0.0,-1.0));
#459=CARTESIAN_POINT('',(4.84775,0.0,-1.0));
#460=CARTESIAN_POINT('',(0.0,0.0,70.5183697733042));
#461=CARTESIAN_POINT('',(0.0,0.0,-77.0194561586603));
#462=CARTESIAN_POINT('',(4.84727654215983,0.0,-77.0194561586603));
#463=CARTESIAN_POINT('',(0.0,0.0,-77.0));
#464=CARTESIAN_POINT('',(0.0,0.0,-77.9805438413397));
#465=CARTESIAN_POINT('',(4.80047345784018,0.0,-77.9805438413397));
#466=CARTESIAN_POINT('',(0.0,0.0,-77.9805438413397));
#467=CARTESIAN_POINT('',(0.0,0.0,-78.0));
#468=CARTESIAN_POINT('',(4.8,0.0,-78.0));
#469=CARTESIAN_POINT('',(0.0,0.0,-78.0));
#470=CARTESIAN_POINT('',(0.0,0.0,-80.0));
#471=CARTESIAN_POINT('',(4.8,0.0,-80.0));
#472=CARTESIAN_POINT('',(0.0,0.0,70.5183697733042));
#473=CARTESIAN_POINT('',(0.0,0.0,-80.0));
#474=CARTESIAN_POINT('',(4.09003961525413,0.0,-80.0));
#475=CARTESIAN_POINT('',(1.15463194561016E-14,0.0,-80.0));
#476=CARTESIAN_POINT('',(0.0,0.0,0.0));
#477=CARTESIAN_POINT('',(3.84775,0.0,0.0));
#478=CARTESIAN_POINT('',(0.0,0.0,0.0));
#479=CARTESIAN_POINT('',(0.0,0.0,0.0));
#480=CARTESIAN_POINT('',(0.0,0.0,-67.0));
#481=CARTESIAN_POINT('',(2.225,0.0,-67.0));
#482=CARTESIAN_POINT('',(-4.44089209850063E-16,0.0,-65.6630851226637));
#483=CARTESIAN_POINT('',(0.0,0.0,-65.6630851226637));
#484=CARTESIAN_POINT('',(0.0,0.0,-70.3));
#485=CARTESIAN_POINT('',(2.225,0.0,-70.3));
#486=CARTESIAN_POINT('',(0.0,0.0,-80.0));
#487=CARTESIAN_POINT('',(0.0,0.0,-70.4931851652578));
#488=CARTESIAN_POINT('',(2.3732361909795,0.0,-70.4931851652578));
#489=CARTESIAN_POINT('',(0.0,0.0,-70.3));
#490=CARTESIAN_POINT('',(0.0,0.0,-70.5042229436191));
#491=CARTESIAN_POINT('',(2.41442974062627,0.0,-70.5042229436191));
#492=CARTESIAN_POINT('',(0.0,0.0,-70.4931851652578));
#493=CARTESIAN_POINT('',(0.0,0.0,-71.8897991591455));
#494=CARTESIAN_POINT('',(2.72160459229349,0.0,-71.8897991591455));
#495=CARTESIAN_POINT('',(0.0,0.0,-71.2769636046503));
#496=CARTESIAN_POINT('',(0.0,0.0,-72.0));
#497=CARTESIAN_POINT('',(2.59027234429821,0.0,-72.0));
#498=CARTESIAN_POINT('',(0.0,0.0,-71.8897991591455));
#499=CARTESIAN_POINT('',(0.0,0.0,-77.13516562237));
#500=CARTESIAN_POINT('',(3.13,0.0,-77.13516562237));
#501=CARTESIAN_POINT('',(0.0,0.0,-72.0));
#502=CARTESIAN_POINT('',(0.0,0.0,-77.2342796269635));
#503=CARTESIAN_POINT('',(3.49989850088453,0.0,-77.2342796269635));
#504=CARTESIAN_POINT('',(0.0,0.0,-77.13516562237));
#505=CARTESIAN_POINT('',(0.0,0.0,-77.4274647922213));
#506=CARTESIAN_POINT('',(3.64813469186403,0.0,-77.4274647922213));
#507=CARTESIAN_POINT('',(0.0,0.0,-77.4274647922213));
#508=CARTESIAN_POINT('',(0.0,0.0,-78.1267949192431));
#509=CARTESIAN_POINT('',(3.64813469186403,0.0,-78.1267949192431));
#510=CARTESIAN_POINT('',(0.0,0.0,-80.0));
#511=CARTESIAN_POINT('',(0.0,0.0,-78.3));
#512=CARTESIAN_POINT('',(3.54813469186403,0.0,-78.3));
#513=CARTESIAN_POINT('',(0.0,0.0,-78.1267949192431));
#514=CARTESIAN_POINT('',(0.0,0.0,-79.5));
#515=CARTESIAN_POINT('',(3.59003961525413,0.0,-79.5));
#516=CARTESIAN_POINT('',(0.0,0.0,-78.3));
#517=CARTESIAN_POINT('',(0.0,0.0,-79.5));
#518=MECHANICAL_DESIGN_GEOMETRIC_PRESENTATION_REPRESENTATION('',(#94),#519);
#519=(GEOMETRIC_REPRESENTATION_CONTEXT(3)GLOBAL_UNCERTAINTY_ASSIGNED_CONTEXT((#520))
     GLOBAL_UNIT_ASSIGNED_CONTEXT((#526,#522,#521))REPRESENTATION_CONTEXT('EH10-A09',
     'TOP_LEVEL_ASSEMBLY_PART'));
#520=UNCERTAINTY_MEASURE_WITH_UNIT(LENGTH_MEASURE(2.0E-5),#526,'DISTANCE_ACCURACY_VALUE',
     'Maximum Tolerance applied to model');
#521=(NAMED_UNIT(*)SI_UNIT($,.STERADIAN.)SOLID_ANGLE_UNIT());
#522=(CONVERSION_BASED_UNIT('DEGREE',#524)NAMED_UNIT(*)PLANE_ANGLE_UNIT());
#523=DIMENSIONAL_EXPONENTS(0.0,0.0,0.0,0.0,0.0,0.0,0.0);
#524=PLANE_ANGLE_MEASURE_WITH_UNIT(PLANE_ANGLE_MEASURE(0.0174532925),#525);
#525=(NAMED_UNIT(*)PLANE_ANGLE_UNIT()SI_UNIT($,.RADIAN.));
#526=(LENGTH_UNIT()NAMED_UNIT(*)SI_UNIT(.MILLI.,.METRE.));
#527=CARTESIAN_POINT('',(0.0,0.0,0.0));
#528=DIRECTION('',(0.0,0.0,1.0));
#529=DIRECTION('',(1.0,0.0,0.0));
#530=AXIS2_PLACEMENT_3D('PCS',#527,#528,#529);
#531=CARTESIAN_POINT('',(0.0,0.0,-41.0));
#532=DIRECTION('',(0.0,0.0,1.0));
#533=DIRECTION('',(1.0,0.0,0.0));
#534=AXIS2_PLACEMENT_3D('MCS',#531,#532,#533);
#535=CARTESIAN_POINT('',(0.0,0.0,-80.0));
#536=DIRECTION('',(0.0,0.0,1.0));
#537=DIRECTION('',(1.0,0.0,0.0));
#538=AXIS2_PLACEMENT_3D('CSW',#535,#536,#537);
#539=CONSTRUCTIVE_GEOMETRY_REPRESENTATION('supplemental geometry',(#530,#534,#538),
     #519);
#540=CONSTRUCTIVE_GEOMETRY_REPRESENTATION_RELATIONSHIP('supplemental geometry',$,
     #92,#539);
ENDSEC;
END-ISO-10303-21;
