ISO-10303-21;
HEADER;
/* Generated by software containing ST-Developer
 * from STEP Tools, Inc. (www.steptools.com) 
 */
/* OPTION: using custom schema-name function */

FILE_DESCRIPTION(
/* description */ (''),
/* implementation_level */ '2;1');

FILE_NAME(
/* name */ '1493897834171.stp',
/* time_stamp */ '2017-05-04T13:37:18+02:00',
/* author */ (''),
/* organization */ ('SMS'),
/* preprocessor_version */ 'ST-DEVELOPER v15',
/* originating_system */ 'SIEMENS PLM Software NX 8.5',
/* authorisation */ '');

FILE_SCHEMA (('AUTOMOTIVE_DESIGN { 1 0 10303 214 3 1 1 1 }'));
ENDSEC;

DATA;
#10=CONSTRUCTIVE_GEOMETRY_REPRESENTATION_RELATIONSHIP(
'supplemental geometry','',#24,#11);
#11=CONSTRUCTIVE_GEOMETRY_REPRESENTATION('supplemental geometry',(#151,
#152,#153),#252);
#12=SHAPE_REPRESENTATION_RELATIONSHIP('None',
'relationship between 200842734MOD000_02-None and 200842734MOD000_02-N
one',#24,#13);
#13=ADVANCED_BREP_SHAPE_REPRESENTATION('200842734MOD000_02-None',(#30),
#252);
#14=SHAPE_DEFINITION_REPRESENTATION(#15,#24);
#15=PRODUCT_DEFINITION_SHAPE('','',#16);
#16=PRODUCT_DEFINITION(' ','',#18,#17);
#17=PRODUCT_DEFINITION_CONTEXT('part definition',#23,'design');
#18=PRODUCT_DEFINITION_FORMATION_WITH_SPECIFIED_SOURCE(' ',' ',#20,
 .NOT_KNOWN.);
#19=PRODUCT_RELATED_PRODUCT_CATEGORY('part','',(#20));
#20=PRODUCT('200842734MOD000_02','200842734MOD000_02',' ',(#21));
#21=PRODUCT_CONTEXT(' ',#23,'mechanical');
#22=APPLICATION_PROTOCOL_DEFINITION('international standard',
'automotive_design',2010,#23);
#23=APPLICATION_CONTEXT(
'core data for automotive mechanical design processes');
#24=SHAPE_REPRESENTATION('200842734MOD000_02-None',(#150),#252);
#25=SURFACE_STYLE_USAGE(.BOTH.,#26);
#26=SURFACE_SIDE_STYLE('',(#27));
#27=SURFACE_STYLE_FILL_AREA(#28);
#28=FILL_AREA_STYLE('',(#29));
#29=FILL_AREA_STYLE_COLOUR('',#146);
#30=MANIFOLD_SOLID_BREP('',#31);
#31=CLOSED_SHELL('',(#53,#54,#55,#56,#57,#58,#59,#60,#61,#62));
#32=TOROIDAL_SURFACE('',#172,9.575,5.);
#33=CYLINDRICAL_SURFACE('',#163,14.4);
#34=CYLINDRICAL_SURFACE('',#171,4.575);
#35=CONICAL_SURFACE('',#157,11.6572882076961,8.);
#36=CONICAL_SURFACE('',#165,16.1580127018922,30.);
#37=FACE_BOUND('',#71,.T.);
#38=FACE_BOUND('',#72,.T.);
#39=FACE_BOUND('',#73,.T.);
#40=FACE_BOUND('',#74,.T.);
#41=FACE_BOUND('',#75,.T.);
#42=FACE_BOUND('',#76,.T.);
#43=FACE_BOUND('',#77,.T.);
#44=FACE_BOUND('',#78,.T.);
#45=FACE_BOUND('',#79,.T.);
#46=FACE_BOUND('',#80,.T.);
#47=FACE_BOUND('',#81,.T.);
#48=FACE_BOUND('',#82,.T.);
#49=FACE_BOUND('',#84,.T.);
#50=FACE_BOUND('',#85,.T.);
#51=FACE_BOUND('',#86,.T.);
#52=FACE_BOUND('',#87,.T.);
#53=ADVANCED_FACE('',(#68),#63,.F.);
#54=ADVANCED_FACE('',(#37,#38),#35,.T.);
#55=ADVANCED_FACE('',(#39,#40),#64,.F.);
#56=ADVANCED_FACE('',(#41,#42),#65,.F.);
#57=ADVANCED_FACE('',(#43,#44),#33,.T.);
#58=ADVANCED_FACE('',(#45,#46),#36,.T.);
#59=ADVANCED_FACE('',(#47,#48),#66,.F.);
#60=ADVANCED_FACE('',(#69),#67,.T.);
#61=ADVANCED_FACE('',(#49,#50),#34,.T.);
#62=ADVANCED_FACE('',(#51,#52),#32,.F.);
#63=PLANE('',#155);
#64=PLANE('',#160);
#65=PLANE('',#162);
#66=PLANE('',#167);
#67=PLANE('',#169);
#68=FACE_OUTER_BOUND('',#70,.T.);
#69=FACE_OUTER_BOUND('',#83,.T.);
#70=EDGE_LOOP('',(#88));
#71=EDGE_LOOP('',(#89));
#72=EDGE_LOOP('',(#90));
#73=EDGE_LOOP('',(#91));
#74=EDGE_LOOP('',(#92));
#75=EDGE_LOOP('',(#93));
#76=EDGE_LOOP('',(#94));
#77=EDGE_LOOP('',(#95));
#78=EDGE_LOOP('',(#96));
#79=EDGE_LOOP('',(#97));
#80=EDGE_LOOP('',(#98));
#81=EDGE_LOOP('',(#99));
#82=EDGE_LOOP('',(#100));
#83=EDGE_LOOP('',(#101));
#84=EDGE_LOOP('',(#102));
#85=EDGE_LOOP('',(#103));
#86=EDGE_LOOP('',(#104));
#87=EDGE_LOOP('',(#105));
#88=ORIENTED_EDGE('',*,*,#115,.F.);
#89=ORIENTED_EDGE('',*,*,#115,.T.);
#90=ORIENTED_EDGE('',*,*,#116,.T.);
#91=ORIENTED_EDGE('',*,*,#117,.T.);
#92=ORIENTED_EDGE('',*,*,#118,.T.);
#93=ORIENTED_EDGE('',*,*,#116,.F.);
#94=ORIENTED_EDGE('',*,*,#119,.F.);
#95=ORIENTED_EDGE('',*,*,#117,.F.);
#96=ORIENTED_EDGE('',*,*,#119,.T.);
#97=ORIENTED_EDGE('',*,*,#118,.F.);
#98=ORIENTED_EDGE('',*,*,#120,.F.);
#99=ORIENTED_EDGE('',*,*,#121,.T.);
#100=ORIENTED_EDGE('',*,*,#120,.T.);
#101=ORIENTED_EDGE('',*,*,#122,.T.);
#102=ORIENTED_EDGE('',*,*,#123,.T.);
#103=ORIENTED_EDGE('',*,*,#122,.F.);
#104=ORIENTED_EDGE('',*,*,#121,.F.);
#105=ORIENTED_EDGE('',*,*,#123,.F.);
#106=VERTEX_POINT('',#224);
#107=VERTEX_POINT('',#227);
#108=VERTEX_POINT('',#230);
#109=VERTEX_POINT('',#232);
#110=VERTEX_POINT('',#235);
#111=VERTEX_POINT('',#239);
#112=VERTEX_POINT('',#242);
#113=VERTEX_POINT('',#245);
#114=VERTEX_POINT('',#248);
#115=EDGE_CURVE('',#106,#106,#124,.T.);
#116=EDGE_CURVE('',#107,#107,#125,.T.);
#117=EDGE_CURVE('',#108,#108,#126,.T.);
#118=EDGE_CURVE('',#109,#109,#127,.T.);
#119=EDGE_CURVE('',#110,#110,#128,.T.);
#120=EDGE_CURVE('',#111,#111,#129,.T.);
#121=EDGE_CURVE('',#112,#112,#130,.T.);
#122=EDGE_CURVE('',#113,#113,#131,.T.);
#123=EDGE_CURVE('',#114,#114,#132,.T.);
#124=CIRCLE('',#154,11.6572882076961);
#125=CIRCLE('',#156,16.);
#126=CIRCLE('',#158,14.4);
#127=CIRCLE('',#159,16.55);
#128=CIRCLE('',#161,14.4);
#129=CIRCLE('',#164,13.374573519457);
#130=CIRCLE('',#166,9.575);
#131=CIRCLE('',#168,4.575);
#132=CIRCLE('',#170,4.575);
#133=PRESENTATION_LAYER_ASSIGNMENT('1','Layer 1',(#151,#152,#153,#30));
#134=STYLED_ITEM('',(#138),#151);
#135=STYLED_ITEM('',(#139),#152);
#136=STYLED_ITEM('',(#140),#153);
#137=STYLED_ITEM('',(#141),#30);
#138=PRESENTATION_STYLE_ASSIGNMENT((#142));
#139=PRESENTATION_STYLE_ASSIGNMENT((#143));
#140=PRESENTATION_STYLE_ASSIGNMENT((#144));
#141=PRESENTATION_STYLE_ASSIGNMENT((#25));
#142=CURVE_STYLE('',#147,POSITIVE_LENGTH_MEASURE(0.13),#145);
#143=CURVE_STYLE('',#148,POSITIVE_LENGTH_MEASURE(0.13),#145);
#144=CURVE_STYLE('',#149,POSITIVE_LENGTH_MEASURE(0.13),#145);
#145=COLOUR_RGB('Dark Cyan Teal',0.,0.8,0.6);
#146=COLOUR_RGB('TLS_NOCUT',0.499992370489052,0.499992370489052,0.499992370489052);
#147=DRAUGHTING_PRE_DEFINED_CURVE_FONT('continuous');
#148=DRAUGHTING_PRE_DEFINED_CURVE_FONT('continuous');
#149=DRAUGHTING_PRE_DEFINED_CURVE_FONT('continuous');
#150=AXIS2_PLACEMENT_3D('',#219,#173,#174);
#151=AXIS2_PLACEMENT_3D('PCS',#220,#175,#176);
#152=AXIS2_PLACEMENT_3D('MCS',#221,#177,#178);
#153=AXIS2_PLACEMENT_3D('CSW',#222,#179,#180);
#154=AXIS2_PLACEMENT_3D('',#223,#181,#182);
#155=AXIS2_PLACEMENT_3D('',#225,#183,#184);
#156=AXIS2_PLACEMENT_3D('',#226,#185,#186);
#157=AXIS2_PLACEMENT_3D('',#228,#187,#188);
#158=AXIS2_PLACEMENT_3D('',#229,#189,#190);
#159=AXIS2_PLACEMENT_3D('',#231,#191,#192);
#160=AXIS2_PLACEMENT_3D('',#233,#193,#194);
#161=AXIS2_PLACEMENT_3D('',#234,#195,#196);
#162=AXIS2_PLACEMENT_3D('',#236,#197,#198);
#163=AXIS2_PLACEMENT_3D('',#237,#199,#200);
#164=AXIS2_PLACEMENT_3D('',#238,#201,#202);
#165=AXIS2_PLACEMENT_3D('',#240,#203,#204);
#166=AXIS2_PLACEMENT_3D('',#241,#205,#206);
#167=AXIS2_PLACEMENT_3D('',#243,#207,#208);
#168=AXIS2_PLACEMENT_3D('',#244,#209,#210);
#169=AXIS2_PLACEMENT_3D('',#246,#211,#212);
#170=AXIS2_PLACEMENT_3D('',#247,#213,#214);
#171=AXIS2_PLACEMENT_3D('',#249,#215,#216);
#172=AXIS2_PLACEMENT_3D('',#250,#217,#218);
#173=DIRECTION('',(0.,0.,1.));
#174=DIRECTION('',(1.,0.,0.));
#175=DIRECTION('',(0.,0.,1.));
#176=DIRECTION('',(1.,0.,0.));
#177=DIRECTION('',(0.,0.,1.));
#178=DIRECTION('',(1.,0.,0.));
#179=DIRECTION('',(0.,0.,1.));
#180=DIRECTION('',(1.,0.,0.));
#181=DIRECTION('',(0.,-7.04171909509729E-017,-1.));
#182=DIRECTION('',(0.,1.,0.));
#183=DIRECTION('',(0.,-7.04171909509729E-017,-1.));
#184=DIRECTION('',(0.,1.,-6.93889390390723E-017));
#185=DIRECTION('',(0.,7.04171909509729E-017,1.));
#186=DIRECTION('',(0.,-1.,7.04171909509729E-017));
#187=DIRECTION('',(0.,-7.04171909509729E-017,-1.));
#188=DIRECTION('',(0.,1.,2.73547154376133E-016));
#189=DIRECTION('',(0.,-7.04171909509729E-017,-1.));
#190=DIRECTION('',(0.,1.,-6.02334540269725E-017));
#191=DIRECTION('',(0.,7.04171909509729E-017,1.));
#192=DIRECTION('',(0.,1.,-7.86128463433598E-017));
#193=DIRECTION('',(0.,-7.04171909509729E-017,-1.));
#194=DIRECTION('',(0.,1.,-7.02563007770607E-017));
#195=DIRECTION('',(0.,-7.04171909509729E-017,-1.));
#196=DIRECTION('',(0.,-1.,7.04171909509729E-017));
#197=DIRECTION('',(0.,7.04171909509729E-017,1.));
#198=DIRECTION('',(0.,-1.,7.04171909509729E-017));
#199=DIRECTION('',(0.,-7.04171909509729E-017,-1.));
#200=DIRECTION('',(0.,1.,0.));
#201=DIRECTION('',(0.,-7.04171909509729E-017,-1.));
#202=DIRECTION('',(0.,-1.,1.29703087238869E-016));
#203=DIRECTION('',(0.,7.04171909509729E-017,1.));
#204=DIRECTION('',(0.,-1.,-1.4614147172877E-017));
#205=DIRECTION('',(0.,7.04171909509729E-017,1.));
#206=DIRECTION('',(0.,-1.,0.));
#207=DIRECTION('',(0.,7.04171909509729E-017,1.));
#208=DIRECTION('',(0.,-1.,7.11236625150491E-017));
#209=DIRECTION('',(0.,-7.04171909509729E-017,-1.));
#210=DIRECTION('',(0.,1.,0.));
#211=DIRECTION('',(0.,-7.04171909509729E-017,-1.));
#212=DIRECTION('',(0.,1.,-6.93889390390723E-017));
#213=DIRECTION('',(0.,-7.04171909509729E-017,-1.));
#214=DIRECTION('',(0.,-1.,0.));
#215=DIRECTION('',(0.,-7.04171909509729E-017,-1.));
#216=DIRECTION('',(0.,1.,0.));
#217=DIRECTION('',(0.,7.04171909509729E-017,1.));
#218=DIRECTION('',(0.,-1.,1.19020478626196E-016));
#219=CARTESIAN_POINT('',(0.,0.,0.));
#220=CARTESIAN_POINT('',(0.,0.,0.));
#221=CARTESIAN_POINT('',(0.,0.,0.));
#222=CARTESIAN_POINT('',(-4.33680868994202E-016,-1.50815817564226E-015,
-20.5));
#223=CARTESIAN_POINT('',(0.,2.17589120038506E-015,30.9));
#224=CARTESIAN_POINT('',(0.,11.6572882076961,30.9));
#225=CARTESIAN_POINT('',(0.,2.91191724114665E-015,30.9));
#226=CARTESIAN_POINT('',(0.,0.,0.));
#227=CARTESIAN_POINT('',(0.,-16.,1.12667505521557E-015));
#228=CARTESIAN_POINT('',(0.,2.17589120038506E-015,30.9));
#229=CARTESIAN_POINT('',(0.,-2.53501887423502E-016,-3.6));
#230=CARTESIAN_POINT('',(0.,14.4,-3.6));
#231=CARTESIAN_POINT('',(0.,-2.535018874235E-016,-3.6));
#232=CARTESIAN_POINT('',(0.,16.55,-3.6));
#233=CARTESIAN_POINT('',(0.,14.4,-3.6));
#234=CARTESIAN_POINT('',(0.,0.,0.));
#235=CARTESIAN_POINT('',(0.,-14.4,1.01400754969401E-015));
#236=CARTESIAN_POINT('',(0.,16.,0.));
#237=CARTESIAN_POINT('',(0.,2.17589120038506E-015,30.9));
#238=CARTESIAN_POINT('',(0.,-6.40796437653852E-016,-9.1));
#239=CARTESIAN_POINT('',(0.,-13.374573519457,-9.1));
#240=CARTESIAN_POINT('',(0.,-3.01311069984297E-016,-4.27894191624433));
#241=CARTESIAN_POINT('',(-4.33680868994202E-016,-6.40796437653852E-016,
-9.1));
#242=CARTESIAN_POINT('',(-4.33680868994202E-016,-9.575,-9.1));
#243=CARTESIAN_POINT('',(0.,13.374573519457,-9.1));
#244=CARTESIAN_POINT('',(-4.33680868994202E-016,-1.50815817564226E-015,
-20.5));
#245=CARTESIAN_POINT('',(-4.33680868994202E-016,4.575,-20.5));
#246=CARTESIAN_POINT('',(-4.33680868994202E-016,-1.50815817564226E-015,
-20.5));
#247=CARTESIAN_POINT('',(-4.33680868994202E-016,-9.92882392408716E-016,
-14.1));
#248=CARTESIAN_POINT('',(-4.33680868994202E-016,-4.575,-14.1));
#249=CARTESIAN_POINT('',(-4.33680868994202E-016,-6.40796437653852E-016,
-9.1));
#250=CARTESIAN_POINT('',(-4.33680868994202E-016,-9.92882392408716E-016,
-14.1));
#251=MECHANICAL_DESIGN_GEOMETRIC_PRESENTATION_REPRESENTATION('',(#134,#135,
#136,#137),#252);
#252=(
GEOMETRIC_REPRESENTATION_CONTEXT(3)
GLOBAL_UNCERTAINTY_ASSIGNED_CONTEXT((#253))
GLOBAL_UNIT_ASSIGNED_CONTEXT((#259,#255,#254))
REPRESENTATION_CONTEXT('1493897834171','TOP_LEVEL_ASSEMBLY_PART')
);
#253=UNCERTAINTY_MEASURE_WITH_UNIT(LENGTH_MEASURE(2.E-005),#259,
'DISTANCE_ACCURACY_VALUE','Maximum Tolerance applied to model');
#254=(
NAMED_UNIT(*)
SI_UNIT($,.STERADIAN.)
SOLID_ANGLE_UNIT()
);
#255=(
CONVERSION_BASED_UNIT('DEGREE',#257)
NAMED_UNIT(#256)
PLANE_ANGLE_UNIT()
);
#256=DIMENSIONAL_EXPONENTS(0.,0.,0.,0.,0.,0.,0.);
#257=PLANE_ANGLE_MEASURE_WITH_UNIT(PLANE_ANGLE_MEASURE(0.0174532925),#258);
#258=(
NAMED_UNIT(*)
PLANE_ANGLE_UNIT()
SI_UNIT($,.RADIAN.)
);
#259=(
LENGTH_UNIT()
NAMED_UNIT(*)
SI_UNIT(.MILLI.,.METRE.)
);
ENDSEC;
END-ISO-10303-21;
