ISO-10303-21;
HEADER;
FILE_DESCRIPTION(
/* description */ ('3-D model version:1'),
/* implementation_level */ '2;1');
FILE_NAME(
/* name */ 'C6-391.EH-12065',
/* time_stamp */ '2016-12-02T13:57:22',
/* author */ ('InteractiveCad'),
/* organization */ ('AB Sandvik Coromant'),
/* preprocessor_version */ 'ST-DEVELOPER v11',
/* originating_system */ 'SIEMENS UGS NX 6.0',
/* authorization */ '');
FILE_SCHEMA(('AUTOMOTIVE_DESIGN'));
ENDSEC;
DATA;
#10=SHAPE_REPRESENTATION_RELATIONSHIP('None','relationship between ds681089vg3d-None and ds681089vg3d-None',
     #22,#11);
#11=ADVANCED_BREP_SHAPE_REPRESENTATION('ds681089vg3d-None',(#32),#457);
#12=SHAPE_DEFINITION_REPRESENTATION(#13,#22);
#13=PRODUCT_DEFINITION_SHAPE('','',#14);
#14=PRODUCT_DEFINITION(' ','',#16,#15);
#15=PRODUCT_DEFINITION_CONTEXT('part definition',#21,'design');
#16=PRODUCT_DEFINITION_FORMATION_WITH_SPECIFIED_SOURCE(' ',' ',#18,.NOT_KNOWN.);
#17=PRODUCT_RELATED_PRODUCT_CATEGORY('part','',(#18));
#18=PRODUCT('ds681089vg3d','ds681089vg3d',' ',(#19));
#19=PRODUCT_CONTEXT(' ',#21,'mechanical');
#20=APPLICATION_PROTOCOL_DEFINITION('international standard','automotive_design',
     2001,#21);
#21=APPLICATION_CONTEXT('core data for automotive mechanical design processes');
#22=SHAPE_REPRESENTATION('ds681089vg3d-None',(#258),#457);
#23=PRESENTATION_LAYER_ASSIGNMENT('1','Layer 1',(#32));
#24=STYLED_ITEM('',(#25),#32);
#25=PRESENTATION_STYLE_ASSIGNMENT((#26));
#26=SURFACE_STYLE_USAGE(.BOTH.,#27);
#27=SURFACE_SIDE_STYLE('',(#28));
#28=SURFACE_STYLE_FILL_AREA(#29);
#29=FILL_AREA_STYLE('',(#30));
#30=FILL_AREA_STYLE_COLOUR('',#31);
#31=COLOUR_RGB('Medium Gray',0.490196078431373,0.490196078431373,0.490196078431373);
#32=MANIFOLD_SOLID_BREP('NOCUT',#33);
#33=CLOSED_SHELL('',(#70,#71,#72,#73,#74,#75,#76,#77,#78,#79,#80,#81,#82,#83,#84,
     #85));
#34=B_SPLINE_CURVE_WITH_KNOTS('',3,(#431,#432,#433,#434),.UNSPECIFIED.,.F.,.F.,
     (4,4),(0.0,1.0),.UNSPECIFIED.);
#35=B_SPLINE_CURVE_WITH_KNOTS('',3,(#439,#440,#441,#442),.UNSPECIFIED.,.F.,.F.,
     (4,4),(0.0,1.0),.UNSPECIFIED.);
#36=LINE('',#413,#42);
#37=LINE('',#417,#43);
#38=LINE('',#421,#44);
#39=LINE('',#425,#45);
#40=LINE('',#429,#46);
#41=LINE('',#446,#47);
#42=VECTOR('',#337,1.0);
#43=VECTOR('',#340,1.0);
#44=VECTOR('',#345,1.0);
#45=VECTOR('',#350,1.0);
#46=VECTOR('',#355,1.0);
#47=VECTOR('',#362,1.0);
#48=FACE_OUTER_BOUND('',#114,.T.);
#49=FACE_OUTER_BOUND('',#115,.T.);
#50=FACE_OUTER_BOUND('',#116,.T.);
#51=FACE_OUTER_BOUND('',#117,.T.);
#52=FACE_OUTER_BOUND('',#118,.T.);
#53=FACE_OUTER_BOUND('',#119,.T.);
#54=FACE_OUTER_BOUND('',#120,.T.);
#55=FACE_OUTER_BOUND('',#121,.T.);
#56=FACE_OUTER_BOUND('',#122,.T.);
#57=FACE_OUTER_BOUND('',#123,.T.);
#58=TOROIDAL_SURFACE('',#272,13.8141636246395,5.0);
#59=CONICAL_SURFACE('',#270,31.5,74.9931910378871);
#60=CONICAL_SURFACE('',#274,8.86285391740382,8.00252213349562);
#61=CONICAL_SURFACE('',#279,36.0,1.43916666666667);
#62=CONICAL_SURFACE('',#281,15.0,1.43916666666667);
#63=CONICAL_SURFACE('',#283,36.0,1.43916666666667);
#64=CONICAL_SURFACE('',#285,15.0,1.43916666666667);
#65=CONICAL_SURFACE('',#289,36.0,1.43916666666667);
#66=CONICAL_SURFACE('',#291,15.0,1.43916666666667);
#67=CYLINDRICAL_SURFACE('',#268,31.5);
#68=CYLINDRICAL_SURFACE('',#276,5.8);
#69=CYLINDRICAL_SURFACE('',#296,6.0);
#70=ADVANCED_FACE('',(#90,#91),#86,.T.);
#71=ADVANCED_FACE('',(#92,#93),#67,.T.);
#72=ADVANCED_FACE('',(#94,#95),#59,.T.);
#73=ADVANCED_FACE('',(#96,#97),#58,.F.);
#74=ADVANCED_FACE('',(#98,#99),#60,.T.);
#75=ADVANCED_FACE('',(#100,#101),#68,.T.);
#76=ADVANCED_FACE('',(#48),#87,.T.);
#77=ADVANCED_FACE('',(#49),#61,.T.);
#78=ADVANCED_FACE('',(#50),#62,.T.);
#79=ADVANCED_FACE('',(#51),#63,.T.);
#80=ADVANCED_FACE('',(#52),#64,.T.);
#81=ADVANCED_FACE('',(#53),#65,.T.);
#82=ADVANCED_FACE('',(#54),#66,.T.);
#83=ADVANCED_FACE('',(#55),#88,.F.);
#84=ADVANCED_FACE('',(#56),#89,.F.);
#85=ADVANCED_FACE('',(#57),#69,.F.);
#86=PLANE('',#266);
#87=PLANE('',#277);
#88=PLANE('',#293);
#89=PLANE('',#295);
#90=FACE_BOUND('',#102,.T.);
#91=FACE_BOUND('',#103,.T.);
#92=FACE_BOUND('',#104,.T.);
#93=FACE_BOUND('',#105,.T.);
#94=FACE_BOUND('',#106,.T.);
#95=FACE_BOUND('',#107,.T.);
#96=FACE_BOUND('',#108,.T.);
#97=FACE_BOUND('',#109,.T.);
#98=FACE_BOUND('',#110,.T.);
#99=FACE_BOUND('',#111,.T.);
#100=FACE_BOUND('',#112,.T.);
#101=FACE_BOUND('',#113,.T.);
#102=EDGE_LOOP('',(#124));
#103=EDGE_LOOP('',(#125,#126,#127,#128,#129,#130));
#104=EDGE_LOOP('',(#131));
#105=EDGE_LOOP('',(#132));
#106=EDGE_LOOP('',(#133));
#107=EDGE_LOOP('',(#134));
#108=EDGE_LOOP('',(#135));
#109=EDGE_LOOP('',(#136));
#110=EDGE_LOOP('',(#137));
#111=EDGE_LOOP('',(#138));
#112=EDGE_LOOP('',(#139));
#113=EDGE_LOOP('',(#140));
#114=EDGE_LOOP('',(#141));
#115=EDGE_LOOP('',(#142,#143,#144,#145));
#116=EDGE_LOOP('',(#146,#147,#148,#149));
#117=EDGE_LOOP('',(#150,#151,#152,#153));
#118=EDGE_LOOP('',(#154,#155,#156,#157));
#119=EDGE_LOOP('',(#158,#159,#160,#161,#162,#163,#164,#165));
#120=EDGE_LOOP('',(#166,#167,#168,#169));
#121=EDGE_LOOP('',(#170,#171,#172,#173,#174,#175,#176,#177));
#122=EDGE_LOOP('',(#178,#179));
#123=EDGE_LOOP('',(#180,#181,#182,#183));
#124=ORIENTED_EDGE('',*,*,#206,.T.);
#125=ORIENTED_EDGE('',*,*,#207,.T.);
#126=ORIENTED_EDGE('',*,*,#208,.T.);
#127=ORIENTED_EDGE('',*,*,#209,.T.);
#128=ORIENTED_EDGE('',*,*,#210,.T.);
#129=ORIENTED_EDGE('',*,*,#211,.T.);
#130=ORIENTED_EDGE('',*,*,#212,.T.);
#131=ORIENTED_EDGE('',*,*,#213,.T.);
#132=ORIENTED_EDGE('',*,*,#206,.F.);
#133=ORIENTED_EDGE('',*,*,#214,.T.);
#134=ORIENTED_EDGE('',*,*,#213,.F.);
#135=ORIENTED_EDGE('',*,*,#215,.T.);
#136=ORIENTED_EDGE('',*,*,#214,.F.);
#137=ORIENTED_EDGE('',*,*,#216,.T.);
#138=ORIENTED_EDGE('',*,*,#215,.F.);
#139=ORIENTED_EDGE('',*,*,#217,.T.);
#140=ORIENTED_EDGE('',*,*,#216,.F.);
#141=ORIENTED_EDGE('',*,*,#217,.F.);
#142=ORIENTED_EDGE('',*,*,#210,.F.);
#143=ORIENTED_EDGE('',*,*,#218,.F.);
#144=ORIENTED_EDGE('',*,*,#219,.T.);
#145=ORIENTED_EDGE('',*,*,#220,.T.);
#146=ORIENTED_EDGE('',*,*,#211,.F.);
#147=ORIENTED_EDGE('',*,*,#220,.F.);
#148=ORIENTED_EDGE('',*,*,#221,.T.);
#149=ORIENTED_EDGE('',*,*,#222,.T.);
#150=ORIENTED_EDGE('',*,*,#212,.F.);
#151=ORIENTED_EDGE('',*,*,#222,.F.);
#152=ORIENTED_EDGE('',*,*,#223,.T.);
#153=ORIENTED_EDGE('',*,*,#224,.T.);
#154=ORIENTED_EDGE('',*,*,#207,.F.);
#155=ORIENTED_EDGE('',*,*,#224,.F.);
#156=ORIENTED_EDGE('',*,*,#225,.T.);
#157=ORIENTED_EDGE('',*,*,#226,.T.);
#158=ORIENTED_EDGE('',*,*,#227,.F.);
#159=ORIENTED_EDGE('',*,*,#228,.F.);
#160=ORIENTED_EDGE('',*,*,#229,.F.);
#161=ORIENTED_EDGE('',*,*,#230,.T.);
#162=ORIENTED_EDGE('',*,*,#231,.T.);
#163=ORIENTED_EDGE('',*,*,#208,.F.);
#164=ORIENTED_EDGE('',*,*,#226,.F.);
#165=ORIENTED_EDGE('',*,*,#232,.T.);
#166=ORIENTED_EDGE('',*,*,#209,.F.);
#167=ORIENTED_EDGE('',*,*,#231,.F.);
#168=ORIENTED_EDGE('',*,*,#233,.T.);
#169=ORIENTED_EDGE('',*,*,#218,.T.);
#170=ORIENTED_EDGE('',*,*,#230,.F.);
#171=ORIENTED_EDGE('',*,*,#234,.T.);
#172=ORIENTED_EDGE('',*,*,#232,.F.);
#173=ORIENTED_EDGE('',*,*,#225,.F.);
#174=ORIENTED_EDGE('',*,*,#223,.F.);
#175=ORIENTED_EDGE('',*,*,#221,.F.);
#176=ORIENTED_EDGE('',*,*,#219,.F.);
#177=ORIENTED_EDGE('',*,*,#233,.F.);
#178=ORIENTED_EDGE('',*,*,#228,.T.);
#179=ORIENTED_EDGE('',*,*,#235,.F.);
#180=ORIENTED_EDGE('',*,*,#227,.T.);
#181=ORIENTED_EDGE('',*,*,#234,.F.);
#182=ORIENTED_EDGE('',*,*,#229,.T.);
#183=ORIENTED_EDGE('',*,*,#235,.T.);
#184=VERTEX_POINT('',#383);
#185=VERTEX_POINT('',#385);
#186=VERTEX_POINT('',#386);
#187=VERTEX_POINT('',#388);
#188=VERTEX_POINT('',#390);
#189=VERTEX_POINT('',#392);
#190=VERTEX_POINT('',#394);
#191=VERTEX_POINT('',#398);
#192=VERTEX_POINT('',#401);
#193=VERTEX_POINT('',#404);
#194=VERTEX_POINT('',#407);
#195=VERTEX_POINT('',#410);
#196=VERTEX_POINT('',#414);
#197=VERTEX_POINT('',#416);
#198=VERTEX_POINT('',#420);
#199=VERTEX_POINT('',#424);
#200=VERTEX_POINT('',#428);
#201=VERTEX_POINT('',#435);
#202=VERTEX_POINT('',#436);
#203=VERTEX_POINT('',#438);
#204=VERTEX_POINT('',#443);
#205=VERTEX_POINT('',#445);
#206=EDGE_CURVE('',#184,#184,#236,.T.);
#207=EDGE_CURVE('',#185,#186,#237,.T.);
#208=EDGE_CURVE('',#186,#187,#238,.T.);
#209=EDGE_CURVE('',#187,#188,#239,.T.);
#210=EDGE_CURVE('',#188,#189,#240,.T.);
#211=EDGE_CURVE('',#189,#190,#241,.T.);
#212=EDGE_CURVE('',#190,#185,#242,.T.);
#213=EDGE_CURVE('',#191,#191,#243,.T.);
#214=EDGE_CURVE('',#192,#192,#244,.T.);
#215=EDGE_CURVE('',#193,#193,#245,.T.);
#216=EDGE_CURVE('',#194,#194,#246,.T.);
#217=EDGE_CURVE('',#195,#195,#247,.T.);
#218=EDGE_CURVE('',#196,#188,#36,.T.);
#219=EDGE_CURVE('',#196,#197,#248,.T.);
#220=EDGE_CURVE('',#197,#189,#37,.T.);
#221=EDGE_CURVE('',#197,#198,#249,.T.);
#222=EDGE_CURVE('',#198,#190,#38,.T.);
#223=EDGE_CURVE('',#198,#199,#250,.T.);
#224=EDGE_CURVE('',#199,#185,#39,.T.);
#225=EDGE_CURVE('',#199,#200,#251,.T.);
#226=EDGE_CURVE('',#200,#186,#40,.T.);
#227=EDGE_CURVE('',#201,#202,#34,.T.);
#228=EDGE_CURVE('',#203,#201,#252,.T.);
#229=EDGE_CURVE('',#204,#203,#35,.T.);
#230=EDGE_CURVE('',#204,#205,#253,.T.);
#231=EDGE_CURVE('',#205,#187,#41,.T.);
#232=EDGE_CURVE('',#200,#202,#254,.T.);
#233=EDGE_CURVE('',#205,#196,#255,.T.);
#234=EDGE_CURVE('',#204,#202,#256,.T.);
#235=EDGE_CURVE('',#203,#201,#257,.T.);
#236=CIRCLE('',#259,31.5);
#237=CIRCLE('',#260,15.0);
#238=CIRCLE('',#261,36.0);
#239=CIRCLE('',#262,15.0);
#240=CIRCLE('',#263,36.0);
#241=CIRCLE('',#264,15.0);
#242=CIRCLE('',#265,36.0);
#243=CIRCLE('',#267,31.5);
#244=CIRCLE('',#269,12.5194944608996);
#245=CIRCLE('',#271,8.86285391740382);
#246=CIRCLE('',#273,5.8);
#247=CIRCLE('',#275,5.8);
#248=CIRCLE('',#278,35.0453077330983);
#249=CIRCLE('',#280,14.0453077330983);
#250=CIRCLE('',#282,35.0453077330983);
#251=CIRCLE('',#284,14.0453077330983);
#252=CIRCLE('',#286,35.2073541836645);
#253=CIRCLE('',#287,35.0453077330983);
#254=CIRCLE('',#288,35.0453077330983);
#255=CIRCLE('',#290,14.0453077330983);
#256=CIRCLE('',#292,6.0);
#257=CIRCLE('',#294,6.0);
#258=AXIS2_PLACEMENT_3D('',#381,#297,#298);
#259=AXIS2_PLACEMENT_3D('',#382,#299,#300);
#260=AXIS2_PLACEMENT_3D('',#384,#301,#302);
#261=AXIS2_PLACEMENT_3D('',#387,#303,#304);
#262=AXIS2_PLACEMENT_3D('',#389,#305,#306);
#263=AXIS2_PLACEMENT_3D('',#391,#307,#308);
#264=AXIS2_PLACEMENT_3D('',#393,#309,#310);
#265=AXIS2_PLACEMENT_3D('',#395,#311,#312);
#266=AXIS2_PLACEMENT_3D('',#396,#313,#314);
#267=AXIS2_PLACEMENT_3D('',#397,#315,#316);
#268=AXIS2_PLACEMENT_3D('',#399,#317,#318);
#269=AXIS2_PLACEMENT_3D('',#400,#319,#320);
#270=AXIS2_PLACEMENT_3D('',#402,#321,#322);
#271=AXIS2_PLACEMENT_3D('',#403,#323,#324);
#272=AXIS2_PLACEMENT_3D('',#405,#325,#326);
#273=AXIS2_PLACEMENT_3D('',#406,#327,#328);
#274=AXIS2_PLACEMENT_3D('',#408,#329,#330);
#275=AXIS2_PLACEMENT_3D('',#409,#331,#332);
#276=AXIS2_PLACEMENT_3D('',#411,#333,#334);
#277=AXIS2_PLACEMENT_3D('',#412,#335,#336);
#278=AXIS2_PLACEMENT_3D('',#415,#338,#339);
#279=AXIS2_PLACEMENT_3D('',#418,#341,#342);
#280=AXIS2_PLACEMENT_3D('',#419,#343,#344);
#281=AXIS2_PLACEMENT_3D('',#422,#346,#347);
#282=AXIS2_PLACEMENT_3D('',#423,#348,#349);
#283=AXIS2_PLACEMENT_3D('',#426,#351,#352);
#284=AXIS2_PLACEMENT_3D('',#427,#353,#354);
#285=AXIS2_PLACEMENT_3D('',#430,#356,#357);
#286=AXIS2_PLACEMENT_3D('',#437,#358,#359);
#287=AXIS2_PLACEMENT_3D('',#444,#360,#361);
#288=AXIS2_PLACEMENT_3D('',#447,#363,#364);
#289=AXIS2_PLACEMENT_3D('',#448,#365,#366);
#290=AXIS2_PLACEMENT_3D('',#449,#367,#368);
#291=AXIS2_PLACEMENT_3D('',#450,#369,#370);
#292=AXIS2_PLACEMENT_3D('',#451,#371,#372);
#293=AXIS2_PLACEMENT_3D('',#452,#373,#374);
#294=AXIS2_PLACEMENT_3D('',#453,#375,#376);
#295=AXIS2_PLACEMENT_3D('',#454,#377,#378);
#296=AXIS2_PLACEMENT_3D('',#455,#379,#380);
#297=DIRECTION('',(0.0,0.0,1.0));
#298=DIRECTION('',(1.0,0.0,0.0));
#299=DIRECTION('',(0.0,0.0,1.0));
#300=DIRECTION('',(1.0,0.0,0.0));
#301=DIRECTION('',(0.0,0.0,-1.0));
#302=DIRECTION('',(-1.0,0.0,0.0));
#303=DIRECTION('',(0.0,0.0,-1.0));
#304=DIRECTION('',(-1.0,0.0,0.0));
#305=DIRECTION('',(0.0,0.0,-1.0));
#306=DIRECTION('',(-1.0,0.0,0.0));
#307=DIRECTION('',(0.0,0.0,-1.0));
#308=DIRECTION('',(-1.0,0.0,0.0));
#309=DIRECTION('',(0.0,0.0,-1.0));
#310=DIRECTION('',(-1.0,0.0,0.0));
#311=DIRECTION('',(0.0,0.0,-1.0));
#312=DIRECTION('',(-1.0,0.0,0.0));
#313=DIRECTION('',(0.0,0.0,1.0));
#314=DIRECTION('',(1.0,0.0,0.0));
#315=DIRECTION('',(0.0,0.0,1.0));
#316=DIRECTION('',(1.0,0.0,0.0));
#317=DIRECTION('',(0.0,0.0,1.0));
#318=DIRECTION('',(1.0,0.0,0.0));
#319=DIRECTION('',(0.0,0.0,1.0));
#320=DIRECTION('',(1.0,0.0,0.0));
#321=DIRECTION('',(0.0,0.0,1.0));
#322=DIRECTION('',(1.0,0.0,-5.53373543953117E-18));
#323=DIRECTION('',(0.0,0.0,1.0));
#324=DIRECTION('',(1.0,0.0,0.0));
#325=DIRECTION('',(0.0,0.0,1.0));
#326=DIRECTION('',(1.0,0.0,0.0));
#327=DIRECTION('',(0.0,0.0,1.0));
#328=DIRECTION('',(1.0,0.0,0.0));
#329=DIRECTION('',(0.0,0.0,1.0));
#330=DIRECTION('',(1.0,0.0,3.71439809022523E-16));
#331=DIRECTION('',(0.0,0.0,1.0));
#332=DIRECTION('',(1.0,0.0,0.0));
#333=DIRECTION('',(0.0,0.0,1.0));
#334=DIRECTION('',(1.0,0.0,0.0));
#335=DIRECTION('',(0.0,0.0,-1.0));
#336=DIRECTION('',(-1.0,0.0,0.0));
#337=DIRECTION('',(-0.0247240915509408,0.00441706138277435,-0.999684554679986));
#338=DIRECTION('',(0.0,0.0,-1.0));
#339=DIRECTION('',(-1.0,0.0,0.0));
#340=DIRECTION('',(-0.0158471477192619,0.0194848413758591,-0.999684554679986));
#341=DIRECTION('',(0.0,0.0,-1.0));
#342=DIRECTION('',(-1.0,0.0,0.0));
#343=DIRECTION('',(0.0,0.0,-1.0));
#344=DIRECTION('',(-1.0,0.0,0.0));
#345=DIRECTION('',(0.0161271802317241,0.0192537059303393,-0.999684554679986));
#346=DIRECTION('',(0.0,0.0,-1.0));
#347=DIRECTION('',(-1.0,0.0,0.0));
#348=DIRECTION('',(0.0,0.0,-1.0));
#349=DIRECTION('',(-1.0,0.0,0.0));
#350=DIRECTION('',(0.024737788568531,0.00433969480691369,-0.999684554679986));
#351=DIRECTION('',(0.0,0.0,-1.0));
#352=DIRECTION('',(-1.0,0.0,0.0));
#353=DIRECTION('',(0.0,0.0,-1.0));
#354=DIRECTION('',(-1.0,0.0,0.0));
#355=DIRECTION('',(0.00895079376057316,-0.023466453190335,-0.999684554679986));
#356=DIRECTION('',(0.0,0.0,-1.0));
#357=DIRECTION('',(-1.0,0.0,0.0));
#358=DIRECTION('',(0.0,0.0,1.0));
#359=DIRECTION('',(-1.0,0.0,0.0));
#360=DIRECTION('',(0.0,0.0,-1.0));
#361=DIRECTION('',(-1.0,0.0,0.0));
#362=DIRECTION('',(-0.0085367584079126,-0.0236202220599941,-0.999684554679986));
#363=DIRECTION('',(0.0,0.0,-1.0));
#364=DIRECTION('',(-1.0,0.0,0.0));
#365=DIRECTION('',(0.0,0.0,-1.0));
#366=DIRECTION('',(-1.0,0.0,0.0));
#367=DIRECTION('',(0.0,0.0,-1.0));
#368=DIRECTION('',(-1.0,0.0,0.0));
#369=DIRECTION('',(0.0,0.0,-1.0));
#370=DIRECTION('',(-1.0,0.0,0.0));
#371=DIRECTION('',(0.0,0.0,-1.0));
#372=DIRECTION('',(-1.0,0.0,0.0));
#373=DIRECTION('',(0.0,0.0,-1.0));
#374=DIRECTION('',(-1.0,0.0,0.0));
#375=DIRECTION('',(0.0,0.0,-1.0));
#376=DIRECTION('',(-1.0,0.0,0.0));
#377=DIRECTION('',(0.0,0.0,-1.0));
#378=DIRECTION('',(-1.0,0.0,0.0));
#379=DIRECTION('',(0.0,0.0,-1.0));
#380=DIRECTION('',(-1.0,0.0,0.0));
#381=CARTESIAN_POINT('',(0.0,0.0,0.0));
#382=CARTESIAN_POINT('',(0.0,0.0,0.0));
#383=CARTESIAN_POINT('',(31.5,0.0,0.0));
#384=CARTESIAN_POINT('',(7.34734445150781,-4.07142843617537,0.0));
#385=CARTESIAN_POINT('',(22.1217270727851,-1.47959160487206,0.0));
#386=CARTESIAN_POINT('',(12.6931113706687,-18.0865194471537,0.0));
#387=CARTESIAN_POINT('',(-0.136729235317403,15.5496989791943,0.0));
#388=CARTESIAN_POINT('',(-12.3731020749835,-18.3069278422817,0.0));
#389=CARTESIAN_POINT('',(-7.27461339178929,-4.2,0.0));
#390=CARTESIAN_POINT('',(-22.0408156141562,-1.56195679941284,0.0));
#391=CARTESIAN_POINT('',(13.3980697195245,-7.89326048082203,0.0));
#392=CARTESIAN_POINT('',(-9.31682962194202,20.0358166236411,0.0));
#393=CARTESIAN_POINT('',(0.147711770335685,8.39870116344809,0.0));
#394=CARTESIAN_POINT('',(9.77949961934714,19.8977734230538,0.0));
#395=CARTESIAN_POINT('',(-13.3367912182804,-7.7,0.0));
#396=CARTESIAN_POINT('',(0.0,-20.4500413687056,0.0));
#397=CARTESIAN_POINT('',(0.0,0.0,-22.0));
#398=CARTESIAN_POINT('',(31.5,0.0,-22.0));
#399=CARTESIAN_POINT('',(0.0,0.0,-65.008));
#400=CARTESIAN_POINT('',(0.0,0.0,-27.0882287750525));
#401=CARTESIAN_POINT('',(12.5194944608996,0.0,-27.0882287750525));
#402=CARTESIAN_POINT('',(0.0,0.0,-22.0));
#403=CARTESIAN_POINT('',(0.0,0.0,-31.2216206238421));
#404=CARTESIAN_POINT('',(8.86285391740382,0.0,-31.2216206238421));
#405=CARTESIAN_POINT('',(0.0,0.0,-31.9177040836612));
#406=CARTESIAN_POINT('',(0.0,0.0,-53.008));
#407=CARTESIAN_POINT('',(5.8,0.0,-53.008));
#408=CARTESIAN_POINT('',(0.0,0.0,-31.2216206238421));
#409=CARTESIAN_POINT('',(0.0,0.0,-65.008));
#410=CARTESIAN_POINT('',(5.8,0.0,-65.008));
#411=CARTESIAN_POINT('',(0.0,0.0,-65.008));
#412=CARTESIAN_POINT('',(0.0,-5.8,-65.008));
#413=CARTESIAN_POINT('',(-22.0408156141562,-1.56195679941284,0.0));
#414=CARTESIAN_POINT('',(-21.1010036759429,-1.72985809563638,38.0));
#415=CARTESIAN_POINT('',(13.3980697195245,-7.89326048082203,38.0));
#416=CARTESIAN_POINT('',(-8.71444799014345,19.2951590143818,38.0));
#417=CARTESIAN_POINT('',(-9.31682962194202,20.0358166236411,0.0));
#418=CARTESIAN_POINT('',(13.3980697195245,-7.89326048082203,0.0));
#419=CARTESIAN_POINT('',(0.147711770335685,8.39870116344809,38.0));
#420=CARTESIAN_POINT('',(9.16647339428788,19.1659017322012,38.0));
#421=CARTESIAN_POINT('',(9.77949961934714,19.8977734230538,4.35548004590446E-17));
#422=CARTESIAN_POINT('',(0.147711770335685,8.39870116344809,0.0));
#423=CARTESIAN_POINT('',(-13.3367912182804,-7.7,38.0));
#424=CARTESIAN_POINT('',(21.1813944836664,-1.64455204353314,38.0));
#425=CARTESIAN_POINT('',(22.1217270727851,-1.47959160487206,0.0));
#426=CARTESIAN_POINT('',(-13.3367912182804,-7.7,0.0));
#427=CARTESIAN_POINT('',(7.34734445150781,-4.07142843617537,38.0));
#428=CARTESIAN_POINT('',(12.3528738814432,-17.1945128466134,38.0));
#429=CARTESIAN_POINT('',(12.6931113706687,-18.0865194471537,8.71096009180893E-17));
#430=CARTESIAN_POINT('',(7.34734445150781,-4.07142843617537,0.0));
#431=CARTESIAN_POINT('',(3.88457803711796,-19.42724880695,31.55));
#432=CARTESIAN_POINT('',(3.82820272601591,-19.3793576608768,33.7000523490558));
#433=CARTESIAN_POINT('',(3.76985986988091,-19.3315850498223,35.8500569180387));
#434=CARTESIAN_POINT('',(3.70927279766016,-19.2839322192595,38.0));
#435=CARTESIAN_POINT('',(3.88457803711796,-19.42724880695,31.55));
#436=CARTESIAN_POINT('',(3.70927279766016,-19.2839322192595,38.0));
#437=CARTESIAN_POINT('',(-0.136729235317403,15.5496989791943,31.55));
#438=CARTESIAN_POINT('',(-3.91610217635431,-19.4542169272662,31.55));
#439=CARTESIAN_POINT('',(-3.74179204929426,-19.309691666869,38.0));
#440=CARTESIAN_POINT('',(-3.80204819126014,-19.3577622705298,35.8500569180387));
#441=CARTESIAN_POINT('',(-3.86005934259653,-19.405937134822,33.7000523490558));
#442=CARTESIAN_POINT('',(-3.91610217635431,-19.4542169272662,31.55));
#443=CARTESIAN_POINT('',(-3.74179204929426,-19.309691666869,38.0));
#444=CARTESIAN_POINT('',(-0.136729235317403,15.5496989791943,38.0));
#445=CARTESIAN_POINT('',(-12.0486028937347,-17.4090761808972,38.0));
#446=CARTESIAN_POINT('',(-12.3731020749835,-18.3069278422817,0.0));
#447=CARTESIAN_POINT('',(-0.136729235317403,15.5496989791943,38.0));
#448=CARTESIAN_POINT('',(-0.136729235317403,15.5496989791943,0.0));
#449=CARTESIAN_POINT('',(-7.27461339178929,-4.2,38.0));
#450=CARTESIAN_POINT('',(-7.27461339178929,-4.2,0.0));
#451=CARTESIAN_POINT('',(0.0,-24.0,38.0));
#452=CARTESIAN_POINT('',(6.77289074493009,0.25272034131303,38.0));
#453=CARTESIAN_POINT('',(0.0,-24.0,31.55));
#454=CARTESIAN_POINT('',(0.0,-24.0,31.55));
#455=CARTESIAN_POINT('',(0.0,-24.0,38.0));
#456=MECHANICAL_DESIGN_GEOMETRIC_PRESENTATION_REPRESENTATION('',(#24),#457);
#457=(GEOMETRIC_REPRESENTATION_CONTEXT(3)GLOBAL_UNCERTAINTY_ASSIGNED_CONTEXT((#458))
     GLOBAL_UNIT_ASSIGNED_CONTEXT((#464,#460,#459))REPRESENTATION_CONTEXT('C6-391',
     'TOP_LEVEL_ASSEMBLY_PART'));
#458=UNCERTAINTY_MEASURE_WITH_UNIT(LENGTH_MEASURE(2.0E-5),#464,'DISTANCE_ACCURACY_VALUE',
     'Maximum Tolerance applied to model');
#459=(NAMED_UNIT(*)SI_UNIT($,.STERADIAN.)SOLID_ANGLE_UNIT());
#460=(CONVERSION_BASED_UNIT('DEGREE',#462)NAMED_UNIT(*)PLANE_ANGLE_UNIT());
#461=DIMENSIONAL_EXPONENTS(0.0,0.0,0.0,0.0,0.0,0.0,0.0);
#462=PLANE_ANGLE_MEASURE_WITH_UNIT(PLANE_ANGLE_MEASURE(0.0174532925),#463);
#463=(NAMED_UNIT(*)PLANE_ANGLE_UNIT()SI_UNIT($,.RADIAN.));
#464=(LENGTH_UNIT()NAMED_UNIT(*)SI_UNIT(.MILLI.,.METRE.));
#465=CARTESIAN_POINT('',(0.0,0.0,0.0));
#466=DIRECTION('',(0.0,0.0,1.0));
#467=DIRECTION('',(1.0,0.0,0.0));
#468=AXIS2_PLACEMENT_3D('PCS',#465,#466,#467);
#469=CARTESIAN_POINT('',(0.0,0.0,0.0));
#470=DIRECTION('',(0.0,0.0,1.0));
#471=DIRECTION('',(1.0,0.0,0.0));
#472=AXIS2_PLACEMENT_3D('MCS',#469,#470,#471);
#473=CARTESIAN_POINT('',(0.0,0.0,-65.0));
#474=DIRECTION('',(0.0,0.0,1.0));
#475=DIRECTION('',(1.0,0.0,0.0));
#476=AXIS2_PLACEMENT_3D('CSW',#473,#474,#475);
#477=CONSTRUCTIVE_GEOMETRY_REPRESENTATION('supplemental geometry',(#468,#472,#476),
     #457);
#478=CONSTRUCTIVE_GEOMETRY_REPRESENTATION_RELATIONSHIP('supplemental geometry',$,
     #22,#477);
ENDSEC;
END-ISO-10303-21;
