ISO-10303-21;
HEADER;
FILE_DESCRIPTION(
/* description */ ('3-D model version:1'),
/* implementation_level */ '2;1');
FILE_NAME(
/* name */ 'C5-391.EH-16072',
/* time_stamp */ '2016-12-02T13:57:24',
/* author */ ('InteractiveCad'),
/* organization */ ('AB Sandvik Coromant'),
/* preprocessor_version */ 'ST-DEVELOPER v11',
/* originating_system */ 'SIEMENS UGS NX 6.0',
/* authorization */ '');
FILE_SCHEMA(('AUTOMOTIVE_DESIGN'));
ENDSEC;
DATA;
#10=SHAPE_REPRESENTATION_RELATIONSHIP('None','relationship between C5_391.EH_16072_635176893508277164_1_stp-None and\X\0D C5_391.EH_16072_635176893508277164_1_stp-None',
     #22,#11);
#11=ADVANCED_BREP_SHAPE_REPRESENTATION('C5_391.EH_16072_635176893508277164_1_stp-None',
     (#32),#457);
#12=SHAPE_DEFINITION_REPRESENTATION(#13,#22);
#13=PRODUCT_DEFINITION_SHAPE('','',#14);
#14=PRODUCT_DEFINITION(' ','',#16,#15);
#15=PRODUCT_DEFINITION_CONTEXT('part definition',#21,'design');
#16=PRODUCT_DEFINITION_FORMATION_WITH_SPECIFIED_SOURCE(' ',' ',#18,.NOT_KNOWN.);
#17=PRODUCT_RELATED_PRODUCT_CATEGORY('part','',(#18));
#18=PRODUCT('C5_391.EH_16072_635176893508277164_1_stp','C5_391.EH_16072_635176893508277164_1_stp',
     ' ',(#19));
#19=PRODUCT_CONTEXT(' ',#21,'mechanical');
#20=APPLICATION_PROTOCOL_DEFINITION('international standard','automotive_design',
     2001,#21);
#21=APPLICATION_CONTEXT('core data for automotive mechanical design processes');
#22=SHAPE_REPRESENTATION('C5_391.EH_16072_635176893508277164_1_stp-None',(#258),
     #457);
#23=PRESENTATION_LAYER_ASSIGNMENT('1','Layer 1',(#32));
#24=STYLED_ITEM('',(#25),#32);
#25=PRESENTATION_STYLE_ASSIGNMENT((#26));
#26=SURFACE_STYLE_USAGE(.BOTH.,#27);
#27=SURFACE_SIDE_STYLE('',(#28));
#28=SURFACE_STYLE_FILL_AREA(#29);
#29=FILL_AREA_STYLE('',(#30));
#30=FILL_AREA_STYLE_COLOUR('',#31);
#31=COLOUR_RGB('TLS_NOCUT',0.499992370489052,0.499992370489052,0.499992370489052);
#32=MANIFOLD_SOLID_BREP('NOCUT',#33);
#33=CLOSED_SHELL('',(#72,#73,#74,#75,#76,#77,#78,#79,#80,#81,#82,#83,#84,#85,#86,
     #87));
#34=B_SPLINE_CURVE_WITH_KNOTS('',3,(#431,#432,#433,#434),.UNSPECIFIED.,.F.,.F.,
     (4,4),(0.0,1.0),.UNSPECIFIED.);
#35=B_SPLINE_CURVE_WITH_KNOTS('',3,(#439,#440,#441,#442),.UNSPECIFIED.,.F.,.F.,
     (4,4),(0.0,1.0),.UNSPECIFIED.);
#36=LINE('',#413,#42);
#37=LINE('',#417,#43);
#38=LINE('',#421,#44);
#39=LINE('',#425,#45);
#40=LINE('',#429,#46);
#41=LINE('',#446,#47);
#42=VECTOR('',#337,1.0);
#43=VECTOR('',#340,1.0);
#44=VECTOR('',#345,1.0);
#45=VECTOR('',#350,1.0);
#46=VECTOR('',#355,1.0);
#47=VECTOR('',#362,1.0);
#48=TOROIDAL_SURFACE('',#266,16.7728712558903,5.0);
#49=CONICAL_SURFACE('',#264,7.7,8.00295120711699);
#50=CONICAL_SURFACE('',#268,15.4788838265223,75.0012788240046);
#51=CONICAL_SURFACE('',#279,28.0,1.43916666666667);
#52=CONICAL_SURFACE('',#281,12.0,1.43916666666667);
#53=CONICAL_SURFACE('',#283,28.0,1.43916666666667);
#54=CONICAL_SURFACE('',#285,12.0,1.43916666666667);
#55=CONICAL_SURFACE('',#289,28.0,1.43916666666667);
#56=CONICAL_SURFACE('',#291,12.0,1.43916666666667);
#57=CYLINDRICAL_SURFACE('',#262,7.7);
#58=CYLINDRICAL_SURFACE('',#270,25.0);
#59=CYLINDRICAL_SURFACE('',#296,5.0);
#60=FACE_BOUND('',#103,.T.);
#61=FACE_BOUND('',#104,.T.);
#62=FACE_BOUND('',#105,.T.);
#63=FACE_BOUND('',#106,.T.);
#64=FACE_BOUND('',#107,.T.);
#65=FACE_BOUND('',#108,.T.);
#66=FACE_BOUND('',#109,.T.);
#67=FACE_BOUND('',#110,.T.);
#68=FACE_BOUND('',#111,.T.);
#69=FACE_BOUND('',#112,.T.);
#70=FACE_BOUND('',#113,.T.);
#71=FACE_BOUND('',#114,.T.);
#72=ADVANCED_FACE('',(#92),#88,.F.);
#73=ADVANCED_FACE('',(#60,#61),#57,.T.);
#74=ADVANCED_FACE('',(#62,#63),#49,.T.);
#75=ADVANCED_FACE('',(#64,#65),#48,.F.);
#76=ADVANCED_FACE('',(#66,#67),#50,.T.);
#77=ADVANCED_FACE('',(#68,#69),#58,.T.);
#78=ADVANCED_FACE('',(#70,#71),#89,.F.);
#79=ADVANCED_FACE('',(#93),#51,.T.);
#80=ADVANCED_FACE('',(#94),#52,.T.);
#81=ADVANCED_FACE('',(#95),#53,.T.);
#82=ADVANCED_FACE('',(#96),#54,.T.);
#83=ADVANCED_FACE('',(#97),#55,.T.);
#84=ADVANCED_FACE('',(#98),#56,.T.);
#85=ADVANCED_FACE('',(#99),#90,.F.);
#86=ADVANCED_FACE('',(#100),#91,.F.);
#87=ADVANCED_FACE('',(#101),#59,.F.);
#88=PLANE('',#260);
#89=PLANE('',#277);
#90=PLANE('',#293);
#91=PLANE('',#295);
#92=FACE_OUTER_BOUND('',#102,.T.);
#93=FACE_OUTER_BOUND('',#115,.T.);
#94=FACE_OUTER_BOUND('',#116,.T.);
#95=FACE_OUTER_BOUND('',#117,.T.);
#96=FACE_OUTER_BOUND('',#118,.T.);
#97=FACE_OUTER_BOUND('',#119,.T.);
#98=FACE_OUTER_BOUND('',#120,.T.);
#99=FACE_OUTER_BOUND('',#121,.T.);
#100=FACE_OUTER_BOUND('',#122,.T.);
#101=FACE_OUTER_BOUND('',#123,.T.);
#102=EDGE_LOOP('',(#124));
#103=EDGE_LOOP('',(#125));
#104=EDGE_LOOP('',(#126));
#105=EDGE_LOOP('',(#127));
#106=EDGE_LOOP('',(#128));
#107=EDGE_LOOP('',(#129));
#108=EDGE_LOOP('',(#130));
#109=EDGE_LOOP('',(#131));
#110=EDGE_LOOP('',(#132));
#111=EDGE_LOOP('',(#133));
#112=EDGE_LOOP('',(#134));
#113=EDGE_LOOP('',(#135,#136,#137,#138,#139,#140));
#114=EDGE_LOOP('',(#141));
#115=EDGE_LOOP('',(#142,#143,#144,#145));
#116=EDGE_LOOP('',(#146,#147,#148,#149));
#117=EDGE_LOOP('',(#150,#151,#152,#153));
#118=EDGE_LOOP('',(#154,#155,#156,#157));
#119=EDGE_LOOP('',(#158,#159,#160,#161,#162,#163,#164,#165));
#120=EDGE_LOOP('',(#166,#167,#168,#169));
#121=EDGE_LOOP('',(#170,#171,#172,#173,#174,#175,#176,#177));
#122=EDGE_LOOP('',(#178,#179));
#123=EDGE_LOOP('',(#180,#181,#182,#183));
#124=ORIENTED_EDGE('',*,*,#206,.F.);
#125=ORIENTED_EDGE('',*,*,#207,.F.);
#126=ORIENTED_EDGE('',*,*,#206,.T.);
#127=ORIENTED_EDGE('',*,*,#208,.F.);
#128=ORIENTED_EDGE('',*,*,#207,.T.);
#129=ORIENTED_EDGE('',*,*,#209,.F.);
#130=ORIENTED_EDGE('',*,*,#208,.T.);
#131=ORIENTED_EDGE('',*,*,#210,.F.);
#132=ORIENTED_EDGE('',*,*,#209,.T.);
#133=ORIENTED_EDGE('',*,*,#211,.F.);
#134=ORIENTED_EDGE('',*,*,#210,.T.);
#135=ORIENTED_EDGE('',*,*,#212,.T.);
#136=ORIENTED_EDGE('',*,*,#213,.T.);
#137=ORIENTED_EDGE('',*,*,#214,.T.);
#138=ORIENTED_EDGE('',*,*,#215,.T.);
#139=ORIENTED_EDGE('',*,*,#216,.T.);
#140=ORIENTED_EDGE('',*,*,#217,.T.);
#141=ORIENTED_EDGE('',*,*,#211,.T.);
#142=ORIENTED_EDGE('',*,*,#214,.F.);
#143=ORIENTED_EDGE('',*,*,#218,.F.);
#144=ORIENTED_EDGE('',*,*,#219,.T.);
#145=ORIENTED_EDGE('',*,*,#220,.T.);
#146=ORIENTED_EDGE('',*,*,#215,.F.);
#147=ORIENTED_EDGE('',*,*,#220,.F.);
#148=ORIENTED_EDGE('',*,*,#221,.T.);
#149=ORIENTED_EDGE('',*,*,#222,.T.);
#150=ORIENTED_EDGE('',*,*,#216,.F.);
#151=ORIENTED_EDGE('',*,*,#222,.F.);
#152=ORIENTED_EDGE('',*,*,#223,.T.);
#153=ORIENTED_EDGE('',*,*,#224,.T.);
#154=ORIENTED_EDGE('',*,*,#217,.F.);
#155=ORIENTED_EDGE('',*,*,#224,.F.);
#156=ORIENTED_EDGE('',*,*,#225,.T.);
#157=ORIENTED_EDGE('',*,*,#226,.T.);
#158=ORIENTED_EDGE('',*,*,#227,.F.);
#159=ORIENTED_EDGE('',*,*,#228,.F.);
#160=ORIENTED_EDGE('',*,*,#229,.F.);
#161=ORIENTED_EDGE('',*,*,#230,.T.);
#162=ORIENTED_EDGE('',*,*,#231,.T.);
#163=ORIENTED_EDGE('',*,*,#212,.F.);
#164=ORIENTED_EDGE('',*,*,#226,.F.);
#165=ORIENTED_EDGE('',*,*,#232,.T.);
#166=ORIENTED_EDGE('',*,*,#213,.F.);
#167=ORIENTED_EDGE('',*,*,#231,.F.);
#168=ORIENTED_EDGE('',*,*,#233,.T.);
#169=ORIENTED_EDGE('',*,*,#218,.T.);
#170=ORIENTED_EDGE('',*,*,#230,.F.);
#171=ORIENTED_EDGE('',*,*,#234,.T.);
#172=ORIENTED_EDGE('',*,*,#232,.F.);
#173=ORIENTED_EDGE('',*,*,#225,.F.);
#174=ORIENTED_EDGE('',*,*,#223,.F.);
#175=ORIENTED_EDGE('',*,*,#221,.F.);
#176=ORIENTED_EDGE('',*,*,#219,.F.);
#177=ORIENTED_EDGE('',*,*,#233,.F.);
#178=ORIENTED_EDGE('',*,*,#228,.T.);
#179=ORIENTED_EDGE('',*,*,#235,.F.);
#180=ORIENTED_EDGE('',*,*,#227,.T.);
#181=ORIENTED_EDGE('',*,*,#234,.F.);
#182=ORIENTED_EDGE('',*,*,#229,.T.);
#183=ORIENTED_EDGE('',*,*,#235,.T.);
#184=VERTEX_POINT('',#383);
#185=VERTEX_POINT('',#386);
#186=VERTEX_POINT('',#389);
#187=VERTEX_POINT('',#392);
#188=VERTEX_POINT('',#395);
#189=VERTEX_POINT('',#398);
#190=VERTEX_POINT('',#401);
#191=VERTEX_POINT('',#402);
#192=VERTEX_POINT('',#404);
#193=VERTEX_POINT('',#406);
#194=VERTEX_POINT('',#408);
#195=VERTEX_POINT('',#410);
#196=VERTEX_POINT('',#414);
#197=VERTEX_POINT('',#416);
#198=VERTEX_POINT('',#420);
#199=VERTEX_POINT('',#424);
#200=VERTEX_POINT('',#428);
#201=VERTEX_POINT('',#435);
#202=VERTEX_POINT('',#436);
#203=VERTEX_POINT('',#438);
#204=VERTEX_POINT('',#443);
#205=VERTEX_POINT('',#445);
#206=EDGE_CURVE('',#184,#184,#236,.T.);
#207=EDGE_CURVE('',#185,#185,#237,.T.);
#208=EDGE_CURVE('',#186,#186,#238,.T.);
#209=EDGE_CURVE('',#187,#187,#239,.T.);
#210=EDGE_CURVE('',#188,#188,#240,.T.);
#211=EDGE_CURVE('',#189,#189,#241,.T.);
#212=EDGE_CURVE('',#190,#191,#242,.T.);
#213=EDGE_CURVE('',#191,#192,#243,.T.);
#214=EDGE_CURVE('',#192,#193,#244,.T.);
#215=EDGE_CURVE('',#193,#194,#245,.T.);
#216=EDGE_CURVE('',#194,#195,#246,.T.);
#217=EDGE_CURVE('',#195,#190,#247,.T.);
#218=EDGE_CURVE('',#196,#192,#36,.T.);
#219=EDGE_CURVE('',#196,#197,#248,.T.);
#220=EDGE_CURVE('',#197,#193,#37,.T.);
#221=EDGE_CURVE('',#197,#198,#249,.T.);
#222=EDGE_CURVE('',#198,#194,#38,.T.);
#223=EDGE_CURVE('',#198,#199,#250,.T.);
#224=EDGE_CURVE('',#199,#195,#39,.T.);
#225=EDGE_CURVE('',#199,#200,#251,.T.);
#226=EDGE_CURVE('',#200,#190,#40,.T.);
#227=EDGE_CURVE('',#201,#202,#34,.T.);
#228=EDGE_CURVE('',#203,#201,#252,.T.);
#229=EDGE_CURVE('',#204,#203,#35,.T.);
#230=EDGE_CURVE('',#204,#205,#253,.T.);
#231=EDGE_CURVE('',#205,#191,#41,.T.);
#232=EDGE_CURVE('',#200,#202,#254,.T.);
#233=EDGE_CURVE('',#205,#196,#255,.T.);
#234=EDGE_CURVE('',#204,#202,#256,.T.);
#235=EDGE_CURVE('',#203,#201,#257,.T.);
#236=CIRCLE('',#259,7.7);
#237=CIRCLE('',#261,7.7);
#238=CIRCLE('',#263,11.8215667615866);
#239=CIRCLE('',#265,15.4788838265223);
#240=CIRCLE('',#267,25.0000000000001);
#241=CIRCLE('',#269,25.0);
#242=CIRCLE('',#271,28.0);
#243=CIRCLE('',#272,12.0);
#244=CIRCLE('',#273,28.0);
#245=CIRCLE('',#274,12.0);
#246=CIRCLE('',#275,28.0);
#247=CIRCLE('',#276,12.0);
#248=CIRCLE('',#278,27.2462955787619);
#249=CIRCLE('',#280,11.2462955787618);
#250=CIRCLE('',#282,27.2462955787619);
#251=CIRCLE('',#284,11.2462955787618);
#252=CIRCLE('',#286,27.3857308966909);
#253=CIRCLE('',#287,27.2462955787619);
#254=CIRCLE('',#288,27.2462955787619);
#255=CIRCLE('',#290,11.2462955787618);
#256=CIRCLE('',#292,5.0);
#257=CIRCLE('',#294,5.0);
#258=AXIS2_PLACEMENT_3D('',#381,#297,#298);
#259=AXIS2_PLACEMENT_3D('',#382,#299,#300);
#260=AXIS2_PLACEMENT_3D('',#384,#301,#302);
#261=AXIS2_PLACEMENT_3D('',#385,#303,#304);
#262=AXIS2_PLACEMENT_3D('',#387,#305,#306);
#263=AXIS2_PLACEMENT_3D('',#388,#307,#308);
#264=AXIS2_PLACEMENT_3D('',#390,#309,#310);
#265=AXIS2_PLACEMENT_3D('',#391,#311,#312);
#266=AXIS2_PLACEMENT_3D('',#393,#313,#314);
#267=AXIS2_PLACEMENT_3D('',#394,#315,#316);
#268=AXIS2_PLACEMENT_3D('',#396,#317,#318);
#269=AXIS2_PLACEMENT_3D('',#397,#319,#320);
#270=AXIS2_PLACEMENT_3D('',#399,#321,#322);
#271=AXIS2_PLACEMENT_3D('',#400,#323,#324);
#272=AXIS2_PLACEMENT_3D('',#403,#325,#326);
#273=AXIS2_PLACEMENT_3D('',#405,#327,#328);
#274=AXIS2_PLACEMENT_3D('',#407,#329,#330);
#275=AXIS2_PLACEMENT_3D('',#409,#331,#332);
#276=AXIS2_PLACEMENT_3D('',#411,#333,#334);
#277=AXIS2_PLACEMENT_3D('',#412,#335,#336);
#278=AXIS2_PLACEMENT_3D('',#415,#338,#339);
#279=AXIS2_PLACEMENT_3D('',#418,#341,#342);
#280=AXIS2_PLACEMENT_3D('',#419,#343,#344);
#281=AXIS2_PLACEMENT_3D('',#422,#346,#347);
#282=AXIS2_PLACEMENT_3D('',#423,#348,#349);
#283=AXIS2_PLACEMENT_3D('',#426,#351,#352);
#284=AXIS2_PLACEMENT_3D('',#427,#353,#354);
#285=AXIS2_PLACEMENT_3D('',#430,#356,#357);
#286=AXIS2_PLACEMENT_3D('',#437,#358,#359);
#287=AXIS2_PLACEMENT_3D('',#444,#360,#361);
#288=AXIS2_PLACEMENT_3D('',#447,#363,#364);
#289=AXIS2_PLACEMENT_3D('',#448,#365,#366);
#290=AXIS2_PLACEMENT_3D('',#449,#367,#368);
#291=AXIS2_PLACEMENT_3D('',#450,#369,#370);
#292=AXIS2_PLACEMENT_3D('',#451,#371,#372);
#293=AXIS2_PLACEMENT_3D('',#452,#373,#374);
#294=AXIS2_PLACEMENT_3D('',#453,#375,#376);
#295=AXIS2_PLACEMENT_3D('',#454,#377,#378);
#296=AXIS2_PLACEMENT_3D('',#455,#379,#380);
#297=DIRECTION('',(0.0,0.0,1.0));
#298=DIRECTION('',(1.0,0.0,0.0));
#299=DIRECTION('',(0.0,0.0,1.0));
#300=DIRECTION('',(1.0,0.0,0.0));
#301=DIRECTION('',(0.0,0.0,1.0));
#302=DIRECTION('',(1.0,0.0,0.0));
#303=DIRECTION('',(0.0,0.0,1.0));
#304=DIRECTION('',(1.0,0.0,0.0));
#305=DIRECTION('',(0.0,0.0,1.0));
#306=DIRECTION('',(1.0,0.0,0.0));
#307=DIRECTION('',(0.0,0.0,1.0));
#308=DIRECTION('',(1.0,0.0,0.0));
#309=DIRECTION('',(0.0,0.0,1.0));
#310=DIRECTION('',(1.0,0.0,-3.27541685511498E-16));
#311=DIRECTION('',(0.0,0.0,1.0));
#312=DIRECTION('',(1.0,0.0,0.0));
#313=DIRECTION('',(0.0,0.0,1.0));
#314=DIRECTION('',(1.0,0.0,0.0));
#315=DIRECTION('',(0.0,0.0,1.0));
#316=DIRECTION('',(1.0,0.0,0.0));
#317=DIRECTION('',(0.0,0.0,1.0));
#318=DIRECTION('',(1.0,0.0,-7.4057072703143E-18));
#319=DIRECTION('',(0.0,0.0,1.0));
#320=DIRECTION('',(1.0,0.0,0.0));
#321=DIRECTION('',(0.0,0.0,1.0));
#322=DIRECTION('',(1.0,0.0,0.0));
#323=DIRECTION('',(0.0,0.0,-1.0));
#324=DIRECTION('',(-1.0,0.0,0.0));
#325=DIRECTION('',(0.0,0.0,-1.0));
#326=DIRECTION('',(-1.0,0.0,0.0));
#327=DIRECTION('',(0.0,0.0,-1.0));
#328=DIRECTION('',(-1.0,0.0,0.0));
#329=DIRECTION('',(0.0,0.0,-1.0));
#330=DIRECTION('',(-1.0,0.0,0.0));
#331=DIRECTION('',(0.0,0.0,-1.0));
#332=DIRECTION('',(-1.0,0.0,0.0));
#333=DIRECTION('',(0.0,0.0,-1.0));
#334=DIRECTION('',(-1.0,0.0,0.0));
#335=DIRECTION('',(0.0,0.0,-1.0));
#336=DIRECTION('',(-1.0,0.0,0.0));
#337=DIRECTION('',(-0.0248035201341083,0.00394671043216829,-0.999684554679986));
#338=DIRECTION('',(0.0,0.0,-1.0));
#339=DIRECTION('',(-1.0,0.0,0.0));
#340=DIRECTION('',(-0.0157864666720801,0.0195340370709642,-0.999684554679986));
#341=DIRECTION('',(0.0,0.0,-1.0));
#342=DIRECTION('',(-1.0,0.0,0.0));
#343=DIRECTION('',(0.0,0.0,-1.0));
#344=DIRECTION('',(-1.0,0.0,0.0));
#345=DIRECTION('',(0.0158141500870706,0.0195116322049721,-0.999684554679986));
#346=DIRECTION('',(0.0,0.0,-1.0));
#347=DIRECTION('',(-1.0,0.0,0.0));
#348=DIRECTION('',(0.0,0.0,-1.0));
#349=DIRECTION('',(-1.0,0.0,0.0));
#350=DIRECTION('',(0.0248046442023397,0.00393963961217701,-0.999684554679986));
#351=DIRECTION('',(0.0,0.0,-1.0));
#352=DIRECTION('',(-1.0,0.0,0.0));
#353=DIRECTION('',(0.0,0.0,-1.0));
#354=DIRECTION('',(-1.0,0.0,0.0));
#355=DIRECTION('',(0.00902373900588192,-0.0234384997094998,-0.999684554679986));
#356=DIRECTION('',(0.0,0.0,-1.0));
#357=DIRECTION('',(-1.0,0.0,0.0));
#358=DIRECTION('',(0.0,0.0,1.0));
#359=DIRECTION('',(-1.0,0.0,0.0));
#360=DIRECTION('',(0.0,0.0,-1.0));
#361=DIRECTION('',(-1.0,0.0,0.0));
#362=DIRECTION('',(-0.00898380857141531,-0.0234538337555006,-0.999684554679986));
#363=DIRECTION('',(0.0,0.0,-1.0));
#364=DIRECTION('',(-1.0,0.0,0.0));
#365=DIRECTION('',(0.0,0.0,-1.0));
#366=DIRECTION('',(-1.0,0.0,0.0));
#367=DIRECTION('',(0.0,0.0,-1.0));
#368=DIRECTION('',(-1.0,0.0,0.0));
#369=DIRECTION('',(0.0,0.0,-1.0));
#370=DIRECTION('',(-1.0,0.0,0.0));
#371=DIRECTION('',(0.0,0.0,-1.0));
#372=DIRECTION('',(-1.0,0.0,0.0));
#373=DIRECTION('',(0.0,0.0,-1.0));
#374=DIRECTION('',(-1.0,0.0,0.0));
#375=DIRECTION('',(0.0,0.0,-1.0));
#376=DIRECTION('',(-1.0,0.0,0.0));
#377=DIRECTION('',(0.0,0.0,-1.0));
#378=DIRECTION('',(-1.0,0.0,0.0));
#379=DIRECTION('',(0.0,0.0,-1.0));
#380=DIRECTION('',(-1.0,0.0,0.0));
#381=CARTESIAN_POINT('',(0.0,0.0,0.0));
#382=CARTESIAN_POINT('',(0.0,0.0,-72.0));
#383=CARTESIAN_POINT('',(7.7,0.0,-72.0));
#384=CARTESIAN_POINT('',(0.0,8.88178419700125E-16,-72.0));
#385=CARTESIAN_POINT('',(0.0,0.0,-56.0));
#386=CARTESIAN_POINT('',(7.7,0.0,-56.0));
#387=CARTESIAN_POINT('',(0.0,0.0,-72.0));
#388=CARTESIAN_POINT('',(0.0,0.0,-26.6844851004573));
#389=CARTESIAN_POINT('',(11.8215667615866,0.0,-26.6844851004573));
#390=CARTESIAN_POINT('',(0.0,0.0,-56.0));
#391=CARTESIAN_POINT('',(0.0,0.0,-22.5509476253188));
#392=CARTESIAN_POINT('',(15.4788838265223,0.0,-22.5509476253188));
#393=CARTESIAN_POINT('',(0.0,0.0,-27.3806056393647));
#394=CARTESIAN_POINT('',(0.0,0.0,-20.0));
#395=CARTESIAN_POINT('',(25.0000000000001,0.0,-20.0));
#396=CARTESIAN_POINT('',(0.0,0.0,-22.5509476253188));
#397=CARTESIAN_POINT('',(0.0,0.0,0.0));
#398=CARTESIAN_POINT('',(25.0,0.0,0.0));
#399=CARTESIAN_POINT('',(0.0,0.0,-72.0));
#400=CARTESIAN_POINT('',(-0.00990452952675801,11.6313911327719,0.0));
#401=CARTESIAN_POINT('',(10.0501831687922,-14.4989482355205,0.0));
#402=CARTESIAN_POINT('',(-10.0254759056977,-14.5160433495789,0.0));
#403=CARTESIAN_POINT('',(-5.73308817305298,-3.31,0.0));
#404=CARTESIAN_POINT('',(-17.5840002560203,-1.42429514457352,0.0));
#405=CARTESIAN_POINT('',(10.0681279375701,-5.82427314056864,0.0));
#406=CARTESIAN_POINT('',(-7.53136591572022,15.9531880546211,0.0));
#407=CARTESIAN_POINT('',(0.0112743071184957,6.61999039953979,0.0));
#408=CARTESIAN_POINT('',(7.56714143143875,15.9424831991946,0.0));
#409=CARTESIAN_POINT('',(-10.0632151919752,-5.81,0.0));
#410=CARTESIAN_POINT('',(17.5901661656285,-1.41790488594162,0.0));
#411=CARTESIAN_POINT('',(5.7387170123698,-3.30023136339521,0.0));
#412=CARTESIAN_POINT('',(0.0,25.0,0.0));
#413=CARTESIAN_POINT('',(-17.5840002560203,-1.42429514457352,-1.74219201836179E-16));
#414=CARTESIAN_POINT('',(-16.8396598533005,-1.54273381846396,30.0));
#415=CARTESIAN_POINT('',(10.0681279375701,-5.82427314056864,30.0));
#416=CARTESIAN_POINT('',(-7.05762247540669,15.366982026544,30.0));
#417=CARTESIAN_POINT('',(-7.53136591572022,15.9531880546211,0.0));
#418=CARTESIAN_POINT('',(10.0681279375701,-5.82427314056864,0.0));
#419=CARTESIAN_POINT('',(0.0112743071184957,6.61999039953979,30.0));
#420=CARTESIAN_POINT('',(7.09256722661472,15.3569495291895,30.0));
#421=CARTESIAN_POINT('',(7.56714143143875,15.9424831991946,4.35548004590446E-17));
#422=CARTESIAN_POINT('',(0.0112743071184957,6.61999039953979,0.0));
#423=CARTESIAN_POINT('',(-10.0632151919752,-5.81,30.0));
#424=CARTESIAN_POINT('',(16.845792030221,-1.53613136829749,30.0));
#425=CARTESIAN_POINT('',(17.5901661656285,-1.41790488594162,0.0));
#426=CARTESIAN_POINT('',(-10.0632151919752,-5.81,0.0));
#427=CARTESIAN_POINT('',(5.7387170123698,-3.30023136339521,30.0));
#428=CARTESIAN_POINT('',(9.77938557678269,-13.7955713672942,30.0));
#429=CARTESIAN_POINT('',(10.0501831687922,-14.4989482355205,0.0));
#430=CARTESIAN_POINT('',(5.7387170123698,-3.30023136339521,0.0));
#431=CARTESIAN_POINT('',(3.58734998592506,-15.5170529607122,24.45));
#432=CARTESIAN_POINT('',(3.54701774381426,-15.4755117410105,26.3000273089909));
#433=CARTESIAN_POINT('',(3.50538973197555,-15.4340772977189,28.1500293204981));
#434=CARTESIAN_POINT('',(3.46233244950734,-15.3927497994888,30.0));
#435=CARTESIAN_POINT('',(3.58734998592506,-15.5170529607122,24.45));
#436=CARTESIAN_POINT('',(3.46233244950734,-15.3927497994888,30.0));
#437=CARTESIAN_POINT('',(-0.00990452952675801,11.6313911327719,24.45));
#438=CARTESIAN_POINT('',(-3.58960162766305,-15.5193735973709,24.45));
#439=CARTESIAN_POINT('',(-3.46466450317153,-15.3949896143751,30.0));
#440=CARTESIAN_POINT('',(-3.50769505049887,-15.4363449487375,28.1500293204981));
#441=CARTESIAN_POINT('',(-3.54929625833513,-15.4778063038418,26.3000273089909));
#442=CARTESIAN_POINT('',(-3.58960162766305,-15.5193735973709,24.45));
#443=CARTESIAN_POINT('',(-3.46466450317153,-15.3949896143751,30.0));
#444=CARTESIAN_POINT('',(-0.00990452952675801,11.6313911327719,30.0));
#445=CARTESIAN_POINT('',(-9.75587660471742,-13.8122063148152,30.0));
#446=CARTESIAN_POINT('',(-10.0254759056977,-14.5160433495789,0.0));
#447=CARTESIAN_POINT('',(-0.00990452952675801,11.6313911327719,30.0));
#448=CARTESIAN_POINT('',(-0.00990452952675801,11.6313911327719,0.0));
#449=CARTESIAN_POINT('',(-5.73308817305298,-3.31,30.0));
#450=CARTESIAN_POINT('',(-5.73308817305298,-3.31,0.0));
#451=CARTESIAN_POINT('',(0.0,-19.0,30.0));
#452=CARTESIAN_POINT('',(5.03970112234431,0.397858629485572,30.0));
#453=CARTESIAN_POINT('',(0.0,-19.0,24.45));
#454=CARTESIAN_POINT('',(0.0,-19.0,24.45));
#455=CARTESIAN_POINT('',(0.0,-19.0,30.0));
#456=MECHANICAL_DESIGN_GEOMETRIC_PRESENTATION_REPRESENTATION('',(#24),#457);
#457=(GEOMETRIC_REPRESENTATION_CONTEXT(3)GLOBAL_UNCERTAINTY_ASSIGNED_CONTEXT((#458))
     GLOBAL_UNIT_ASSIGNED_CONTEXT((#464,#460,#459))REPRESENTATION_CONTEXT('C5-391',
     'TOP_LEVEL_ASSEMBLY_PART'));
#458=UNCERTAINTY_MEASURE_WITH_UNIT(LENGTH_MEASURE(2.0E-5),#464,'DISTANCE_ACCURACY_VALUE',
     'Maximum Tolerance applied to model');
#459=(NAMED_UNIT(*)SI_UNIT($,.STERADIAN.)SOLID_ANGLE_UNIT());
#460=(CONVERSION_BASED_UNIT('DEGREE',#462)NAMED_UNIT(*)PLANE_ANGLE_UNIT());
#461=DIMENSIONAL_EXPONENTS(0.0,0.0,0.0,0.0,0.0,0.0,0.0);
#462=PLANE_ANGLE_MEASURE_WITH_UNIT(PLANE_ANGLE_MEASURE(0.0174532925),#463);
#463=(NAMED_UNIT(*)PLANE_ANGLE_UNIT()SI_UNIT($,.RADIAN.));
#464=(LENGTH_UNIT()NAMED_UNIT(*)SI_UNIT(.MILLI.,.METRE.));
#465=CARTESIAN_POINT('',(0.0,0.0,0.0));
#466=DIRECTION('',(0.0,0.0,1.0));
#467=DIRECTION('',(1.0,0.0,0.0));
#468=AXIS2_PLACEMENT_3D('PCS',#465,#466,#467);
#469=CARTESIAN_POINT('',(0.0,0.0,0.0));
#470=DIRECTION('',(0.0,0.0,1.0));
#471=DIRECTION('',(1.0,0.0,0.0));
#472=AXIS2_PLACEMENT_3D('MCS',#469,#470,#471);
#473=CARTESIAN_POINT('',(0.0,0.0,-72.0));
#474=DIRECTION('',(0.0,0.0,1.0));
#475=DIRECTION('',(1.0,0.0,0.0));
#476=AXIS2_PLACEMENT_3D('CSW',#473,#474,#475);
#477=CONSTRUCTIVE_GEOMETRY_REPRESENTATION('supplemental geometry',(#468,#472,#476),
     #457);
#478=CONSTRUCTIVE_GEOMETRY_REPRESENTATION_RELATIONSHIP('supplemental geometry',$,
     #22,#477);
ENDSEC;
END-ISO-10303-21;
