ISO-10303-21;
HEADER;
FILE_DESCRIPTION(
/* description */ ('3-D model version:1'),
/* implementation_level */ '2;1');
FILE_NAME(
/* name */ 'C5-391.EH-16050',
/* time_stamp */ '2016-12-02T13:56:18',
/* author */ ('InteractiveCad'),
/* organization */ ('AB Sandvik Coromant'),
/* preprocessor_version */ 'ST-DEVELOPER v11',
/* originating_system */ 'SIEMENS UGS NX 6.0',
/* authorization */ '');
FILE_SCHEMA(('AUTOMOTIVE_DESIGN'));
ENDSEC;
DATA;
#10=SHAPE_REPRESENTATION_RELATIONSHIP('None','relationship between C5_391.EH_16050_635176893446713876_1_stp-None and\X\0D C5_391.EH_16050_635176893446713876_1_stp-None',
     #22,#11);
#11=ADVANCED_BREP_SHAPE_REPRESENTATION('C5_391.EH_16050_635176893446713876_1_stp-None',
     (#32),#437);
#12=SHAPE_DEFINITION_REPRESENTATION(#13,#22);
#13=PRODUCT_DEFINITION_SHAPE('','',#14);
#14=PRODUCT_DEFINITION(' ','',#16,#15);
#15=PRODUCT_DEFINITION_CONTEXT('part definition',#21,'design');
#16=PRODUCT_DEFINITION_FORMATION_WITH_SPECIFIED_SOURCE(' ',' ',#18,.NOT_KNOWN.);
#17=PRODUCT_RELATED_PRODUCT_CATEGORY('part','',(#18));
#18=PRODUCT('C5_391.EH_16050_635176893446713876_1_stp','C5_391.EH_16050_635176893446713876_1_stp',
     ' ',(#19));
#19=PRODUCT_CONTEXT(' ',#21,'mechanical');
#20=APPLICATION_PROTOCOL_DEFINITION('international standard','automotive_design',
     2001,#21);
#21=APPLICATION_CONTEXT('core data for automotive mechanical design processes');
#22=SHAPE_REPRESENTATION('C5_391.EH_16050_635176893446713876_1_stp-None',(#247),
     #437);
#23=PRESENTATION_LAYER_ASSIGNMENT('1','Layer 1',(#32));
#24=STYLED_ITEM('',(#25),#32);
#25=PRESENTATION_STYLE_ASSIGNMENT((#26));
#26=SURFACE_STYLE_USAGE(.BOTH.,#27);
#27=SURFACE_SIDE_STYLE('',(#28));
#28=SURFACE_STYLE_FILL_AREA(#29);
#29=FILL_AREA_STYLE('',(#30));
#30=FILL_AREA_STYLE_COLOUR('',#31);
#31=COLOUR_RGB('TLS_NOCUT',0.499992370489052,0.499992370489052,0.499992370489052);
#32=MANIFOLD_SOLID_BREP('NOCUT',#33);
#33=CLOSED_SHELL('',(#70,#71,#72,#73,#74,#75,#76,#77,#78,#79,#80,#81,#82,#83,#84));
#34=TOROIDAL_SURFACE('',#283,12.7,5.0);
#35=PLANE('',#272);
#36=PLANE('',#273);
#37=PLANE('',#275);
#38=PLANE('',#278);
#39=B_SPLINE_CURVE_WITH_KNOTS('',3,(#397,#398,#399,#400),.UNSPECIFIED.,.F.,.F.,
     (4,4),(0.0,1.0),.UNSPECIFIED.);
#40=B_SPLINE_CURVE_WITH_KNOTS('',3,(#405,#406,#407,#408),.UNSPECIFIED.,.F.,.F.,
     (4,4),(0.0,1.0),.UNSPECIFIED.);
#41=CONICAL_SURFACE('',#253,28.0,1.43916666666667);
#42=CONICAL_SURFACE('',#256,12.0,1.43916666666667);
#43=CONICAL_SURFACE('',#259,28.0,1.43916666666667);
#44=CONICAL_SURFACE('',#262,12.0,1.43916666666667);
#45=CONICAL_SURFACE('',#267,28.0,1.43916666666667);
#46=CONICAL_SURFACE('',#270,12.0,1.43916666666667);
#47=CONICAL_SURFACE('',#282,7.7,75.0);
#48=FACE_OUTER_BOUND('',#100,.T.);
#49=FACE_OUTER_BOUND('',#101,.T.);
#50=FACE_OUTER_BOUND('',#102,.T.);
#51=FACE_OUTER_BOUND('',#103,.T.);
#52=FACE_OUTER_BOUND('',#104,.T.);
#53=FACE_OUTER_BOUND('',#105,.T.);
#54=FACE_OUTER_BOUND('',#106,.T.);
#55=FACE_OUTER_BOUND('',#109,.T.);
#56=FACE_OUTER_BOUND('',#110,.T.);
#57=FACE_OUTER_BOUND('',#111,.T.);
#58=LINE('',#373,#64);
#59=LINE('',#377,#65);
#60=LINE('',#383,#66);
#61=LINE('',#389,#67);
#62=LINE('',#395,#68);
#63=LINE('',#412,#69);
#64=VECTOR('',#294,1.0);
#65=VECTOR('',#297,1.0);
#66=VECTOR('',#304,1.0);
#67=VECTOR('',#311,1.0);
#68=VECTOR('',#318,1.0);
#69=VECTOR('',#325,1.0);
#70=ADVANCED_FACE('',(#88,#89),#85,.T.);
#71=ADVANCED_FACE('',(#48),#41,.T.);
#72=ADVANCED_FACE('',(#49),#42,.T.);
#73=ADVANCED_FACE('',(#50),#43,.T.);
#74=ADVANCED_FACE('',(#51),#44,.T.);
#75=ADVANCED_FACE('',(#52),#45,.T.);
#76=ADVANCED_FACE('',(#53),#46,.T.);
#77=ADVANCED_FACE('',(#54),#35,.F.);
#78=ADVANCED_FACE('',(#90,#91),#36,.T.);
#79=ADVANCED_FACE('',(#55),#37,.F.);
#80=ADVANCED_FACE('',(#56),#86,.F.);
#81=ADVANCED_FACE('',(#57),#38,.T.);
#82=ADVANCED_FACE('',(#92,#93),#87,.T.);
#83=ADVANCED_FACE('',(#94,#95),#47,.T.);
#84=ADVANCED_FACE('',(#96,#97),#34,.F.);
#85=CYLINDRICAL_SURFACE('',#250,25.0);
#86=CYLINDRICAL_SURFACE('',#276,5.0);
#87=CYLINDRICAL_SURFACE('',#280,7.7);
#88=FACE_BOUND('',#98,.T.);
#89=FACE_BOUND('',#99,.T.);
#90=FACE_BOUND('',#107,.T.);
#91=FACE_BOUND('',#108,.T.);
#92=FACE_BOUND('',#112,.T.);
#93=FACE_BOUND('',#113,.T.);
#94=FACE_BOUND('',#114,.T.);
#95=FACE_BOUND('',#115,.T.);
#96=FACE_BOUND('',#116,.T.);
#97=FACE_BOUND('',#117,.T.);
#98=EDGE_LOOP('',(#118));
#99=EDGE_LOOP('',(#119));
#100=EDGE_LOOP('',(#120,#121,#122,#123));
#101=EDGE_LOOP('',(#124,#125,#126,#127));
#102=EDGE_LOOP('',(#128,#129,#130,#131));
#103=EDGE_LOOP('',(#132,#133,#134,#135));
#104=EDGE_LOOP('',(#136,#137,#138,#139,#140,#141,#142,#143));
#105=EDGE_LOOP('',(#144,#145,#146,#147));
#106=EDGE_LOOP('',(#148,#149,#150,#151,#152,#153,#154,#155));
#107=EDGE_LOOP('',(#156,#157,#158,#159,#160,#161));
#108=EDGE_LOOP('',(#162));
#109=EDGE_LOOP('',(#163,#164));
#110=EDGE_LOOP('',(#165,#166,#167,#168));
#111=EDGE_LOOP('',(#169));
#112=EDGE_LOOP('',(#170));
#113=EDGE_LOOP('',(#171));
#114=EDGE_LOOP('',(#172));
#115=EDGE_LOOP('',(#173));
#116=EDGE_LOOP('',(#174));
#117=EDGE_LOOP('',(#175));
#118=ORIENTED_EDGE('',*,*,#197,.F.);
#119=ORIENTED_EDGE('',*,*,#198,.T.);
#120=ORIENTED_EDGE('',*,*,#199,.F.);
#121=ORIENTED_EDGE('',*,*,#200,.F.);
#122=ORIENTED_EDGE('',*,*,#201,.T.);
#123=ORIENTED_EDGE('',*,*,#202,.T.);
#124=ORIENTED_EDGE('',*,*,#203,.F.);
#125=ORIENTED_EDGE('',*,*,#202,.F.);
#126=ORIENTED_EDGE('',*,*,#204,.T.);
#127=ORIENTED_EDGE('',*,*,#205,.T.);
#128=ORIENTED_EDGE('',*,*,#206,.F.);
#129=ORIENTED_EDGE('',*,*,#205,.F.);
#130=ORIENTED_EDGE('',*,*,#207,.T.);
#131=ORIENTED_EDGE('',*,*,#208,.T.);
#132=ORIENTED_EDGE('',*,*,#209,.F.);
#133=ORIENTED_EDGE('',*,*,#208,.F.);
#134=ORIENTED_EDGE('',*,*,#210,.T.);
#135=ORIENTED_EDGE('',*,*,#211,.T.);
#136=ORIENTED_EDGE('',*,*,#212,.F.);
#137=ORIENTED_EDGE('',*,*,#213,.F.);
#138=ORIENTED_EDGE('',*,*,#214,.F.);
#139=ORIENTED_EDGE('',*,*,#215,.T.);
#140=ORIENTED_EDGE('',*,*,#216,.T.);
#141=ORIENTED_EDGE('',*,*,#217,.F.);
#142=ORIENTED_EDGE('',*,*,#211,.F.);
#143=ORIENTED_EDGE('',*,*,#218,.T.);
#144=ORIENTED_EDGE('',*,*,#219,.F.);
#145=ORIENTED_EDGE('',*,*,#216,.F.);
#146=ORIENTED_EDGE('',*,*,#220,.T.);
#147=ORIENTED_EDGE('',*,*,#200,.T.);
#148=ORIENTED_EDGE('',*,*,#215,.F.);
#149=ORIENTED_EDGE('',*,*,#221,.T.);
#150=ORIENTED_EDGE('',*,*,#218,.F.);
#151=ORIENTED_EDGE('',*,*,#210,.F.);
#152=ORIENTED_EDGE('',*,*,#207,.F.);
#153=ORIENTED_EDGE('',*,*,#204,.F.);
#154=ORIENTED_EDGE('',*,*,#201,.F.);
#155=ORIENTED_EDGE('',*,*,#220,.F.);
#156=ORIENTED_EDGE('',*,*,#219,.T.);
#157=ORIENTED_EDGE('',*,*,#199,.T.);
#158=ORIENTED_EDGE('',*,*,#203,.T.);
#159=ORIENTED_EDGE('',*,*,#206,.T.);
#160=ORIENTED_EDGE('',*,*,#209,.T.);
#161=ORIENTED_EDGE('',*,*,#217,.T.);
#162=ORIENTED_EDGE('',*,*,#198,.F.);
#163=ORIENTED_EDGE('',*,*,#213,.T.);
#164=ORIENTED_EDGE('',*,*,#222,.F.);
#165=ORIENTED_EDGE('',*,*,#212,.T.);
#166=ORIENTED_EDGE('',*,*,#221,.F.);
#167=ORIENTED_EDGE('',*,*,#214,.T.);
#168=ORIENTED_EDGE('',*,*,#222,.T.);
#169=ORIENTED_EDGE('',*,*,#223,.T.);
#170=ORIENTED_EDGE('',*,*,#224,.T.);
#171=ORIENTED_EDGE('',*,*,#223,.F.);
#172=ORIENTED_EDGE('',*,*,#225,.T.);
#173=ORIENTED_EDGE('',*,*,#197,.T.);
#174=ORIENTED_EDGE('',*,*,#225,.F.);
#175=ORIENTED_EDGE('',*,*,#224,.F.);
#176=VERTEX_POINT('',#366);
#177=VERTEX_POINT('',#368);
#178=VERTEX_POINT('',#371);
#179=VERTEX_POINT('',#372);
#180=VERTEX_POINT('',#374);
#181=VERTEX_POINT('',#376);
#182=VERTEX_POINT('',#380);
#183=VERTEX_POINT('',#382);
#184=VERTEX_POINT('',#386);
#185=VERTEX_POINT('',#388);
#186=VERTEX_POINT('',#392);
#187=VERTEX_POINT('',#394);
#188=VERTEX_POINT('',#401);
#189=VERTEX_POINT('',#402);
#190=VERTEX_POINT('',#404);
#191=VERTEX_POINT('',#409);
#192=VERTEX_POINT('',#411);
#193=VERTEX_POINT('',#413);
#194=VERTEX_POINT('',#427);
#195=VERTEX_POINT('',#430);
#196=VERTEX_POINT('',#433);
#197=EDGE_CURVE('',#176,#176,#226,.T.);
#198=EDGE_CURVE('',#177,#177,#227,.T.);
#199=EDGE_CURVE('',#178,#179,#228,.T.);
#200=EDGE_CURVE('',#180,#178,#58,.T.);
#201=EDGE_CURVE('',#180,#181,#229,.T.);
#202=EDGE_CURVE('',#181,#179,#59,.T.);
#203=EDGE_CURVE('',#179,#182,#230,.T.);
#204=EDGE_CURVE('',#181,#183,#231,.T.);
#205=EDGE_CURVE('',#183,#182,#60,.T.);
#206=EDGE_CURVE('',#182,#184,#232,.T.);
#207=EDGE_CURVE('',#183,#185,#233,.T.);
#208=EDGE_CURVE('',#185,#184,#61,.T.);
#209=EDGE_CURVE('',#184,#186,#234,.T.);
#210=EDGE_CURVE('',#185,#187,#235,.T.);
#211=EDGE_CURVE('',#187,#186,#62,.T.);
#212=EDGE_CURVE('',#188,#189,#39,.T.);
#213=EDGE_CURVE('',#190,#188,#236,.T.);
#214=EDGE_CURVE('',#191,#190,#40,.T.);
#215=EDGE_CURVE('',#191,#192,#237,.T.);
#216=EDGE_CURVE('',#192,#193,#63,.T.);
#217=EDGE_CURVE('',#186,#193,#238,.T.);
#218=EDGE_CURVE('',#187,#189,#239,.T.);
#219=EDGE_CURVE('',#193,#178,#240,.T.);
#220=EDGE_CURVE('',#192,#180,#241,.T.);
#221=EDGE_CURVE('',#191,#189,#242,.T.);
#222=EDGE_CURVE('',#190,#188,#243,.T.);
#223=EDGE_CURVE('',#194,#194,#244,.T.);
#224=EDGE_CURVE('',#195,#195,#245,.T.);
#225=EDGE_CURVE('',#196,#196,#246,.T.);
#226=CIRCLE('',#248,25.0);
#227=CIRCLE('',#249,25.0);
#228=CIRCLE('',#251,28.0);
#229=CIRCLE('',#252,27.2462955787619);
#230=CIRCLE('',#254,12.0);
#231=CIRCLE('',#255,11.2462955787618);
#232=CIRCLE('',#257,28.0);
#233=CIRCLE('',#258,27.2462955787619);
#234=CIRCLE('',#260,12.0);
#235=CIRCLE('',#261,11.2462955787618);
#236=CIRCLE('',#263,27.3857308966909);
#237=CIRCLE('',#264,27.2462955787619);
#238=CIRCLE('',#265,28.0);
#239=CIRCLE('',#266,27.2462955787619);
#240=CIRCLE('',#268,12.0);
#241=CIRCLE('',#269,11.2462955787618);
#242=CIRCLE('',#271,5.0);
#243=CIRCLE('',#274,5.0);
#244=CIRCLE('',#277,7.7);
#245=CIRCLE('',#279,7.7);
#246=CIRCLE('',#281,11.4059047744874);
#247=AXIS2_PLACEMENT_3D('',#364,#284,#285);
#248=AXIS2_PLACEMENT_3D('',#365,#286,#287);
#249=AXIS2_PLACEMENT_3D('',#367,#288,#289);
#250=AXIS2_PLACEMENT_3D('',#369,#290,#291);
#251=AXIS2_PLACEMENT_3D('',#370,#292,#293);
#252=AXIS2_PLACEMENT_3D('',#375,#295,#296);
#253=AXIS2_PLACEMENT_3D('',#378,#298,#299);
#254=AXIS2_PLACEMENT_3D('',#379,#300,#301);
#255=AXIS2_PLACEMENT_3D('',#381,#302,#303);
#256=AXIS2_PLACEMENT_3D('',#384,#305,#306);
#257=AXIS2_PLACEMENT_3D('',#385,#307,#308);
#258=AXIS2_PLACEMENT_3D('',#387,#309,#310);
#259=AXIS2_PLACEMENT_3D('',#390,#312,#313);
#260=AXIS2_PLACEMENT_3D('',#391,#314,#315);
#261=AXIS2_PLACEMENT_3D('',#393,#316,#317);
#262=AXIS2_PLACEMENT_3D('',#396,#319,#320);
#263=AXIS2_PLACEMENT_3D('',#403,#321,#322);
#264=AXIS2_PLACEMENT_3D('',#410,#323,#324);
#265=AXIS2_PLACEMENT_3D('',#414,#326,#327);
#266=AXIS2_PLACEMENT_3D('',#415,#328,#329);
#267=AXIS2_PLACEMENT_3D('',#416,#330,#331);
#268=AXIS2_PLACEMENT_3D('',#417,#332,#333);
#269=AXIS2_PLACEMENT_3D('',#418,#334,#335);
#270=AXIS2_PLACEMENT_3D('',#419,#336,#337);
#271=AXIS2_PLACEMENT_3D('',#420,#338,#339);
#272=AXIS2_PLACEMENT_3D('',#421,#340,#341);
#273=AXIS2_PLACEMENT_3D('',#422,#342,#343);
#274=AXIS2_PLACEMENT_3D('',#423,#344,#345);
#275=AXIS2_PLACEMENT_3D('',#424,#346,#347);
#276=AXIS2_PLACEMENT_3D('',#425,#348,#349);
#277=AXIS2_PLACEMENT_3D('',#426,#350,#351);
#278=AXIS2_PLACEMENT_3D('',#428,#352,#353);
#279=AXIS2_PLACEMENT_3D('',#429,#354,#355);
#280=AXIS2_PLACEMENT_3D('',#431,#356,#357);
#281=AXIS2_PLACEMENT_3D('',#432,#358,#359);
#282=AXIS2_PLACEMENT_3D('',#434,#360,#361);
#283=AXIS2_PLACEMENT_3D('',#435,#362,#363);
#284=DIRECTION('',(0.0,0.0,1.0));
#285=DIRECTION('',(1.0,0.0,0.0));
#286=DIRECTION('',(0.0,0.0,-1.0));
#287=DIRECTION('',(-1.0,0.0,0.0));
#288=DIRECTION('',(0.0,0.0,-1.0));
#289=DIRECTION('',(-1.0,0.0,0.0));
#290=DIRECTION('',(0.0,0.0,-1.0));
#291=DIRECTION('',(-1.0,0.0,0.0));
#292=DIRECTION('',(0.0,0.0,-1.0));
#293=DIRECTION('',(-1.0,0.0,0.0));
#294=DIRECTION('',(-0.0248035201341083,0.00394671043216829,-0.999684554679986));
#295=DIRECTION('',(0.0,0.0,-1.0));
#296=DIRECTION('',(-1.0,0.0,0.0));
#297=DIRECTION('',(-0.0157864666720801,0.0195340370709642,-0.999684554679986));
#298=DIRECTION('',(0.0,0.0,-1.0));
#299=DIRECTION('',(-1.0,0.0,0.0));
#300=DIRECTION('',(0.0,0.0,-1.0));
#301=DIRECTION('',(-1.0,0.0,0.0));
#302=DIRECTION('',(0.0,0.0,-1.0));
#303=DIRECTION('',(-1.0,0.0,0.0));
#304=DIRECTION('',(0.0158141500870706,0.0195116322049721,-0.999684554679986));
#305=DIRECTION('',(0.0,0.0,-1.0));
#306=DIRECTION('',(-1.0,0.0,0.0));
#307=DIRECTION('',(0.0,0.0,-1.0));
#308=DIRECTION('',(-1.0,0.0,0.0));
#309=DIRECTION('',(0.0,0.0,-1.0));
#310=DIRECTION('',(-1.0,0.0,0.0));
#311=DIRECTION('',(0.0248046442023397,0.00393963961217701,-0.999684554679986));
#312=DIRECTION('',(0.0,0.0,-1.0));
#313=DIRECTION('',(-1.0,0.0,0.0));
#314=DIRECTION('',(0.0,0.0,-1.0));
#315=DIRECTION('',(-1.0,0.0,0.0));
#316=DIRECTION('',(0.0,0.0,-1.0));
#317=DIRECTION('',(-1.0,0.0,0.0));
#318=DIRECTION('',(0.00902373900588192,-0.0234384997094998,-0.999684554679986));
#319=DIRECTION('',(0.0,0.0,-1.0));
#320=DIRECTION('',(-1.0,0.0,0.0));
#321=DIRECTION('',(0.0,0.0,1.0));
#322=DIRECTION('',(-1.0,0.0,0.0));
#323=DIRECTION('',(0.0,0.0,-1.0));
#324=DIRECTION('',(-1.0,0.0,0.0));
#325=DIRECTION('',(-0.00898380857141531,-0.0234538337555006,-0.999684554679986));
#326=DIRECTION('',(0.0,0.0,-1.0));
#327=DIRECTION('',(-1.0,0.0,0.0));
#328=DIRECTION('',(0.0,0.0,-1.0));
#329=DIRECTION('',(-1.0,0.0,0.0));
#330=DIRECTION('',(0.0,0.0,-1.0));
#331=DIRECTION('',(-1.0,0.0,0.0));
#332=DIRECTION('',(0.0,0.0,-1.0));
#333=DIRECTION('',(-1.0,0.0,0.0));
#334=DIRECTION('',(0.0,0.0,-1.0));
#335=DIRECTION('',(-1.0,0.0,0.0));
#336=DIRECTION('',(0.0,0.0,-1.0));
#337=DIRECTION('',(-1.0,0.0,0.0));
#338=DIRECTION('',(0.0,0.0,-1.0));
#339=DIRECTION('',(-1.0,0.0,0.0));
#340=DIRECTION('',(0.0,0.0,-1.0));
#341=DIRECTION('',(-1.0,0.0,0.0));
#342=DIRECTION('',(0.0,0.0,1.0));
#343=DIRECTION('',(1.0,0.0,0.0));
#344=DIRECTION('',(0.0,0.0,-1.0));
#345=DIRECTION('',(-1.0,0.0,0.0));
#346=DIRECTION('',(0.0,0.0,-1.0));
#347=DIRECTION('',(-1.0,0.0,0.0));
#348=DIRECTION('',(0.0,0.0,-1.0));
#349=DIRECTION('',(-1.0,0.0,0.0));
#350=DIRECTION('',(0.0,0.0,-1.0));
#351=DIRECTION('',(-1.0,0.0,0.0));
#352=DIRECTION('',(0.0,0.0,-1.0));
#353=DIRECTION('',(-1.0,0.0,0.0));
#354=DIRECTION('',(0.0,0.0,-1.0));
#355=DIRECTION('',(-1.0,0.0,0.0));
#356=DIRECTION('',(0.0,0.0,-1.0));
#357=DIRECTION('',(-1.0,0.0,0.0));
#358=DIRECTION('',(0.0,0.0,1.0));
#359=DIRECTION('',(-1.0,0.0,0.0));
#360=DIRECTION('',(0.0,0.0,1.0));
#361=DIRECTION('',(1.0,0.0,-4.63860712982775E-18));
#362=DIRECTION('',(0.0,0.0,-1.0));
#363=DIRECTION('',(-1.0,0.0,0.0));
#364=CARTESIAN_POINT('',(0.0,0.0,0.0));
#365=CARTESIAN_POINT('',(0.0,0.0,-20.0));
#366=CARTESIAN_POINT('',(-25.0,0.0,-20.0));
#367=CARTESIAN_POINT('',(0.0,0.0,0.0));
#368=CARTESIAN_POINT('',(-25.0,0.0,0.0));
#369=CARTESIAN_POINT('',(0.0,0.0,0.0));
#370=CARTESIAN_POINT('',(10.0681279375701,-5.82427314056864,0.0));
#371=CARTESIAN_POINT('',(-17.5840002560203,-1.42429514457352,0.0));
#372=CARTESIAN_POINT('',(-7.53136591572022,15.9531880546211,0.0));
#373=CARTESIAN_POINT('',(-17.5840002560203,-1.42429514457352,-1.74219201836179E-16));
#374=CARTESIAN_POINT('',(-16.8396598533005,-1.54273381846396,30.0));
#375=CARTESIAN_POINT('',(10.0681279375701,-5.82427314056864,30.0));
#376=CARTESIAN_POINT('',(-7.05762247540669,15.366982026544,30.0));
#377=CARTESIAN_POINT('',(-7.53136591572022,15.9531880546211,0.0));
#378=CARTESIAN_POINT('',(10.0681279375701,-5.82427314056864,0.0));
#379=CARTESIAN_POINT('',(0.0112743071184957,6.61999039953979,0.0));
#380=CARTESIAN_POINT('',(7.56714143143875,15.9424831991946,0.0));
#381=CARTESIAN_POINT('',(0.0112743071184957,6.61999039953979,30.0));
#382=CARTESIAN_POINT('',(7.09256722661472,15.3569495291895,30.0));
#383=CARTESIAN_POINT('',(7.56714143143875,15.9424831991946,4.35548004590446E-17));
#384=CARTESIAN_POINT('',(0.0112743071184957,6.61999039953979,0.0));
#385=CARTESIAN_POINT('',(-10.0632151919752,-5.81,0.0));
#386=CARTESIAN_POINT('',(17.5901661656285,-1.41790488594162,0.0));
#387=CARTESIAN_POINT('',(-10.0632151919752,-5.81,30.0));
#388=CARTESIAN_POINT('',(16.845792030221,-1.53613136829749,30.0));
#389=CARTESIAN_POINT('',(17.5901661656285,-1.41790488594162,0.0));
#390=CARTESIAN_POINT('',(-10.0632151919752,-5.81,0.0));
#391=CARTESIAN_POINT('',(5.7387170123698,-3.30023136339521,0.0));
#392=CARTESIAN_POINT('',(10.0501831687922,-14.4989482355205,0.0));
#393=CARTESIAN_POINT('',(5.7387170123698,-3.30023136339521,30.0));
#394=CARTESIAN_POINT('',(9.77938557678269,-13.7955713672942,30.0));
#395=CARTESIAN_POINT('',(10.0501831687922,-14.4989482355205,0.0));
#396=CARTESIAN_POINT('',(5.7387170123698,-3.30023136339521,0.0));
#397=CARTESIAN_POINT('',(3.58734998592506,-15.5170529607122,24.45));
#398=CARTESIAN_POINT('',(3.54701774381426,-15.4755117410105,26.3000273089909));
#399=CARTESIAN_POINT('',(3.50538973197555,-15.4340772977189,28.1500293204981));
#400=CARTESIAN_POINT('',(3.46233244950734,-15.3927497994888,30.0));
#401=CARTESIAN_POINT('',(3.58734998592506,-15.5170529607122,24.45));
#402=CARTESIAN_POINT('',(3.46233244950734,-15.3927497994888,30.0));
#403=CARTESIAN_POINT('',(-0.00990452952675801,11.6313911327719,24.45));
#404=CARTESIAN_POINT('',(-3.58960162766305,-15.5193735973709,24.45));
#405=CARTESIAN_POINT('',(-3.46466450317153,-15.3949896143751,30.0));
#406=CARTESIAN_POINT('',(-3.50769505049887,-15.4363449487375,28.1500293204981));
#407=CARTESIAN_POINT('',(-3.54929625833513,-15.4778063038418,26.3000273089909));
#408=CARTESIAN_POINT('',(-3.58960162766305,-15.5193735973709,24.45));
#409=CARTESIAN_POINT('',(-3.46466450317153,-15.3949896143751,30.0));
#410=CARTESIAN_POINT('',(-0.00990452952675801,11.6313911327719,30.0));
#411=CARTESIAN_POINT('',(-9.75587660471742,-13.8122063148152,30.0));
#412=CARTESIAN_POINT('',(-10.0254759056977,-14.5160433495789,0.0));
#413=CARTESIAN_POINT('',(-10.0254759056977,-14.5160433495789,0.0));
#414=CARTESIAN_POINT('',(-0.00990452952675801,11.6313911327719,0.0));
#415=CARTESIAN_POINT('',(-0.00990452952675801,11.6313911327719,30.0));
#416=CARTESIAN_POINT('',(-0.00990452952675801,11.6313911327719,0.0));
#417=CARTESIAN_POINT('',(-5.73308817305298,-3.31,0.0));
#418=CARTESIAN_POINT('',(-5.73308817305298,-3.31,30.0));
#419=CARTESIAN_POINT('',(-5.73308817305298,-3.31,0.0));
#420=CARTESIAN_POINT('',(0.0,-19.0,30.0));
#421=CARTESIAN_POINT('',(5.03970112234431,0.397858629485572,30.0));
#422=CARTESIAN_POINT('',(0.0,0.0,0.0));
#423=CARTESIAN_POINT('',(0.0,-19.0,24.45));
#424=CARTESIAN_POINT('',(0.0,-19.0,24.45));
#425=CARTESIAN_POINT('',(0.0,-19.0,30.0));
#426=CARTESIAN_POINT('',(0.0,0.0,-50.0));
#427=CARTESIAN_POINT('',(-7.7,0.0,-50.0));
#428=CARTESIAN_POINT('',(0.0,0.0,-50.0));
#429=CARTESIAN_POINT('',(0.0,0.0,-28.4721559689532));
#430=CARTESIAN_POINT('',(-7.7,0.0,-28.4721559689532));
#431=CARTESIAN_POINT('',(0.0,0.0,-20.0));
#432=CARTESIAN_POINT('',(0.0,0.0,-23.6425268375079));
#433=CARTESIAN_POINT('',(-11.4059047744874,0.0,-23.6425268375079));
#434=CARTESIAN_POINT('',(0.0,0.0,-24.6355210290584));
#435=CARTESIAN_POINT('',(0.0,0.0,-28.4721559689532));
#436=MECHANICAL_DESIGN_GEOMETRIC_PRESENTATION_REPRESENTATION('',(#24),#437);
#437=(GEOMETRIC_REPRESENTATION_CONTEXT(3)GLOBAL_UNCERTAINTY_ASSIGNED_CONTEXT((#438))
     GLOBAL_UNIT_ASSIGNED_CONTEXT((#444,#440,#439))REPRESENTATION_CONTEXT('C5-391',
     'TOP_LEVEL_ASSEMBLY_PART'));
#438=UNCERTAINTY_MEASURE_WITH_UNIT(LENGTH_MEASURE(2.0E-5),#444,'DISTANCE_ACCURACY_VALUE',
     'Maximum Tolerance applied to model');
#439=(NAMED_UNIT(*)SI_UNIT($,.STERADIAN.)SOLID_ANGLE_UNIT());
#440=(CONVERSION_BASED_UNIT('DEGREE',#442)NAMED_UNIT(*)PLANE_ANGLE_UNIT());
#441=DIMENSIONAL_EXPONENTS(0.0,0.0,0.0,0.0,0.0,0.0,0.0);
#442=PLANE_ANGLE_MEASURE_WITH_UNIT(PLANE_ANGLE_MEASURE(0.0174532925),#443);
#443=(NAMED_UNIT(*)PLANE_ANGLE_UNIT()SI_UNIT($,.RADIAN.));
#444=(LENGTH_UNIT()NAMED_UNIT(*)SI_UNIT(.MILLI.,.METRE.));
#445=CARTESIAN_POINT('',(0.0,0.0,0.0));
#446=DIRECTION('',(0.0,0.0,1.0));
#447=DIRECTION('',(1.0,0.0,0.0));
#448=AXIS2_PLACEMENT_3D('PCS',#445,#446,#447);
#449=CARTESIAN_POINT('',(0.0,0.0,0.0));
#450=DIRECTION('',(0.0,0.0,1.0));
#451=DIRECTION('',(1.0,0.0,0.0));
#452=AXIS2_PLACEMENT_3D('MCS',#449,#450,#451);
#453=CARTESIAN_POINT('',(0.0,0.0,-50.0));
#454=DIRECTION('',(0.0,0.0,1.0));
#455=DIRECTION('',(1.0,0.0,0.0));
#456=AXIS2_PLACEMENT_3D('CSW',#453,#454,#455);
#457=CONSTRUCTIVE_GEOMETRY_REPRESENTATION('supplemental geometry',(#448,#452,#456),
     #437);
#458=CONSTRUCTIVE_GEOMETRY_REPRESENTATION_RELATIONSHIP('supplemental geometry',$,
     #22,#457);
ENDSEC;
END-ISO-10303-21;
