ISO-10303-21;
HEADER;
FILE_DESCRIPTION(
/* description */ ('3-D model version:1'),
/* implementation_level */ '2;1');
FILE_NAME(
/* name */ 'C4-A391.EH-10025',
/* time_stamp */ '2016-12-02T13:56:15',
/* author */ ('InteractiveCad'),
/* organization */ ('AB Sandvik Coromant'),
/* preprocessor_version */ 'ST-DEVELOPER v11',
/* originating_system */ 'SIEMENS UGS NX 6.0',
/* authorization */ '');
FILE_SCHEMA(('AUTOMOTIVE_DESIGN'));
ENDSEC;
DATA;
#10=SHAPE_REPRESENTATION_RELATIONSHIP('None','relationship between C4_A391.EH_10025_634572072785165947_1_stp-None and C4_A391.EH_10025_634572072785165947_1_stp-None',
     #94,#11);
#11=ADVANCED_BREP_SHAPE_REPRESENTATION('C4_A391.EH_10025_634572072785165947_1_stp-None',
     (#104),#509);
#15=APPROVAL_PERSON_ORGANIZATION(#69,#24,#18);
#16=APPROVAL_PERSON_ORGANIZATION(#70,#25,#19);
#17=APPROVAL_PERSON_ORGANIZATION(#71,#26,#20);
#18=APPROVAL_ROLE('approver');
#19=APPROVAL_ROLE('approver');
#20=APPROVAL_ROLE('approver');
#21=APPROVAL_DATE_TIME(#39,#24);
#22=APPROVAL_DATE_TIME(#40,#25);
#23=APPROVAL_DATE_TIME(#41,#26);
#24=APPROVAL(#27,' ');
#25=APPROVAL(#28,' ');
#26=APPROVAL(#29,' ');
#27=APPROVAL_STATUS('not_yet_approved');
#28=APPROVAL_STATUS('not_yet_approved');
#29=APPROVAL_STATUS('not_yet_approved');
#31=SECURITY_CLASSIFICATION(' ',' ',#32);
#32=SECURITY_CLASSIFICATION_LEVEL('confidential');
#35=DATE_TIME_ROLE('creation_date');
#36=DATE_TIME_ROLE('classification_date');
#37=DATE_AND_TIME(#52,#42);
#38=DATE_AND_TIME(#53,#43);
#39=DATE_AND_TIME(#54,#44);
#40=DATE_AND_TIME(#55,#45);
#41=DATE_AND_TIME(#56,#46);
#42=LOCAL_TIME(0,0,0.0,#47);
#43=LOCAL_TIME(0,0,0.0,#48);
#44=LOCAL_TIME(0,0,0.0,#49);
#45=LOCAL_TIME(0,0,0.0,#50);
#46=LOCAL_TIME(0,0,0.0,#51);
#47=COORDINATED_UNIVERSAL_TIME_OFFSET(0,0,.BEHIND.);
#48=COORDINATED_UNIVERSAL_TIME_OFFSET(0,0,.BEHIND.);
#49=COORDINATED_UNIVERSAL_TIME_OFFSET(0,0,.BEHIND.);
#50=COORDINATED_UNIVERSAL_TIME_OFFSET(0,0,.BEHIND.);
#51=COORDINATED_UNIVERSAL_TIME_OFFSET(0,0,.BEHIND.);
#52=CALENDAR_DATE(0,1,1);
#53=CALENDAR_DATE(0,1,1);
#54=CALENDAR_DATE(0,1,1);
#55=CALENDAR_DATE(0,1,1);
#56=CALENDAR_DATE(0,1,1);
#61=PERSON_AND_ORGANIZATION_ROLE('creator');
#62=PERSON_AND_ORGANIZATION_ROLE('design_owner');
#63=PERSON_AND_ORGANIZATION_ROLE('design_supplier');
#64=PERSON_AND_ORGANIZATION_ROLE('classification_officer');
#65=PERSON_AND_ORGANIZATION(#79,#72);
#66=PERSON_AND_ORGANIZATION(#79,#73);
#67=PERSON_AND_ORGANIZATION(#79,#74);
#68=PERSON_AND_ORGANIZATION(#79,#75);
#69=PERSON_AND_ORGANIZATION(#79,#76);
#70=PERSON_AND_ORGANIZATION(#79,#77);
#71=PERSON_AND_ORGANIZATION(#79,#78);
#72=ORGANIZATION(' ',' ',' ');
#73=ORGANIZATION(' ',' ',' ');
#74=ORGANIZATION(' ',' ',' ');
#75=ORGANIZATION(' ',' ',' ');
#76=ORGANIZATION(' ',' ',' ');
#77=ORGANIZATION(' ',' ',' ');
#78=ORGANIZATION(' ',' ',' ');
#79=PERSON(' ',' ',' ',(' '),$,$);
#80=SHAPE_DEFINITION_REPRESENTATION(#81,#94);
#81=PRODUCT_DEFINITION_SHAPE('','',#82);
#82=PRODUCT_DEFINITION(' ','',#84,$);
#84=PRODUCT_DEFINITION_FORMATION_WITH_SPECIFIED_SOURCE(' ',' ',#86,.NOT_KNOWN.);
#85=PRODUCT_RELATED_PRODUCT_CATEGORY('detail','',(#86));
#86=PRODUCT('C4_A391.EH_10025_634572072785165947_1_stp','C4_A391.EH_10025_634572072785165947_1_stp',
     ' ',());
#87=PRODUCT_CATEGORY_RELATIONSHIP(' ',' ',#89,#90);
#88=PRODUCT_CATEGORY_RELATIONSHIP('','',#90,#85);
#89=PRODUCT_CATEGORY('part',' ');
#90=PRODUCT_CATEGORY(' ','');
#92=APPLICATION_PROTOCOL_DEFINITION('international standard','config_control_design',
     1994,#93);
#93=APPLICATION_CONTEXT('configuration controlled 3D designs of mechanical parts and assemblies');
#94=SHAPE_REPRESENTATION('C4_A391.EH_10025_634572072785165947_1_stp-None',(#319),
     #509);
#95=PRESENTATION_LAYER_ASSIGNMENT('1','Layer 1',(#104));
#96=STYLED_ITEM('',(#97),#104);
#97=PRESENTATION_STYLE_ASSIGNMENT((#98));
#98=SURFACE_STYLE_USAGE(.BOTH.,#99);
#99=SURFACE_SIDE_STYLE('',(#100));
#100=SURFACE_STYLE_FILL_AREA(#101);
#101=FILL_AREA_STYLE('',(#102));
#102=FILL_AREA_STYLE_COLOUR('',#103);
#103=COLOUR_RGB('TLS_NOCUT',0.499992370489052,0.499992370489052,0.499992370489052);
#104=MANIFOLD_SOLID_BREP('NOCUT',#105);
#105=CLOSED_SHELL('',(#127,#128,#129,#130,#131,#132,#133,#134,#135,#136,#137,#138,
     #139,#140,#141));
#106=TOROIDAL_SURFACE('',#355,9.575,5.0);
#107=CYLINDRICAL_SURFACE('',#345,20.0);
#108=CYLINDRICAL_SURFACE('',#348,4.0);
#109=CYLINDRICAL_SURFACE('',#354,4.575);
#110=FACE_BOUND('',#165,.T.);
#111=FACE_BOUND('',#166,.T.);
#112=FACE_BOUND('',#167,.T.);
#113=FACE_BOUND('',#168,.T.);
#114=FACE_BOUND('',#171,.T.);
#115=FACE_BOUND('',#172,.T.);
#116=FACE_BOUND('',#174,.T.);
#117=FACE_BOUND('',#175,.T.);
#118=FACE_BOUND('',#176,.T.);
#119=FACE_BOUND('',#177,.T.);
#120=PLANE('',#341);
#121=PLANE('',#343);
#122=PLANE('',#347);
#123=PLANE('',#350);
#124=PLANE('',#352);
#125=B_SPLINE_CURVE_WITH_KNOTS('',3,(#464,#465,#466,#467),.UNSPECIFIED.,.F.,.F.,
     (4,4),(0.0,1.0),.UNSPECIFIED.);
#126=B_SPLINE_CURVE_WITH_KNOTS('',3,(#472,#473,#474,#475),.UNSPECIFIED.,.F.,.F.,
     (4,4),(0.0,1.0),.UNSPECIFIED.);
#127=ADVANCED_FACE('',(#148),#142,.T.);
#128=ADVANCED_FACE('',(#149),#143,.T.);
#129=ADVANCED_FACE('',(#150),#144,.T.);
#130=ADVANCED_FACE('',(#151),#145,.T.);
#131=ADVANCED_FACE('',(#152),#146,.T.);
#132=ADVANCED_FACE('',(#153),#147,.T.);
#133=ADVANCED_FACE('',(#154),#120,.F.);
#134=ADVANCED_FACE('',(#110,#111),#121,.T.);
#135=ADVANCED_FACE('',(#112,#113),#107,.T.);
#136=ADVANCED_FACE('',(#155),#122,.F.);
#137=ADVANCED_FACE('',(#156),#108,.F.);
#138=ADVANCED_FACE('',(#114,#115),#123,.T.);
#139=ADVANCED_FACE('',(#157),#124,.T.);
#140=ADVANCED_FACE('',(#116,#117),#109,.T.);
#141=ADVANCED_FACE('',(#118,#119),#106,.F.);
#142=CONICAL_SURFACE('',#322,20.0,1.43916666666667);
#143=CONICAL_SURFACE('',#325,8.5,1.43916666666667);
#144=CONICAL_SURFACE('',#328,20.0,1.43916666666667);
#145=CONICAL_SURFACE('',#331,8.5,1.43916666666667);
#146=CONICAL_SURFACE('',#336,20.0,1.43916666666667);
#147=CONICAL_SURFACE('',#339,8.5,1.43916666666667);
#148=FACE_OUTER_BOUND('',#158,.T.);
#149=FACE_OUTER_BOUND('',#159,.T.);
#150=FACE_OUTER_BOUND('',#160,.T.);
#151=FACE_OUTER_BOUND('',#161,.T.);
#152=FACE_OUTER_BOUND('',#162,.T.);
#153=FACE_OUTER_BOUND('',#163,.T.);
#154=FACE_OUTER_BOUND('',#164,.T.);
#155=FACE_OUTER_BOUND('',#169,.T.);
#156=FACE_OUTER_BOUND('',#170,.T.);
#157=FACE_OUTER_BOUND('',#173,.T.);
#158=EDGE_LOOP('',(#190,#191,#192,#193));
#159=EDGE_LOOP('',(#194,#195,#196,#197));
#160=EDGE_LOOP('',(#198,#199,#200,#201));
#161=EDGE_LOOP('',(#202,#203,#204,#205));
#162=EDGE_LOOP('',(#206,#207,#208,#209,#210,#211,#212,#213));
#163=EDGE_LOOP('',(#214,#215,#216,#217));
#164=EDGE_LOOP('',(#218,#219,#220,#221,#222,#223,#224,#225));
#165=EDGE_LOOP('',(#226,#227,#228,#229,#230,#231));
#166=EDGE_LOOP('',(#232));
#167=EDGE_LOOP('',(#233));
#168=EDGE_LOOP('',(#234));
#169=EDGE_LOOP('',(#235,#236));
#170=EDGE_LOOP('',(#237,#238,#239,#240));
#171=EDGE_LOOP('',(#241));
#172=EDGE_LOOP('',(#242));
#173=EDGE_LOOP('',(#243));
#174=EDGE_LOOP('',(#244));
#175=EDGE_LOOP('',(#245));
#176=EDGE_LOOP('',(#246));
#177=EDGE_LOOP('',(#247));
#178=LINE('',#440,#184);
#179=LINE('',#444,#185);
#180=LINE('',#450,#186);
#181=LINE('',#456,#187);
#182=LINE('',#462,#188);
#183=LINE('',#479,#189);
#184=VECTOR('',#360,1.0);
#185=VECTOR('',#363,1.0);
#186=VECTOR('',#370,1.0);
#187=VECTOR('',#377,1.0);
#188=VECTOR('',#384,1.0);
#189=VECTOR('',#391,1.0);
#190=ORIENTED_EDGE('',*,*,#269,.F.);
#191=ORIENTED_EDGE('',*,*,#270,.F.);
#192=ORIENTED_EDGE('',*,*,#271,.T.);
#193=ORIENTED_EDGE('',*,*,#272,.T.);
#194=ORIENTED_EDGE('',*,*,#273,.F.);
#195=ORIENTED_EDGE('',*,*,#272,.F.);
#196=ORIENTED_EDGE('',*,*,#274,.T.);
#197=ORIENTED_EDGE('',*,*,#275,.T.);
#198=ORIENTED_EDGE('',*,*,#276,.F.);
#199=ORIENTED_EDGE('',*,*,#275,.F.);
#200=ORIENTED_EDGE('',*,*,#277,.T.);
#201=ORIENTED_EDGE('',*,*,#278,.T.);
#202=ORIENTED_EDGE('',*,*,#279,.F.);
#203=ORIENTED_EDGE('',*,*,#278,.F.);
#204=ORIENTED_EDGE('',*,*,#280,.T.);
#205=ORIENTED_EDGE('',*,*,#281,.T.);
#206=ORIENTED_EDGE('',*,*,#282,.F.);
#207=ORIENTED_EDGE('',*,*,#283,.F.);
#208=ORIENTED_EDGE('',*,*,#284,.F.);
#209=ORIENTED_EDGE('',*,*,#285,.T.);
#210=ORIENTED_EDGE('',*,*,#286,.T.);
#211=ORIENTED_EDGE('',*,*,#287,.F.);
#212=ORIENTED_EDGE('',*,*,#281,.F.);
#213=ORIENTED_EDGE('',*,*,#288,.T.);
#214=ORIENTED_EDGE('',*,*,#289,.F.);
#215=ORIENTED_EDGE('',*,*,#286,.F.);
#216=ORIENTED_EDGE('',*,*,#290,.T.);
#217=ORIENTED_EDGE('',*,*,#270,.T.);
#218=ORIENTED_EDGE('',*,*,#285,.F.);
#219=ORIENTED_EDGE('',*,*,#291,.T.);
#220=ORIENTED_EDGE('',*,*,#288,.F.);
#221=ORIENTED_EDGE('',*,*,#280,.F.);
#222=ORIENTED_EDGE('',*,*,#277,.F.);
#223=ORIENTED_EDGE('',*,*,#274,.F.);
#224=ORIENTED_EDGE('',*,*,#271,.F.);
#225=ORIENTED_EDGE('',*,*,#290,.F.);
#226=ORIENTED_EDGE('',*,*,#289,.T.);
#227=ORIENTED_EDGE('',*,*,#269,.T.);
#228=ORIENTED_EDGE('',*,*,#273,.T.);
#229=ORIENTED_EDGE('',*,*,#276,.T.);
#230=ORIENTED_EDGE('',*,*,#279,.T.);
#231=ORIENTED_EDGE('',*,*,#287,.T.);
#232=ORIENTED_EDGE('',*,*,#292,.F.);
#233=ORIENTED_EDGE('',*,*,#292,.T.);
#234=ORIENTED_EDGE('',*,*,#293,.F.);
#235=ORIENTED_EDGE('',*,*,#283,.T.);
#236=ORIENTED_EDGE('',*,*,#294,.F.);
#237=ORIENTED_EDGE('',*,*,#282,.T.);
#238=ORIENTED_EDGE('',*,*,#291,.F.);
#239=ORIENTED_EDGE('',*,*,#284,.T.);
#240=ORIENTED_EDGE('',*,*,#294,.T.);
#241=ORIENTED_EDGE('',*,*,#295,.T.);
#242=ORIENTED_EDGE('',*,*,#293,.T.);
#243=ORIENTED_EDGE('',*,*,#296,.T.);
#244=ORIENTED_EDGE('',*,*,#297,.T.);
#245=ORIENTED_EDGE('',*,*,#296,.F.);
#246=ORIENTED_EDGE('',*,*,#295,.F.);
#247=ORIENTED_EDGE('',*,*,#297,.F.);
#248=VERTEX_POINT('',#438);
#249=VERTEX_POINT('',#439);
#250=VERTEX_POINT('',#441);
#251=VERTEX_POINT('',#443);
#252=VERTEX_POINT('',#447);
#253=VERTEX_POINT('',#449);
#254=VERTEX_POINT('',#453);
#255=VERTEX_POINT('',#455);
#256=VERTEX_POINT('',#459);
#257=VERTEX_POINT('',#461);
#258=VERTEX_POINT('',#468);
#259=VERTEX_POINT('',#469);
#260=VERTEX_POINT('',#471);
#261=VERTEX_POINT('',#476);
#262=VERTEX_POINT('',#478);
#263=VERTEX_POINT('',#480);
#264=VERTEX_POINT('',#490);
#265=VERTEX_POINT('',#493);
#266=VERTEX_POINT('',#499);
#267=VERTEX_POINT('',#502);
#268=VERTEX_POINT('',#505);
#269=EDGE_CURVE('',#248,#249,#298,.T.);
#270=EDGE_CURVE('',#250,#248,#178,.T.);
#271=EDGE_CURVE('',#250,#251,#299,.T.);
#272=EDGE_CURVE('',#251,#249,#179,.T.);
#273=EDGE_CURVE('',#249,#252,#300,.T.);
#274=EDGE_CURVE('',#251,#253,#301,.T.);
#275=EDGE_CURVE('',#253,#252,#180,.T.);
#276=EDGE_CURVE('',#252,#254,#302,.T.);
#277=EDGE_CURVE('',#253,#255,#303,.T.);
#278=EDGE_CURVE('',#255,#254,#181,.T.);
#279=EDGE_CURVE('',#254,#256,#304,.T.);
#280=EDGE_CURVE('',#255,#257,#305,.T.);
#281=EDGE_CURVE('',#257,#256,#182,.T.);
#282=EDGE_CURVE('',#258,#259,#125,.T.);
#283=EDGE_CURVE('',#260,#258,#306,.T.);
#284=EDGE_CURVE('',#261,#260,#126,.T.);
#285=EDGE_CURVE('',#261,#262,#307,.T.);
#286=EDGE_CURVE('',#262,#263,#183,.T.);
#287=EDGE_CURVE('',#256,#263,#308,.T.);
#288=EDGE_CURVE('',#257,#259,#309,.T.);
#289=EDGE_CURVE('',#263,#248,#310,.T.);
#290=EDGE_CURVE('',#262,#250,#311,.T.);
#291=EDGE_CURVE('',#261,#259,#312,.T.);
#292=EDGE_CURVE('',#264,#264,#313,.T.);
#293=EDGE_CURVE('',#265,#265,#314,.T.);
#294=EDGE_CURVE('',#260,#258,#315,.T.);
#295=EDGE_CURVE('',#266,#266,#316,.T.);
#296=EDGE_CURVE('',#267,#267,#317,.T.);
#297=EDGE_CURVE('',#268,#268,#318,.T.);
#298=CIRCLE('',#320,20.0);
#299=CIRCLE('',#321,19.3970364630094);
#300=CIRCLE('',#323,8.5);
#301=CIRCLE('',#324,7.89703646300946);
#302=CIRCLE('',#326,20.0);
#303=CIRCLE('',#327,19.3970364630094);
#304=CIRCLE('',#329,8.5);
#305=CIRCLE('',#330,7.89703646300946);
#306=CIRCLE('',#332,19.5025550819828);
#307=CIRCLE('',#333,19.3970364630094);
#308=CIRCLE('',#334,20.0);
#309=CIRCLE('',#335,19.3970364630094);
#310=CIRCLE('',#337,8.5);
#311=CIRCLE('',#338,7.89703646300946);
#312=CIRCLE('',#340,4.0);
#313=CIRCLE('',#342,20.0);
#314=CIRCLE('',#344,20.0);
#315=CIRCLE('',#346,4.0);
#316=CIRCLE('',#349,9.575);
#317=CIRCLE('',#351,4.575);
#318=CIRCLE('',#353,4.575);
#319=AXIS2_PLACEMENT_3D('',#436,#356,#357);
#320=AXIS2_PLACEMENT_3D('',#437,#358,#359);
#321=AXIS2_PLACEMENT_3D('',#442,#361,#362);
#322=AXIS2_PLACEMENT_3D('',#445,#364,#365);
#323=AXIS2_PLACEMENT_3D('',#446,#366,#367);
#324=AXIS2_PLACEMENT_3D('',#448,#368,#369);
#325=AXIS2_PLACEMENT_3D('',#451,#371,#372);
#326=AXIS2_PLACEMENT_3D('',#452,#373,#374);
#327=AXIS2_PLACEMENT_3D('',#454,#375,#376);
#328=AXIS2_PLACEMENT_3D('',#457,#378,#379);
#329=AXIS2_PLACEMENT_3D('',#458,#380,#381);
#330=AXIS2_PLACEMENT_3D('',#460,#382,#383);
#331=AXIS2_PLACEMENT_3D('',#463,#385,#386);
#332=AXIS2_PLACEMENT_3D('',#470,#387,#388);
#333=AXIS2_PLACEMENT_3D('',#477,#389,#390);
#334=AXIS2_PLACEMENT_3D('',#481,#392,#393);
#335=AXIS2_PLACEMENT_3D('',#482,#394,#395);
#336=AXIS2_PLACEMENT_3D('',#483,#396,#397);
#337=AXIS2_PLACEMENT_3D('',#484,#398,#399);
#338=AXIS2_PLACEMENT_3D('',#485,#400,#401);
#339=AXIS2_PLACEMENT_3D('',#486,#402,#403);
#340=AXIS2_PLACEMENT_3D('',#487,#404,#405);
#341=AXIS2_PLACEMENT_3D('',#488,#406,#407);
#342=AXIS2_PLACEMENT_3D('',#489,#408,#409);
#343=AXIS2_PLACEMENT_3D('',#491,#410,#411);
#344=AXIS2_PLACEMENT_3D('',#492,#412,#413);
#345=AXIS2_PLACEMENT_3D('',#494,#414,#415);
#346=AXIS2_PLACEMENT_3D('',#495,#416,#417);
#347=AXIS2_PLACEMENT_3D('',#496,#418,#419);
#348=AXIS2_PLACEMENT_3D('',#497,#420,#421);
#349=AXIS2_PLACEMENT_3D('',#498,#422,#423);
#350=AXIS2_PLACEMENT_3D('',#500,#424,#425);
#351=AXIS2_PLACEMENT_3D('',#501,#426,#427);
#352=AXIS2_PLACEMENT_3D('',#503,#428,#429);
#353=AXIS2_PLACEMENT_3D('',#504,#430,#431);
#354=AXIS2_PLACEMENT_3D('',#506,#432,#433);
#355=AXIS2_PLACEMENT_3D('',#507,#434,#435);
#356=DIRECTION('',(0.0,0.0,1.0));
#357=DIRECTION('',(1.0,0.0,0.0));
#358=DIRECTION('',(0.0,0.0,-1.0));
#359=DIRECTION('',(-1.0,0.0,0.0));
#360=DIRECTION('',(-0.0251112246842899,4.66400186113526E-4,-0.999684554679986));
#361=DIRECTION('',(0.0,0.0,-1.0));
#362=DIRECTION('',(-1.0,0.0,0.0));
#363=DIRECTION('',(-0.0130940393650178,0.0214321549869783,-0.999684554679986));
#364=DIRECTION('',(0.0,0.0,-1.0));
#365=DIRECTION('',(1.0,0.0,0.0));
#366=DIRECTION('',(0.0,0.0,-1.0));
#367=DIRECTION('',(-1.0,0.0,0.0));
#368=DIRECTION('',(0.0,0.0,-1.0));
#369=DIRECTION('',(-1.0,0.0,0.0));
#370=DIRECTION('',(0.0129628683279737,0.0215117451405068,-0.999684554679986));
#371=DIRECTION('',(0.0,0.0,-1.0));
#372=DIRECTION('',(1.0,0.0,0.0));
#373=DIRECTION('',(0.0,0.0,-1.0));
#374=DIRECTION('',(-1.0,0.0,0.0));
#375=DIRECTION('',(0.0,0.0,-1.0));
#376=DIRECTION('',(-1.0,0.0,0.0));
#377=DIRECTION('',(0.0251111519354021,4.70300707684483E-4,-0.999684554679986));
#378=DIRECTION('',(0.0,0.0,-1.0));
#379=DIRECTION('',(1.0,0.0,0.0));
#380=DIRECTION('',(0.0,0.0,-1.0));
#381=DIRECTION('',(-1.0,0.0,0.0));
#382=DIRECTION('',(0.0,0.0,-1.0));
#383=DIRECTION('',(-1.0,0.0,0.0));
#384=DIRECTION('',(0.0120137709940597,-0.0220558482217481,-0.999684554679986));
#385=DIRECTION('',(0.0,0.0,-1.0));
#386=DIRECTION('',(1.0,0.0,0.0));
#387=DIRECTION('',(0.0,0.0,1.0));
#388=DIRECTION('',(-1.0,0.0,0.0));
#389=DIRECTION('',(0.0,0.0,-1.0));
#390=DIRECTION('',(-1.0,0.0,0.0));
#391=DIRECTION('',(-0.0121516979326409,-0.0219801585897907,-0.999684554679986));
#392=DIRECTION('',(0.0,0.0,-1.0));
#393=DIRECTION('',(-1.0,0.0,0.0));
#394=DIRECTION('',(0.0,0.0,-1.0));
#395=DIRECTION('',(-1.0,0.0,0.0));
#396=DIRECTION('',(0.0,0.0,-1.0));
#397=DIRECTION('',(1.0,0.0,0.0));
#398=DIRECTION('',(0.0,0.0,-1.0));
#399=DIRECTION('',(-1.0,0.0,0.0));
#400=DIRECTION('',(0.0,0.0,-1.0));
#401=DIRECTION('',(-1.0,0.0,0.0));
#402=DIRECTION('',(0.0,0.0,-1.0));
#403=DIRECTION('',(1.0,0.0,0.0));
#404=DIRECTION('',(0.0,0.0,-1.0));
#405=DIRECTION('',(-1.0,0.0,0.0));
#406=DIRECTION('',(0.0,0.0,-1.0));
#407=DIRECTION('',(1.0,0.0,0.0));
#408=DIRECTION('',(0.0,0.0,-1.0));
#409=DIRECTION('',(-1.0,0.0,0.0));
#410=DIRECTION('',(0.0,0.0,1.0));
#411=DIRECTION('',(-1.0,0.0,0.0));
#412=DIRECTION('',(0.0,0.0,-1.0));
#413=DIRECTION('',(-1.0,0.0,0.0));
#414=DIRECTION('',(0.0,0.0,-1.0));
#415=DIRECTION('',(1.0,0.0,0.0));
#416=DIRECTION('',(0.0,0.0,-1.0));
#417=DIRECTION('',(-1.0,0.0,0.0));
#418=DIRECTION('',(0.0,0.0,-1.0));
#419=DIRECTION('',(1.0,0.0,0.0));
#420=DIRECTION('',(0.0,0.0,-1.0));
#421=DIRECTION('',(1.0,0.0,0.0));
#422=DIRECTION('',(0.0,0.0,1.0));
#423=DIRECTION('',(-1.0,0.0,0.0));
#424=DIRECTION('',(0.0,0.0,-1.0));
#425=DIRECTION('',(1.0,0.0,0.0));
#426=DIRECTION('',(0.0,0.0,-1.0));
#427=DIRECTION('',(-1.0,0.0,0.0));
#428=DIRECTION('',(0.0,0.0,-1.0));
#429=DIRECTION('',(1.0,0.0,0.0));
#430=DIRECTION('',(0.0,0.0,-1.0));
#431=DIRECTION('',(-1.0,0.0,0.0));
#432=DIRECTION('',(0.0,0.0,-1.0));
#433=DIRECTION('',(1.0,0.0,0.0));
#434=DIRECTION('',(0.0,0.0,-1.0));
#435=DIRECTION('',(1.0,0.0,0.0));
#436=CARTESIAN_POINT('',(0.0,0.0,0.0));
#437=CARTESIAN_POINT('',(5.95545434990689,-3.41355697722574,0.0));
#438=CARTESIAN_POINT('',(-14.0410968398797,-3.04215353857228,0.0));
#439=CARTESIAN_POINT('',(-4.47158103907076,13.653280251652,0.0));
#440=CARTESIAN_POINT('',(-14.0410968398797,-3.04215353857228,-1.30664401377134E-16));
#441=CARTESIAN_POINT('',(-13.4382372782294,-3.05335067512333,24.0));
#442=CARTESIAN_POINT('',(5.95545434990689,-3.41355697722574,24.0));
#443=CARTESIAN_POINT('',(-4.15722493214758,13.1387462246137,24.0));
#444=CARTESIAN_POINT('',(-4.47158103907076,13.653280251652,0.0));
#445=CARTESIAN_POINT('',(5.95545434990689,-3.41355697722574,0.0));
#446=CARTESIAN_POINT('',(-0.0400909987552516,6.39987442937897,0.0));
#447=CARTESIAN_POINT('',(4.34700608320455,13.6802163989199,0.0));
#448=CARTESIAN_POINT('',(-0.0400909987552516,6.39987442937897,24.0));
#449=CARTESIAN_POINT('',(4.03579907453875,13.1637716054546,24.0));
#450=CARTESIAN_POINT('',(4.34700608320455,13.6802163989199,0.0));
#451=CARTESIAN_POINT('',(-0.0400909987552516,6.39987442937897,0.0));
#452=CARTESIAN_POINT('',(-5.97557528611263,-3.45,0.0));
#453=CARTESIAN_POINT('',(14.0209179723354,-3.07549050099937,0.0));
#454=CARTESIAN_POINT('',(-5.97557528611263,-3.45,24.0));
#455=CARTESIAN_POINT('',(13.4180601572094,-3.08678127960707,24.0));
#456=CARTESIAN_POINT('',(14.0209179723354,-3.07549050099937,8.71096009180893E-17));
#457=CARTESIAN_POINT('',(-5.97557528611263,-3.45,0.0));
#458=CARTESIAN_POINT('',(5.522408337495,-3.23465703807463,0.0));
#459=CARTESIAN_POINT('',(9.58829702338366,-10.6991429007421,0.0));
#460=CARTESIAN_POINT('',(5.522408337495,-3.23465703807463,24.0));
#461=CARTESIAN_POINT('',(9.29987553831857,-10.1696355127927,24.0));
#462=CARTESIAN_POINT('',(9.58829702338366,-10.6991429007421,0.0));
#463=CARTESIAN_POINT('',(5.522408337495,-3.23465703807463,0.0));
#464=CARTESIAN_POINT('',(3.04217367114143,-12.4028516879828,19.8));
#465=CARTESIAN_POINT('',(3.01536690869658,-12.3714515455493,21.2000133982658));
#466=CARTESIAN_POINT('',(2.98779256558135,-12.3401358046305,22.600014237919));
#467=CARTESIAN_POINT('',(2.95939263898617,-12.30890445946,24.0));
#468=CARTESIAN_POINT('',(3.04217367114143,-12.4028516879828,19.8));
#469=CARTESIAN_POINT('',(2.95939263898617,-12.30890445946,24.0));
#470=CARTESIAN_POINT('',(0.0215001154103373,6.86435324671078,19.8));
#471=CARTESIAN_POINT('',(-3.03706002783089,-12.39687372812,19.8));
#472=CARTESIAN_POINT('',(-2.95409439161902,-12.303089485095,24.0));
#473=CARTESIAN_POINT('',(-2.98255568535731,-12.3342649162952,22.600014237919));
#474=CARTESIAN_POINT('',(-3.01019156319168,-12.365526366739,21.2000133982658));
#475=CARTESIAN_POINT('',(-3.03706002783089,-12.39687372812,19.8));
#476=CARTESIAN_POINT('',(-2.95409439161902,-12.303089485095,24.0));
#477=CARTESIAN_POINT('',(0.0215001154103373,6.86435324671078,24.0));
#478=CARTESIAN_POINT('',(-9.36339789043387,-10.1111795274681,24.0));
#479=CARTESIAN_POINT('',(-9.65513066655617,-10.6388697910471,0.0));
#480=CARTESIAN_POINT('',(-9.65513066655617,-10.6388697910471,0.0));
#481=CARTESIAN_POINT('',(0.0215001154103373,6.86435324671078,0.0));
#482=CARTESIAN_POINT('',(0.0215001154103373,6.86435324671078,24.0));
#483=CARTESIAN_POINT('',(0.0215001154103373,6.86435324671078,0.0));
#484=CARTESIAN_POINT('',(-5.54256258422041,-3.2,0.0));
#485=CARTESIAN_POINT('',(-5.54256258422041,-3.2,24.0));
#486=CARTESIAN_POINT('',(-5.54256258422041,-3.2,0.0));
#487=CARTESIAN_POINT('',(0.0,-15.0,24.0));
#488=CARTESIAN_POINT('',(2.95768167557582,1.49315872607661,24.0));
#489=CARTESIAN_POINT('',(0.0,0.0,0.0));
#490=CARTESIAN_POINT('',(-20.0,0.0,0.0));
#491=CARTESIAN_POINT('',(0.0,0.0,0.0));
#492=CARTESIAN_POINT('',(2.16840434497101E-16,0.0,-8.0));
#493=CARTESIAN_POINT('',(-20.0,0.0,-8.0));
#494=CARTESIAN_POINT('',(0.0,0.0,0.0));
#495=CARTESIAN_POINT('',(0.0,-15.0,19.8));
#496=CARTESIAN_POINT('',(0.0,-15.0,19.8));
#497=CARTESIAN_POINT('',(0.0,-15.0,24.0));
#498=CARTESIAN_POINT('',(8.67361737988404E-16,0.0,-8.0));
#499=CARTESIAN_POINT('',(-9.575,0.0,-8.0));
#500=CARTESIAN_POINT('',(2.16840434497101E-16,0.0,-8.0));
#501=CARTESIAN_POINT('',(8.67361737988404E-16,0.0,-25.0));
#502=CARTESIAN_POINT('',(-4.575,0.0,-25.0));
#503=CARTESIAN_POINT('',(8.67361737988404E-16,0.0,-25.0));
#504=CARTESIAN_POINT('',(8.67361737988404E-16,0.0,-13.0));
#505=CARTESIAN_POINT('',(-4.575,0.0,-13.0));
#506=CARTESIAN_POINT('',(8.67361737988404E-16,0.0,-8.0));
#507=CARTESIAN_POINT('',(8.67361737988404E-16,0.0,-13.0));
#508=MECHANICAL_DESIGN_GEOMETRIC_PRESENTATION_REPRESENTATION('',(#96),#509);
#509=(GEOMETRIC_REPRESENTATION_CONTEXT(3)GLOBAL_UNCERTAINTY_ASSIGNED_CONTEXT((#510))
     GLOBAL_UNIT_ASSIGNED_CONTEXT((#516,#512,#511))REPRESENTATION_CONTEXT('C4_A391',
     'TOP_LEVEL_ASSEMBLY_PART'));
#510=UNCERTAINTY_MEASURE_WITH_UNIT(LENGTH_MEASURE(2.0E-5),#516,'DISTANCE_ACCURACY_VALUE',
     'Maximum Tolerance applied to model');
#511=(NAMED_UNIT(*)SI_UNIT($,.STERADIAN.)SOLID_ANGLE_UNIT());
#512=(CONVERSION_BASED_UNIT('DEGREE',#514)NAMED_UNIT(*)PLANE_ANGLE_UNIT());
#513=DIMENSIONAL_EXPONENTS(0.0,0.0,0.0,0.0,0.0,0.0,0.0);
#514=PLANE_ANGLE_MEASURE_WITH_UNIT(PLANE_ANGLE_MEASURE(0.0174532925),#515);
#515=(NAMED_UNIT(*)PLANE_ANGLE_UNIT()SI_UNIT($,.RADIAN.));
#516=(LENGTH_UNIT()NAMED_UNIT(*)SI_UNIT(.MILLI.,.METRE.));
#517=CARTESIAN_POINT('',(0.0,0.0,0.0));
#518=DIRECTION('',(0.0,0.0,1.0));
#519=DIRECTION('',(1.0,0.0,0.0));
#520=AXIS2_PLACEMENT_3D('PCS',#517,#518,#519);
#521=CARTESIAN_POINT('',(0.0,0.0,0.0));
#522=DIRECTION('',(0.0,0.0,1.0));
#523=DIRECTION('',(1.0,0.0,0.0));
#524=AXIS2_PLACEMENT_3D('MCS',#521,#522,#523);
#525=CARTESIAN_POINT('',(0.0,0.0,-25.0));
#526=DIRECTION('',(0.0,0.0,1.0));
#527=DIRECTION('',(1.0,0.0,0.0));
#528=AXIS2_PLACEMENT_3D('CSW',#525,#526,#527);
#529=CONSTRUCTIVE_GEOMETRY_REPRESENTATION('supplemental geometry',(#520,#524,#528),
     #509);
#530=CONSTRUCTIVE_GEOMETRY_REPRESENTATION_RELATIONSHIP('supplemental geometry',$,
     #94,#529);
ENDSEC;
END-ISO-10303-21;
