ISO-10303-21;
HEADER;
FILE_DESCRIPTION(
/* description */ ('3-D model version:1'),
/* implementation_level */ '2;1');
FILE_NAME(
/* name */ 'C4-391.EH-25038',
/* time_stamp */ '2016-12-02T14:14:46',
/* author */ ('InteractiveCad'),
/* organization */ ('AB Sandvik Coromant'),
/* preprocessor_version */ 'ST-DEVELOPER v15',
/* originating_system */ 'SIEMENS PLM Software NX 8.5',
/* authorization */ '');
FILE_SCHEMA(('AUTOMOTIVE_DESIGN'));
ENDSEC;
DATA;
#10=SHAPE_REPRESENTATION_RELATIONSHIP('None','relationship between C4_391_EH_25038_SIM-None and C4_391_EH_25038_SIM-None',
     #92,#11);
#11=ADVANCED_BREP_SHAPE_REPRESENTATION('C4_391_EH_25038_SIM-None',(#102),#507);
#15=APPROVAL_PERSON_ORGANIZATION(#69,#24,#18);
#16=APPROVAL_PERSON_ORGANIZATION(#70,#25,#19);
#17=APPROVAL_PERSON_ORGANIZATION(#71,#26,#20);
#18=APPROVAL_ROLE('approver');
#19=APPROVAL_ROLE('approver');
#20=APPROVAL_ROLE('approver');
#21=APPROVAL_DATE_TIME(#39,#24);
#22=APPROVAL_DATE_TIME(#40,#25);
#23=APPROVAL_DATE_TIME(#41,#26);
#24=APPROVAL(#27,' ');
#25=APPROVAL(#28,' ');
#26=APPROVAL(#29,' ');
#27=APPROVAL_STATUS('not_yet_approved');
#28=APPROVAL_STATUS('not_yet_approved');
#29=APPROVAL_STATUS('not_yet_approved');
#31=SECURITY_CLASSIFICATION(' ',' ',#32);
#32=SECURITY_CLASSIFICATION_LEVEL('confidential');
#35=DATE_TIME_ROLE('creation_date');
#36=DATE_TIME_ROLE('classification_date');
#37=DATE_AND_TIME(#52,#42);
#38=DATE_AND_TIME(#53,#43);
#39=DATE_AND_TIME(#54,#44);
#40=DATE_AND_TIME(#55,#45);
#41=DATE_AND_TIME(#56,#46);
#42=LOCAL_TIME(0,0,0.0,#47);
#43=LOCAL_TIME(0,0,0.0,#48);
#44=LOCAL_TIME(0,0,0.0,#49);
#45=LOCAL_TIME(0,0,0.0,#50);
#46=LOCAL_TIME(0,0,0.0,#51);
#47=COORDINATED_UNIVERSAL_TIME_OFFSET(0,0,.BEHIND.);
#48=COORDINATED_UNIVERSAL_TIME_OFFSET(0,0,.BEHIND.);
#49=COORDINATED_UNIVERSAL_TIME_OFFSET(0,0,.BEHIND.);
#50=COORDINATED_UNIVERSAL_TIME_OFFSET(0,0,.BEHIND.);
#51=COORDINATED_UNIVERSAL_TIME_OFFSET(0,0,.BEHIND.);
#52=CALENDAR_DATE(0,1,1);
#53=CALENDAR_DATE(0,1,1);
#54=CALENDAR_DATE(0,1,1);
#55=CALENDAR_DATE(0,1,1);
#56=CALENDAR_DATE(0,1,1);
#61=PERSON_AND_ORGANIZATION_ROLE('creator');
#62=PERSON_AND_ORGANIZATION_ROLE('design_owner');
#63=PERSON_AND_ORGANIZATION_ROLE('design_supplier');
#64=PERSON_AND_ORGANIZATION_ROLE('classification_officer');
#65=PERSON_AND_ORGANIZATION(#79,#72);
#66=PERSON_AND_ORGANIZATION(#79,#73);
#67=PERSON_AND_ORGANIZATION(#79,#74);
#68=PERSON_AND_ORGANIZATION(#79,#75);
#69=PERSON_AND_ORGANIZATION(#79,#76);
#70=PERSON_AND_ORGANIZATION(#79,#77);
#71=PERSON_AND_ORGANIZATION(#79,#78);
#72=ORGANIZATION(' ',' ',' ');
#73=ORGANIZATION(' ',' ',' ');
#74=ORGANIZATION(' ',' ',' ');
#75=ORGANIZATION(' ',' ',' ');
#76=ORGANIZATION(' ',' ',' ');
#77=ORGANIZATION(' ',' ',' ');
#78=ORGANIZATION(' ',' ',' ');
#79=PERSON(' ',' ',' ',(' '),$,$);
#80=SHAPE_DEFINITION_REPRESENTATION(#81,#92);
#81=PRODUCT_DEFINITION_SHAPE('','',#82);
#82=PRODUCT_DEFINITION(' ','',#84,$);
#84=PRODUCT_DEFINITION_FORMATION_WITH_SPECIFIED_SOURCE(' ',' ',#86,.NOT_KNOWN.);
#85=PRODUCT_RELATED_PRODUCT_CATEGORY('detail','',(#86));
#86=PRODUCT('C4_391_EH_25038_SIM','C4_391_EH_25038_SIM',' ',());
#87=PRODUCT_CATEGORY('part',' ');
#88=PRODUCT_CATEGORY(' ','');
#90=APPLICATION_PROTOCOL_DEFINITION('international standard','config_control_design',
     2010,#91);
#91=APPLICATION_CONTEXT('configuration controlled 3D designs of mechanical parts and assemblies');
#92=SHAPE_REPRESENTATION('C4_391_EH_25038_SIM-None',(#317),#507);
#93=PRESENTATION_LAYER_ASSIGNMENT('1','Layer 1',(#102));
#94=STYLED_ITEM('',(#95),#102);
#95=PRESENTATION_STYLE_ASSIGNMENT((#96));
#96=SURFACE_STYLE_USAGE(.BOTH.,#97);
#97=SURFACE_SIDE_STYLE('',(#98));
#98=SURFACE_STYLE_FILL_AREA(#99);
#99=FILL_AREA_STYLE('',(#100));
#100=FILL_AREA_STYLE_COLOUR('',#101);
#101=COLOUR_RGB('Medium Gray',0.490196078431373,0.490196078431373,0.490196078431373);
#102=MANIFOLD_SOLID_BREP('NOCUT',#103);
#103=CLOSED_SHELL('',(#138,#139,#140,#141,#142,#143,#144,#145,#146,#147,#148,#149,
     #150,#151,#152));
#104=TOROIDAL_SURFACE('',#353,17.05,5.0);
#105=B_SPLINE_CURVE_WITH_KNOTS('',3,(#474,#475,#476,#477),.UNSPECIFIED.,.F.,.F.,
     (4,4),(0.0,1.0),.UNSPECIFIED.);
#106=B_SPLINE_CURVE_WITH_KNOTS('',3,(#482,#483,#484,#485),.UNSPECIFIED.,.F.,.F.,
     (4,4),(0.0,1.0),.UNSPECIFIED.);
#107=CONICAL_SURFACE('',#331,20.0,1.43916666666667);
#108=CONICAL_SURFACE('',#333,8.5,1.43916666666667);
#109=CONICAL_SURFACE('',#335,20.0,1.43916666666667);
#110=CONICAL_SURFACE('',#337,8.5,1.43916666666667);
#111=CONICAL_SURFACE('',#341,20.0,1.43916666666667);
#112=CONICAL_SURFACE('',#343,8.5,1.43916666666667);
#113=FACE_OUTER_BOUND('',#174,.T.);
#114=FACE_OUTER_BOUND('',#175,.T.);
#115=FACE_OUTER_BOUND('',#176,.T.);
#116=FACE_OUTER_BOUND('',#177,.T.);
#117=FACE_OUTER_BOUND('',#178,.T.);
#118=FACE_OUTER_BOUND('',#179,.T.);
#119=FACE_OUTER_BOUND('',#180,.T.);
#120=FACE_OUTER_BOUND('',#181,.T.);
#121=FACE_OUTER_BOUND('',#182,.T.);
#122=FACE_OUTER_BOUND('',#183,.T.);
#123=LINE('',#456,#129);
#124=LINE('',#460,#130);
#125=LINE('',#464,#131);
#126=LINE('',#468,#132);
#127=LINE('',#472,#133);
#128=LINE('',#489,#134);
#129=VECTOR('',#380,1.0);
#130=VECTOR('',#383,1.0);
#131=VECTOR('',#388,1.0);
#132=VECTOR('',#393,1.0);
#133=VECTOR('',#398,1.0);
#134=VECTOR('',#405,1.0);
#135=CYLINDRICAL_SURFACE('',#322,20.0);
#136=CYLINDRICAL_SURFACE('',#348,4.0);
#137=CYLINDRICAL_SURFACE('',#352,12.05);
#138=ADVANCED_FACE('',(#158,#159),#153,.F.);
#139=ADVANCED_FACE('',(#160,#161),#135,.T.);
#140=ADVANCED_FACE('',(#162,#163),#154,.F.);
#141=ADVANCED_FACE('',(#113),#107,.T.);
#142=ADVANCED_FACE('',(#114),#108,.T.);
#143=ADVANCED_FACE('',(#115),#109,.T.);
#144=ADVANCED_FACE('',(#116),#110,.T.);
#145=ADVANCED_FACE('',(#117),#111,.T.);
#146=ADVANCED_FACE('',(#118),#112,.T.);
#147=ADVANCED_FACE('',(#119),#155,.F.);
#148=ADVANCED_FACE('',(#120),#156,.F.);
#149=ADVANCED_FACE('',(#121),#136,.F.);
#150=ADVANCED_FACE('',(#122),#157,.T.);
#151=ADVANCED_FACE('',(#164,#165),#137,.T.);
#152=ADVANCED_FACE('',(#166,#167),#104,.F.);
#153=PLANE('',#320);
#154=PLANE('',#329);
#155=PLANE('',#345);
#156=PLANE('',#347);
#157=PLANE('',#350);
#158=FACE_BOUND('',#168,.T.);
#159=FACE_BOUND('',#169,.T.);
#160=FACE_BOUND('',#170,.T.);
#161=FACE_BOUND('',#171,.T.);
#162=FACE_BOUND('',#172,.T.);
#163=FACE_BOUND('',#173,.T.);
#164=FACE_BOUND('',#184,.T.);
#165=FACE_BOUND('',#185,.T.);
#166=FACE_BOUND('',#186,.T.);
#167=FACE_BOUND('',#187,.T.);
#168=EDGE_LOOP('',(#188));
#169=EDGE_LOOP('',(#189));
#170=EDGE_LOOP('',(#190));
#171=EDGE_LOOP('',(#191));
#172=EDGE_LOOP('',(#192,#193,#194,#195,#196,#197));
#173=EDGE_LOOP('',(#198));
#174=EDGE_LOOP('',(#199,#200,#201,#202));
#175=EDGE_LOOP('',(#203,#204,#205,#206));
#176=EDGE_LOOP('',(#207,#208,#209,#210));
#177=EDGE_LOOP('',(#211,#212,#213,#214));
#178=EDGE_LOOP('',(#215,#216,#217,#218,#219,#220,#221,#222));
#179=EDGE_LOOP('',(#223,#224,#225,#226));
#180=EDGE_LOOP('',(#227,#228,#229,#230,#231,#232,#233,#234));
#181=EDGE_LOOP('',(#235,#236));
#182=EDGE_LOOP('',(#237,#238,#239,#240));
#183=EDGE_LOOP('',(#241));
#184=EDGE_LOOP('',(#242));
#185=EDGE_LOOP('',(#243));
#186=EDGE_LOOP('',(#244));
#187=EDGE_LOOP('',(#245));
#188=ORIENTED_EDGE('',*,*,#267,.T.);
#189=ORIENTED_EDGE('',*,*,#268,.F.);
#190=ORIENTED_EDGE('',*,*,#269,.F.);
#191=ORIENTED_EDGE('',*,*,#268,.T.);
#192=ORIENTED_EDGE('',*,*,#270,.T.);
#193=ORIENTED_EDGE('',*,*,#271,.T.);
#194=ORIENTED_EDGE('',*,*,#272,.T.);
#195=ORIENTED_EDGE('',*,*,#273,.T.);
#196=ORIENTED_EDGE('',*,*,#274,.T.);
#197=ORIENTED_EDGE('',*,*,#275,.T.);
#198=ORIENTED_EDGE('',*,*,#269,.T.);
#199=ORIENTED_EDGE('',*,*,#273,.F.);
#200=ORIENTED_EDGE('',*,*,#276,.F.);
#201=ORIENTED_EDGE('',*,*,#277,.T.);
#202=ORIENTED_EDGE('',*,*,#278,.T.);
#203=ORIENTED_EDGE('',*,*,#274,.F.);
#204=ORIENTED_EDGE('',*,*,#278,.F.);
#205=ORIENTED_EDGE('',*,*,#279,.T.);
#206=ORIENTED_EDGE('',*,*,#280,.T.);
#207=ORIENTED_EDGE('',*,*,#275,.F.);
#208=ORIENTED_EDGE('',*,*,#280,.F.);
#209=ORIENTED_EDGE('',*,*,#281,.T.);
#210=ORIENTED_EDGE('',*,*,#282,.T.);
#211=ORIENTED_EDGE('',*,*,#270,.F.);
#212=ORIENTED_EDGE('',*,*,#282,.F.);
#213=ORIENTED_EDGE('',*,*,#283,.T.);
#214=ORIENTED_EDGE('',*,*,#284,.T.);
#215=ORIENTED_EDGE('',*,*,#285,.F.);
#216=ORIENTED_EDGE('',*,*,#286,.F.);
#217=ORIENTED_EDGE('',*,*,#287,.F.);
#218=ORIENTED_EDGE('',*,*,#288,.T.);
#219=ORIENTED_EDGE('',*,*,#289,.T.);
#220=ORIENTED_EDGE('',*,*,#271,.F.);
#221=ORIENTED_EDGE('',*,*,#284,.F.);
#222=ORIENTED_EDGE('',*,*,#290,.T.);
#223=ORIENTED_EDGE('',*,*,#272,.F.);
#224=ORIENTED_EDGE('',*,*,#289,.F.);
#225=ORIENTED_EDGE('',*,*,#291,.T.);
#226=ORIENTED_EDGE('',*,*,#276,.T.);
#227=ORIENTED_EDGE('',*,*,#288,.F.);
#228=ORIENTED_EDGE('',*,*,#292,.T.);
#229=ORIENTED_EDGE('',*,*,#290,.F.);
#230=ORIENTED_EDGE('',*,*,#283,.F.);
#231=ORIENTED_EDGE('',*,*,#281,.F.);
#232=ORIENTED_EDGE('',*,*,#279,.F.);
#233=ORIENTED_EDGE('',*,*,#277,.F.);
#234=ORIENTED_EDGE('',*,*,#291,.F.);
#235=ORIENTED_EDGE('',*,*,#286,.T.);
#236=ORIENTED_EDGE('',*,*,#293,.F.);
#237=ORIENTED_EDGE('',*,*,#285,.T.);
#238=ORIENTED_EDGE('',*,*,#292,.F.);
#239=ORIENTED_EDGE('',*,*,#287,.T.);
#240=ORIENTED_EDGE('',*,*,#293,.T.);
#241=ORIENTED_EDGE('',*,*,#294,.T.);
#242=ORIENTED_EDGE('',*,*,#295,.T.);
#243=ORIENTED_EDGE('',*,*,#294,.F.);
#244=ORIENTED_EDGE('',*,*,#267,.F.);
#245=ORIENTED_EDGE('',*,*,#295,.F.);
#246=VERTEX_POINT('',#436);
#247=VERTEX_POINT('',#438);
#248=VERTEX_POINT('',#441);
#249=VERTEX_POINT('',#444);
#250=VERTEX_POINT('',#445);
#251=VERTEX_POINT('',#447);
#252=VERTEX_POINT('',#449);
#253=VERTEX_POINT('',#451);
#254=VERTEX_POINT('',#453);
#255=VERTEX_POINT('',#457);
#256=VERTEX_POINT('',#459);
#257=VERTEX_POINT('',#463);
#258=VERTEX_POINT('',#467);
#259=VERTEX_POINT('',#471);
#260=VERTEX_POINT('',#478);
#261=VERTEX_POINT('',#479);
#262=VERTEX_POINT('',#481);
#263=VERTEX_POINT('',#486);
#264=VERTEX_POINT('',#488);
#265=VERTEX_POINT('',#500);
#266=VERTEX_POINT('',#503);
#267=EDGE_CURVE('',#246,#246,#296,.T.);
#268=EDGE_CURVE('',#247,#247,#297,.T.);
#269=EDGE_CURVE('',#248,#248,#298,.T.);
#270=EDGE_CURVE('',#249,#250,#299,.T.);
#271=EDGE_CURVE('',#250,#251,#300,.T.);
#272=EDGE_CURVE('',#251,#252,#301,.T.);
#273=EDGE_CURVE('',#252,#253,#302,.T.);
#274=EDGE_CURVE('',#253,#254,#303,.T.);
#275=EDGE_CURVE('',#254,#249,#304,.T.);
#276=EDGE_CURVE('',#255,#252,#123,.T.);
#277=EDGE_CURVE('',#255,#256,#305,.T.);
#278=EDGE_CURVE('',#256,#253,#124,.T.);
#279=EDGE_CURVE('',#256,#257,#306,.T.);
#280=EDGE_CURVE('',#257,#254,#125,.T.);
#281=EDGE_CURVE('',#257,#258,#307,.T.);
#282=EDGE_CURVE('',#258,#249,#126,.T.);
#283=EDGE_CURVE('',#258,#259,#308,.T.);
#284=EDGE_CURVE('',#259,#250,#127,.T.);
#285=EDGE_CURVE('',#260,#261,#105,.T.);
#286=EDGE_CURVE('',#262,#260,#309,.T.);
#287=EDGE_CURVE('',#263,#262,#106,.T.);
#288=EDGE_CURVE('',#263,#264,#310,.T.);
#289=EDGE_CURVE('',#264,#251,#128,.T.);
#290=EDGE_CURVE('',#259,#261,#311,.T.);
#291=EDGE_CURVE('',#264,#255,#312,.T.);
#292=EDGE_CURVE('',#263,#261,#313,.T.);
#293=EDGE_CURVE('',#262,#260,#314,.T.);
#294=EDGE_CURVE('',#265,#265,#315,.T.);
#295=EDGE_CURVE('',#266,#266,#316,.T.);
#296=CIRCLE('',#318,17.05);
#297=CIRCLE('',#319,20.0);
#298=CIRCLE('',#321,20.0);
#299=CIRCLE('',#323,8.5);
#300=CIRCLE('',#324,20.0);
#301=CIRCLE('',#325,8.5);
#302=CIRCLE('',#326,20.0);
#303=CIRCLE('',#327,8.5);
#304=CIRCLE('',#328,20.0);
#305=CIRCLE('',#330,19.3970364630094);
#306=CIRCLE('',#332,7.89703646300946);
#307=CIRCLE('',#334,19.3970364630094);
#308=CIRCLE('',#336,7.89703646300946);
#309=CIRCLE('',#338,19.5025550819828);
#310=CIRCLE('',#339,19.3970364630094);
#311=CIRCLE('',#340,19.3970364630094);
#312=CIRCLE('',#342,7.89703646300946);
#313=CIRCLE('',#344,4.0);
#314=CIRCLE('',#346,4.0);
#315=CIRCLE('',#349,12.05);
#316=CIRCLE('',#351,12.05);
#317=AXIS2_PLACEMENT_3D('',#434,#354,#355);
#318=AXIS2_PLACEMENT_3D('',#435,#356,#357);
#319=AXIS2_PLACEMENT_3D('',#437,#358,#359);
#320=AXIS2_PLACEMENT_3D('',#439,#360,#361);
#321=AXIS2_PLACEMENT_3D('',#440,#362,#363);
#322=AXIS2_PLACEMENT_3D('',#442,#364,#365);
#323=AXIS2_PLACEMENT_3D('',#443,#366,#367);
#324=AXIS2_PLACEMENT_3D('',#446,#368,#369);
#325=AXIS2_PLACEMENT_3D('',#448,#370,#371);
#326=AXIS2_PLACEMENT_3D('',#450,#372,#373);
#327=AXIS2_PLACEMENT_3D('',#452,#374,#375);
#328=AXIS2_PLACEMENT_3D('',#454,#376,#377);
#329=AXIS2_PLACEMENT_3D('',#455,#378,#379);
#330=AXIS2_PLACEMENT_3D('',#458,#381,#382);
#331=AXIS2_PLACEMENT_3D('',#461,#384,#385);
#332=AXIS2_PLACEMENT_3D('',#462,#386,#387);
#333=AXIS2_PLACEMENT_3D('',#465,#389,#390);
#334=AXIS2_PLACEMENT_3D('',#466,#391,#392);
#335=AXIS2_PLACEMENT_3D('',#469,#394,#395);
#336=AXIS2_PLACEMENT_3D('',#470,#396,#397);
#337=AXIS2_PLACEMENT_3D('',#473,#399,#400);
#338=AXIS2_PLACEMENT_3D('',#480,#401,#402);
#339=AXIS2_PLACEMENT_3D('',#487,#403,#404);
#340=AXIS2_PLACEMENT_3D('',#490,#406,#407);
#341=AXIS2_PLACEMENT_3D('',#491,#408,#409);
#342=AXIS2_PLACEMENT_3D('',#492,#410,#411);
#343=AXIS2_PLACEMENT_3D('',#493,#412,#413);
#344=AXIS2_PLACEMENT_3D('',#494,#414,#415);
#345=AXIS2_PLACEMENT_3D('',#495,#416,#417);
#346=AXIS2_PLACEMENT_3D('',#496,#418,#419);
#347=AXIS2_PLACEMENT_3D('',#497,#420,#421);
#348=AXIS2_PLACEMENT_3D('',#498,#422,#423);
#349=AXIS2_PLACEMENT_3D('',#499,#424,#425);
#350=AXIS2_PLACEMENT_3D('',#501,#426,#427);
#351=AXIS2_PLACEMENT_3D('',#502,#428,#429);
#352=AXIS2_PLACEMENT_3D('',#504,#430,#431);
#353=AXIS2_PLACEMENT_3D('',#505,#432,#433);
#354=DIRECTION('',(0.0,0.0,1.0));
#355=DIRECTION('',(1.0,0.0,0.0));
#356=DIRECTION('',(0.0,0.0,1.0));
#357=DIRECTION('',(1.0,0.0,0.0));
#358=DIRECTION('',(0.0,0.0,1.0));
#359=DIRECTION('',(1.0,0.0,0.0));
#360=DIRECTION('',(0.0,0.0,1.0));
#361=DIRECTION('',(-1.0,0.0,0.0));
#362=DIRECTION('',(0.0,0.0,1.0));
#363=DIRECTION('',(1.0,0.0,0.0));
#364=DIRECTION('',(0.0,0.0,1.0));
#365=DIRECTION('',(-1.0,0.0,0.0));
#366=DIRECTION('',(0.0,0.0,-1.0));
#367=DIRECTION('',(-1.0,0.0,0.0));
#368=DIRECTION('',(0.0,0.0,-1.0));
#369=DIRECTION('',(-1.0,0.0,0.0));
#370=DIRECTION('',(0.0,0.0,-1.0));
#371=DIRECTION('',(-1.0,0.0,0.0));
#372=DIRECTION('',(0.0,0.0,-1.0));
#373=DIRECTION('',(-1.0,0.0,0.0));
#374=DIRECTION('',(0.0,0.0,-1.0));
#375=DIRECTION('',(-1.0,0.0,0.0));
#376=DIRECTION('',(0.0,0.0,-1.0));
#377=DIRECTION('',(-1.0,0.0,0.0));
#378=DIRECTION('',(0.0,0.0,-1.0));
#379=DIRECTION('',(1.0,0.0,0.0));
#380=DIRECTION('',(-0.0251112246842899,4.66400186113526E-4,-0.999684554679986));
#381=DIRECTION('',(0.0,0.0,-1.0));
#382=DIRECTION('',(-1.0,0.0,0.0));
#383=DIRECTION('',(-0.0130940393650178,0.0214321549869783,-0.999684554679986));
#384=DIRECTION('',(0.0,0.0,-1.0));
#385=DIRECTION('',(1.0,0.0,0.0));
#386=DIRECTION('',(0.0,0.0,-1.0));
#387=DIRECTION('',(-1.0,0.0,0.0));
#388=DIRECTION('',(0.0129628683279737,0.0215117451405068,-0.999684554679986));
#389=DIRECTION('',(0.0,0.0,-1.0));
#390=DIRECTION('',(1.0,0.0,0.0));
#391=DIRECTION('',(0.0,0.0,-1.0));
#392=DIRECTION('',(-1.0,0.0,0.0));
#393=DIRECTION('',(0.0251111519354021,4.70300707684483E-4,-0.999684554679986));
#394=DIRECTION('',(0.0,0.0,-1.0));
#395=DIRECTION('',(1.0,0.0,0.0));
#396=DIRECTION('',(0.0,0.0,-1.0));
#397=DIRECTION('',(-1.0,0.0,0.0));
#398=DIRECTION('',(0.0120137709940597,-0.0220558482217481,-0.999684554679986));
#399=DIRECTION('',(0.0,0.0,-1.0));
#400=DIRECTION('',(1.0,0.0,0.0));
#401=DIRECTION('',(0.0,0.0,1.0));
#402=DIRECTION('',(-1.0,0.0,0.0));
#403=DIRECTION('',(0.0,0.0,-1.0));
#404=DIRECTION('',(-1.0,0.0,0.0));
#405=DIRECTION('',(-0.0121516979326409,-0.0219801585897907,-0.999684554679986));
#406=DIRECTION('',(0.0,0.0,-1.0));
#407=DIRECTION('',(-1.0,0.0,0.0));
#408=DIRECTION('',(0.0,0.0,-1.0));
#409=DIRECTION('',(1.0,0.0,0.0));
#410=DIRECTION('',(0.0,0.0,-1.0));
#411=DIRECTION('',(-1.0,0.0,0.0));
#412=DIRECTION('',(0.0,0.0,-1.0));
#413=DIRECTION('',(1.0,0.0,0.0));
#414=DIRECTION('',(0.0,0.0,-1.0));
#415=DIRECTION('',(-1.0,0.0,0.0));
#416=DIRECTION('',(0.0,0.0,-1.0));
#417=DIRECTION('',(1.0,0.0,0.0));
#418=DIRECTION('',(0.0,0.0,-1.0));
#419=DIRECTION('',(-1.0,0.0,0.0));
#420=DIRECTION('',(0.0,0.0,-1.0));
#421=DIRECTION('',(1.0,0.0,0.0));
#422=DIRECTION('',(0.0,0.0,-1.0));
#423=DIRECTION('',(1.0,0.0,0.0));
#424=DIRECTION('',(0.0,0.0,-1.0));
#425=DIRECTION('',(-1.0,0.0,0.0));
#426=DIRECTION('',(0.0,0.0,-1.0));
#427=DIRECTION('',(-1.0,0.0,0.0));
#428=DIRECTION('',(0.0,0.0,-1.0));
#429=DIRECTION('',(1.0,0.0,0.0));
#430=DIRECTION('',(0.0,0.0,-1.0));
#431=DIRECTION('',(-1.0,0.0,0.0));
#432=DIRECTION('',(0.0,0.0,1.0));
#433=DIRECTION('',(1.0,0.0,0.0));
#434=CARTESIAN_POINT('',(0.0,0.0,0.0));
#435=CARTESIAN_POINT('',(0.0,-8.67361737988404E-16,-8.0));
#436=CARTESIAN_POINT('',(17.05,-8.67361737988404E-16,-8.0));
#437=CARTESIAN_POINT('',(0.0,0.0,-8.0));
#438=CARTESIAN_POINT('',(20.0,0.0,-8.0));
#439=CARTESIAN_POINT('',(0.0,-9.8,-8.0));
#440=CARTESIAN_POINT('',(0.0,0.0,0.0));
#441=CARTESIAN_POINT('',(20.0,0.0,0.0));
#442=CARTESIAN_POINT('',(0.0,0.0,-26.0));
#443=CARTESIAN_POINT('',(5.522408337495,-3.23465703807463,0.0));
#444=CARTESIAN_POINT('',(14.0209179723354,-3.07549050099937,0.0));
#445=CARTESIAN_POINT('',(9.58829702338366,-10.6991429007421,0.0));
#446=CARTESIAN_POINT('',(0.0215001154103373,6.86435324671078,0.0));
#447=CARTESIAN_POINT('',(-9.65513066655617,-10.6388697910471,0.0));
#448=CARTESIAN_POINT('',(-5.54256258422041,-3.2,0.0));
#449=CARTESIAN_POINT('',(-14.0410968398797,-3.04215353857228,0.0));
#450=CARTESIAN_POINT('',(5.95545434990689,-3.41355697722574,0.0));
#451=CARTESIAN_POINT('',(-4.47158103907076,13.653280251652,0.0));
#452=CARTESIAN_POINT('',(-0.0400909987552516,6.39987442937897,0.0));
#453=CARTESIAN_POINT('',(4.34700608320455,13.6802163989199,0.0));
#454=CARTESIAN_POINT('',(-5.97557528611263,-3.45,0.0));
#455=CARTESIAN_POINT('',(0.0,-20.0,0.0));
#456=CARTESIAN_POINT('',(-14.0410968398797,-3.04215353857228,-1.30664401377134E-16));
#457=CARTESIAN_POINT('',(-13.4382372782294,-3.05335067512333,24.0));
#458=CARTESIAN_POINT('',(5.95545434990689,-3.41355697722574,24.0));
#459=CARTESIAN_POINT('',(-4.15722493214758,13.1387462246137,24.0));
#460=CARTESIAN_POINT('',(-4.47158103907076,13.653280251652,0.0));
#461=CARTESIAN_POINT('',(5.95545434990689,-3.41355697722574,0.0));
#462=CARTESIAN_POINT('',(-0.0400909987552516,6.39987442937897,24.0));
#463=CARTESIAN_POINT('',(4.03579907453875,13.1637716054546,24.0));
#464=CARTESIAN_POINT('',(4.34700608320455,13.6802163989199,0.0));
#465=CARTESIAN_POINT('',(-0.0400909987552516,6.39987442937897,0.0));
#466=CARTESIAN_POINT('',(-5.97557528611263,-3.45,24.0));
#467=CARTESIAN_POINT('',(13.4180601572094,-3.08678127960707,24.0));
#468=CARTESIAN_POINT('',(14.0209179723354,-3.07549050099937,8.71096009180893E-17));
#469=CARTESIAN_POINT('',(-5.97557528611263,-3.45,0.0));
#470=CARTESIAN_POINT('',(5.522408337495,-3.23465703807463,24.0));
#471=CARTESIAN_POINT('',(9.29987553831857,-10.1696355127927,24.0));
#472=CARTESIAN_POINT('',(9.58829702338366,-10.6991429007421,0.0));
#473=CARTESIAN_POINT('',(5.522408337495,-3.23465703807463,0.0));
#474=CARTESIAN_POINT('',(3.04217367114143,-12.4028516879828,19.8));
#475=CARTESIAN_POINT('',(3.01536690869658,-12.3714515455493,21.2000133982658));
#476=CARTESIAN_POINT('',(2.98779256558135,-12.3401358046305,22.600014237919));
#477=CARTESIAN_POINT('',(2.95939263898617,-12.30890445946,24.0));
#478=CARTESIAN_POINT('',(3.04217367114143,-12.4028516879828,19.8));
#479=CARTESIAN_POINT('',(2.95939263898617,-12.30890445946,24.0));
#480=CARTESIAN_POINT('',(0.0215001154103373,6.86435324671078,19.8));
#481=CARTESIAN_POINT('',(-3.03706002783089,-12.39687372812,19.8));
#482=CARTESIAN_POINT('',(-2.95409439161902,-12.303089485095,24.0));
#483=CARTESIAN_POINT('',(-2.98255568535731,-12.3342649162952,22.600014237919));
#484=CARTESIAN_POINT('',(-3.01019156319168,-12.365526366739,21.2000133982658));
#485=CARTESIAN_POINT('',(-3.03706002783089,-12.39687372812,19.8));
#486=CARTESIAN_POINT('',(-2.95409439161902,-12.303089485095,24.0));
#487=CARTESIAN_POINT('',(0.0215001154103373,6.86435324671078,24.0));
#488=CARTESIAN_POINT('',(-9.36339789043387,-10.1111795274681,24.0));
#489=CARTESIAN_POINT('',(-9.65513066655617,-10.6388697910471,0.0));
#490=CARTESIAN_POINT('',(0.0215001154103373,6.86435324671078,24.0));
#491=CARTESIAN_POINT('',(0.0215001154103373,6.86435324671078,0.0));
#492=CARTESIAN_POINT('',(-5.54256258422041,-3.2,24.0));
#493=CARTESIAN_POINT('',(-5.54256258422041,-3.2,0.0));
#494=CARTESIAN_POINT('',(0.0,-15.0,24.0));
#495=CARTESIAN_POINT('',(2.95768167557582,1.49315872607661,24.0));
#496=CARTESIAN_POINT('',(0.0,-15.0,19.8));
#497=CARTESIAN_POINT('',(0.0,-15.0,19.8));
#498=CARTESIAN_POINT('',(0.0,-15.0,24.0));
#499=CARTESIAN_POINT('',(0.0,-8.67361737988404E-16,-38.0));
#500=CARTESIAN_POINT('',(-12.05,-8.67361737988404E-16,-38.0));
#501=CARTESIAN_POINT('',(0.0,-8.67361737988404E-16,-38.0));
#502=CARTESIAN_POINT('',(0.0,-8.67361737988404E-16,-13.0));
#503=CARTESIAN_POINT('',(12.05,-8.67361737988404E-16,-13.0));
#504=CARTESIAN_POINT('',(0.0,-8.67361737988404E-16,-8.0));
#505=CARTESIAN_POINT('',(0.0,-8.67361737988404E-16,-13.0));
#506=MECHANICAL_DESIGN_GEOMETRIC_PRESENTATION_REPRESENTATION('',(#94),#507);
#507=(GEOMETRIC_REPRESENTATION_CONTEXT(3)GLOBAL_UNCERTAINTY_ASSIGNED_CONTEXT((#508))
     GLOBAL_UNIT_ASSIGNED_CONTEXT((#514,#510,#509))REPRESENTATION_CONTEXT('C4_391_EH_25038_SIM',
     'TOP_LEVEL_ASSEMBLY_PART'));
#508=UNCERTAINTY_MEASURE_WITH_UNIT(LENGTH_MEASURE(2.0E-5),#514,'DISTANCE_ACCURACY_VALUE',
     'Maximum Tolerance applied to model');
#509=(NAMED_UNIT(*)SI_UNIT($,.STERADIAN.)SOLID_ANGLE_UNIT());
#510=(CONVERSION_BASED_UNIT('DEGREE',#512)NAMED_UNIT(*)PLANE_ANGLE_UNIT());
#511=DIMENSIONAL_EXPONENTS(0.0,0.0,0.0,0.0,0.0,0.0,0.0);
#512=PLANE_ANGLE_MEASURE_WITH_UNIT(PLANE_ANGLE_MEASURE(0.0174532925),#513);
#513=(NAMED_UNIT(*)PLANE_ANGLE_UNIT()SI_UNIT($,.RADIAN.));
#514=(LENGTH_UNIT()NAMED_UNIT(*)SI_UNIT(.MILLI.,.METRE.));
#515=CARTESIAN_POINT('',(0.0,0.0,0.0));
#516=DIRECTION('',(0.0,0.0,1.0));
#517=DIRECTION('',(1.0,0.0,0.0));
#518=AXIS2_PLACEMENT_3D('PCS',#515,#516,#517);
#519=CARTESIAN_POINT('',(0.0,0.0,0.0));
#520=DIRECTION('',(0.0,0.0,1.0));
#521=DIRECTION('',(1.0,0.0,0.0));
#522=AXIS2_PLACEMENT_3D('MCS',#519,#520,#521);
#523=CARTESIAN_POINT('',(0.0,0.0,-38.0));
#524=DIRECTION('',(0.0,0.0,1.0));
#525=DIRECTION('',(1.0,0.0,0.0));
#526=AXIS2_PLACEMENT_3D('CSW',#523,#524,#525);
#527=CONSTRUCTIVE_GEOMETRY_REPRESENTATION('supplemental geometry',(#518,#522,#526),
     #507);
#528=CONSTRUCTIVE_GEOMETRY_REPRESENTATION_RELATIONSHIP('supplemental geometry',$,
     #92,#527);
ENDSEC;
END-ISO-10303-21;
