ISO-10303-21;
HEADER;
FILE_DESCRIPTION(
/* description */ ('3-D model version:1'),
/* implementation_level */ '2;1');
FILE_NAME(
/* name */ 'C4-391.EH-16049',
/* time_stamp */ '2016-12-02T13:56:18',
/* author */ ('InteractiveCad'),
/* organization */ ('AB Sandvik Coromant'),
/* preprocessor_version */ 'ST-DEVELOPER v11',
/* originating_system */ 'SIEMENS UGS NX 6.0',
/* authorization */ '');
FILE_SCHEMA(('AUTOMOTIVE_DESIGN'));
ENDSEC;
DATA;
#10=SHAPE_REPRESENTATION_RELATIONSHIP('None','relationship between ds680184tku3-None and ds680184tku3-None',
     #22,#11);
#11=ADVANCED_BREP_SHAPE_REPRESENTATION('ds680184tku3-None',(#32),#437);
#12=SHAPE_DEFINITION_REPRESENTATION(#13,#22);
#13=PRODUCT_DEFINITION_SHAPE('','',#14);
#14=PRODUCT_DEFINITION(' ','',#16,#15);
#15=PRODUCT_DEFINITION_CONTEXT('part definition',#21,'design');
#16=PRODUCT_DEFINITION_FORMATION_WITH_SPECIFIED_SOURCE(' ',' ',#18,.NOT_KNOWN.);
#17=PRODUCT_RELATED_PRODUCT_CATEGORY('part','',(#18));
#18=PRODUCT('ds680184tku3','ds680184tku3',' ',(#19));
#19=PRODUCT_CONTEXT(' ',#21,'mechanical');
#20=APPLICATION_PROTOCOL_DEFINITION('international standard','automotive_design',
     2001,#21);
#21=APPLICATION_CONTEXT('core data for automotive mechanical design processes');
#22=SHAPE_REPRESENTATION('ds680184tku3-None',(#247),#437);
#23=PRESENTATION_LAYER_ASSIGNMENT('1','Layer 1',(#32));
#24=STYLED_ITEM('',(#25),#32);
#25=PRESENTATION_STYLE_ASSIGNMENT((#26));
#26=SURFACE_STYLE_USAGE(.BOTH.,#27);
#27=SURFACE_SIDE_STYLE('',(#28));
#28=SURFACE_STYLE_FILL_AREA(#29);
#29=FILL_AREA_STYLE('',(#30));
#30=FILL_AREA_STYLE_COLOUR('',#31);
#31=COLOUR_RGB('Medium Gray',0.490196078431373,0.490196078431373,0.490196078431373);
#32=MANIFOLD_SOLID_BREP('NOCUT',#33);
#33=CLOSED_SHELL('',(#54,#55,#56,#57,#58,#59,#60,#61,#62,#63,#64,#65,#66,#67,#68));
#34=TOROIDAL_SURFACE('',#280,12.7,5.0);
#35=FACE_BOUND('',#95,.T.);
#36=FACE_BOUND('',#96,.T.);
#37=FACE_BOUND('',#98,.T.);
#38=FACE_BOUND('',#99,.T.);
#39=FACE_BOUND('',#100,.T.);
#40=FACE_BOUND('',#101,.T.);
#41=FACE_BOUND('',#102,.T.);
#42=FACE_BOUND('',#103,.T.);
#43=FACE_BOUND('',#104,.T.);
#44=FACE_BOUND('',#105,.T.);
#45=CYLINDRICAL_SURFACE('',#272,4.0);
#46=CYLINDRICAL_SURFACE('',#278,7.7);
#47=CYLINDRICAL_SURFACE('',#283,20.0);
#48=PLANE('',#269);
#49=PLANE('',#271);
#50=PLANE('',#274);
#51=PLANE('',#276);
#52=B_SPLINE_CURVE_WITH_KNOTS('',3,(#392,#393,#394,#395),.UNSPECIFIED.,.F.,.F.,
     (4,4),(0.0,1.0),.UNSPECIFIED.);
#53=B_SPLINE_CURVE_WITH_KNOTS('',3,(#400,#401,#402,#403),.UNSPECIFIED.,.F.,.F.,
     (4,4),(0.0,1.0),.UNSPECIFIED.);
#54=ADVANCED_FACE('',(#76),#69,.T.);
#55=ADVANCED_FACE('',(#77),#70,.T.);
#56=ADVANCED_FACE('',(#78),#71,.T.);
#57=ADVANCED_FACE('',(#79),#72,.T.);
#58=ADVANCED_FACE('',(#80),#73,.T.);
#59=ADVANCED_FACE('',(#81),#74,.T.);
#60=ADVANCED_FACE('',(#82),#48,.F.);
#61=ADVANCED_FACE('',(#83),#49,.F.);
#62=ADVANCED_FACE('',(#84),#45,.F.);
#63=ADVANCED_FACE('',(#35,#36),#50,.F.);
#64=ADVANCED_FACE('',(#85),#51,.F.);
#65=ADVANCED_FACE('',(#37,#38),#46,.T.);
#66=ADVANCED_FACE('',(#39,#40),#34,.F.);
#67=ADVANCED_FACE('',(#41,#42),#75,.T.);
#68=ADVANCED_FACE('',(#43,#44),#47,.T.);
#69=CONICAL_SURFACE('',#250,20.0,1.43916666666667);
#70=CONICAL_SURFACE('',#253,8.5,1.43916666666667);
#71=CONICAL_SURFACE('',#256,20.0,1.43916666666667);
#72=CONICAL_SURFACE('',#259,8.5,1.43916666666667);
#73=CONICAL_SURFACE('',#264,20.0,1.43916666666667);
#74=CONICAL_SURFACE('',#267,8.5,1.43916666666667);
#75=CONICAL_SURFACE('',#282,11.4059047744873,75.0);
#76=FACE_OUTER_BOUND('',#86,.T.);
#77=FACE_OUTER_BOUND('',#87,.T.);
#78=FACE_OUTER_BOUND('',#88,.T.);
#79=FACE_OUTER_BOUND('',#89,.T.);
#80=FACE_OUTER_BOUND('',#90,.T.);
#81=FACE_OUTER_BOUND('',#91,.T.);
#82=FACE_OUTER_BOUND('',#92,.T.);
#83=FACE_OUTER_BOUND('',#93,.T.);
#84=FACE_OUTER_BOUND('',#94,.T.);
#85=FACE_OUTER_BOUND('',#97,.T.);
#86=EDGE_LOOP('',(#118,#119,#120,#121));
#87=EDGE_LOOP('',(#122,#123,#124,#125));
#88=EDGE_LOOP('',(#126,#127,#128,#129));
#89=EDGE_LOOP('',(#130,#131,#132,#133));
#90=EDGE_LOOP('',(#134,#135,#136,#137,#138,#139,#140,#141));
#91=EDGE_LOOP('',(#142,#143,#144,#145));
#92=EDGE_LOOP('',(#146,#147,#148,#149,#150,#151,#152,#153));
#93=EDGE_LOOP('',(#154,#155));
#94=EDGE_LOOP('',(#156,#157,#158,#159));
#95=EDGE_LOOP('',(#160));
#96=EDGE_LOOP('',(#161,#162,#163,#164,#165,#166));
#97=EDGE_LOOP('',(#167));
#98=EDGE_LOOP('',(#168));
#99=EDGE_LOOP('',(#169));
#100=EDGE_LOOP('',(#170));
#101=EDGE_LOOP('',(#171));
#102=EDGE_LOOP('',(#172));
#103=EDGE_LOOP('',(#173));
#104=EDGE_LOOP('',(#174));
#105=EDGE_LOOP('',(#175));
#106=LINE('',#368,#112);
#107=LINE('',#372,#113);
#108=LINE('',#378,#114);
#109=LINE('',#384,#115);
#110=LINE('',#390,#116);
#111=LINE('',#407,#117);
#112=VECTOR('',#288,1.0);
#113=VECTOR('',#291,1.0);
#114=VECTOR('',#298,1.0);
#115=VECTOR('',#305,1.0);
#116=VECTOR('',#312,1.0);
#117=VECTOR('',#319,1.0);
#118=ORIENTED_EDGE('',*,*,#197,.F.);
#119=ORIENTED_EDGE('',*,*,#198,.F.);
#120=ORIENTED_EDGE('',*,*,#199,.T.);
#121=ORIENTED_EDGE('',*,*,#200,.T.);
#122=ORIENTED_EDGE('',*,*,#201,.F.);
#123=ORIENTED_EDGE('',*,*,#200,.F.);
#124=ORIENTED_EDGE('',*,*,#202,.T.);
#125=ORIENTED_EDGE('',*,*,#203,.T.);
#126=ORIENTED_EDGE('',*,*,#204,.F.);
#127=ORIENTED_EDGE('',*,*,#203,.F.);
#128=ORIENTED_EDGE('',*,*,#205,.T.);
#129=ORIENTED_EDGE('',*,*,#206,.T.);
#130=ORIENTED_EDGE('',*,*,#207,.F.);
#131=ORIENTED_EDGE('',*,*,#206,.F.);
#132=ORIENTED_EDGE('',*,*,#208,.T.);
#133=ORIENTED_EDGE('',*,*,#209,.T.);
#134=ORIENTED_EDGE('',*,*,#210,.F.);
#135=ORIENTED_EDGE('',*,*,#211,.F.);
#136=ORIENTED_EDGE('',*,*,#212,.F.);
#137=ORIENTED_EDGE('',*,*,#213,.T.);
#138=ORIENTED_EDGE('',*,*,#214,.T.);
#139=ORIENTED_EDGE('',*,*,#215,.F.);
#140=ORIENTED_EDGE('',*,*,#209,.F.);
#141=ORIENTED_EDGE('',*,*,#216,.T.);
#142=ORIENTED_EDGE('',*,*,#217,.F.);
#143=ORIENTED_EDGE('',*,*,#214,.F.);
#144=ORIENTED_EDGE('',*,*,#218,.T.);
#145=ORIENTED_EDGE('',*,*,#198,.T.);
#146=ORIENTED_EDGE('',*,*,#213,.F.);
#147=ORIENTED_EDGE('',*,*,#219,.T.);
#148=ORIENTED_EDGE('',*,*,#216,.F.);
#149=ORIENTED_EDGE('',*,*,#208,.F.);
#150=ORIENTED_EDGE('',*,*,#205,.F.);
#151=ORIENTED_EDGE('',*,*,#202,.F.);
#152=ORIENTED_EDGE('',*,*,#199,.F.);
#153=ORIENTED_EDGE('',*,*,#218,.F.);
#154=ORIENTED_EDGE('',*,*,#211,.T.);
#155=ORIENTED_EDGE('',*,*,#220,.F.);
#156=ORIENTED_EDGE('',*,*,#210,.T.);
#157=ORIENTED_EDGE('',*,*,#219,.F.);
#158=ORIENTED_EDGE('',*,*,#212,.T.);
#159=ORIENTED_EDGE('',*,*,#220,.T.);
#160=ORIENTED_EDGE('',*,*,#221,.T.);
#161=ORIENTED_EDGE('',*,*,#207,.T.);
#162=ORIENTED_EDGE('',*,*,#215,.T.);
#163=ORIENTED_EDGE('',*,*,#217,.T.);
#164=ORIENTED_EDGE('',*,*,#197,.T.);
#165=ORIENTED_EDGE('',*,*,#201,.T.);
#166=ORIENTED_EDGE('',*,*,#204,.T.);
#167=ORIENTED_EDGE('',*,*,#222,.F.);
#168=ORIENTED_EDGE('',*,*,#223,.F.);
#169=ORIENTED_EDGE('',*,*,#222,.T.);
#170=ORIENTED_EDGE('',*,*,#224,.F.);
#171=ORIENTED_EDGE('',*,*,#223,.T.);
#172=ORIENTED_EDGE('',*,*,#225,.F.);
#173=ORIENTED_EDGE('',*,*,#224,.T.);
#174=ORIENTED_EDGE('',*,*,#221,.F.);
#175=ORIENTED_EDGE('',*,*,#225,.T.);
#176=VERTEX_POINT('',#366);
#177=VERTEX_POINT('',#367);
#178=VERTEX_POINT('',#369);
#179=VERTEX_POINT('',#371);
#180=VERTEX_POINT('',#375);
#181=VERTEX_POINT('',#377);
#182=VERTEX_POINT('',#381);
#183=VERTEX_POINT('',#383);
#184=VERTEX_POINT('',#387);
#185=VERTEX_POINT('',#389);
#186=VERTEX_POINT('',#396);
#187=VERTEX_POINT('',#397);
#188=VERTEX_POINT('',#399);
#189=VERTEX_POINT('',#404);
#190=VERTEX_POINT('',#406);
#191=VERTEX_POINT('',#408);
#192=VERTEX_POINT('',#421);
#193=VERTEX_POINT('',#424);
#194=VERTEX_POINT('',#427);
#195=VERTEX_POINT('',#430);
#196=VERTEX_POINT('',#433);
#197=EDGE_CURVE('',#176,#177,#226,.T.);
#198=EDGE_CURVE('',#178,#176,#106,.T.);
#199=EDGE_CURVE('',#178,#179,#227,.T.);
#200=EDGE_CURVE('',#179,#177,#107,.T.);
#201=EDGE_CURVE('',#177,#180,#228,.T.);
#202=EDGE_CURVE('',#179,#181,#229,.T.);
#203=EDGE_CURVE('',#181,#180,#108,.T.);
#204=EDGE_CURVE('',#180,#182,#230,.T.);
#205=EDGE_CURVE('',#181,#183,#231,.T.);
#206=EDGE_CURVE('',#183,#182,#109,.T.);
#207=EDGE_CURVE('',#182,#184,#232,.T.);
#208=EDGE_CURVE('',#183,#185,#233,.T.);
#209=EDGE_CURVE('',#185,#184,#110,.T.);
#210=EDGE_CURVE('',#186,#187,#52,.T.);
#211=EDGE_CURVE('',#188,#186,#234,.T.);
#212=EDGE_CURVE('',#189,#188,#53,.T.);
#213=EDGE_CURVE('',#189,#190,#235,.T.);
#214=EDGE_CURVE('',#190,#191,#111,.T.);
#215=EDGE_CURVE('',#184,#191,#236,.T.);
#216=EDGE_CURVE('',#185,#187,#237,.T.);
#217=EDGE_CURVE('',#191,#176,#238,.T.);
#218=EDGE_CURVE('',#190,#178,#239,.T.);
#219=EDGE_CURVE('',#189,#187,#240,.T.);
#220=EDGE_CURVE('',#188,#186,#241,.T.);
#221=EDGE_CURVE('',#192,#192,#242,.T.);
#222=EDGE_CURVE('',#193,#193,#243,.T.);
#223=EDGE_CURVE('',#194,#194,#244,.T.);
#224=EDGE_CURVE('',#195,#195,#245,.T.);
#225=EDGE_CURVE('',#196,#196,#246,.T.);
#226=CIRCLE('',#248,20.0);
#227=CIRCLE('',#249,19.3970364630094);
#228=CIRCLE('',#251,8.5);
#229=CIRCLE('',#252,7.89703646300946);
#230=CIRCLE('',#254,20.0);
#231=CIRCLE('',#255,19.3970364630094);
#232=CIRCLE('',#257,8.5);
#233=CIRCLE('',#258,7.89703646300946);
#234=CIRCLE('',#260,19.5025550819828);
#235=CIRCLE('',#261,19.3970364630094);
#236=CIRCLE('',#262,20.0);
#237=CIRCLE('',#263,19.3970364630094);
#238=CIRCLE('',#265,8.5);
#239=CIRCLE('',#266,7.89703646300946);
#240=CIRCLE('',#268,4.0);
#241=CIRCLE('',#270,4.0);
#242=CIRCLE('',#273,20.0);
#243=CIRCLE('',#275,7.7);
#244=CIRCLE('',#277,7.7);
#245=CIRCLE('',#279,11.4059047744873);
#246=CIRCLE('',#281,20.0);
#247=AXIS2_PLACEMENT_3D('',#364,#284,#285);
#248=AXIS2_PLACEMENT_3D('',#365,#286,#287);
#249=AXIS2_PLACEMENT_3D('',#370,#289,#290);
#250=AXIS2_PLACEMENT_3D('',#373,#292,#293);
#251=AXIS2_PLACEMENT_3D('',#374,#294,#295);
#252=AXIS2_PLACEMENT_3D('',#376,#296,#297);
#253=AXIS2_PLACEMENT_3D('',#379,#299,#300);
#254=AXIS2_PLACEMENT_3D('',#380,#301,#302);
#255=AXIS2_PLACEMENT_3D('',#382,#303,#304);
#256=AXIS2_PLACEMENT_3D('',#385,#306,#307);
#257=AXIS2_PLACEMENT_3D('',#386,#308,#309);
#258=AXIS2_PLACEMENT_3D('',#388,#310,#311);
#259=AXIS2_PLACEMENT_3D('',#391,#313,#314);
#260=AXIS2_PLACEMENT_3D('',#398,#315,#316);
#261=AXIS2_PLACEMENT_3D('',#405,#317,#318);
#262=AXIS2_PLACEMENT_3D('',#409,#320,#321);
#263=AXIS2_PLACEMENT_3D('',#410,#322,#323);
#264=AXIS2_PLACEMENT_3D('',#411,#324,#325);
#265=AXIS2_PLACEMENT_3D('',#412,#326,#327);
#266=AXIS2_PLACEMENT_3D('',#413,#328,#329);
#267=AXIS2_PLACEMENT_3D('',#414,#330,#331);
#268=AXIS2_PLACEMENT_3D('',#415,#332,#333);
#269=AXIS2_PLACEMENT_3D('',#416,#334,#335);
#270=AXIS2_PLACEMENT_3D('',#417,#336,#337);
#271=AXIS2_PLACEMENT_3D('',#418,#338,#339);
#272=AXIS2_PLACEMENT_3D('',#419,#340,#341);
#273=AXIS2_PLACEMENT_3D('',#420,#342,#343);
#274=AXIS2_PLACEMENT_3D('',#422,#344,#345);
#275=AXIS2_PLACEMENT_3D('',#423,#346,#347);
#276=AXIS2_PLACEMENT_3D('',#425,#348,#349);
#277=AXIS2_PLACEMENT_3D('',#426,#350,#351);
#278=AXIS2_PLACEMENT_3D('',#428,#352,#353);
#279=AXIS2_PLACEMENT_3D('',#429,#354,#355);
#280=AXIS2_PLACEMENT_3D('',#431,#356,#357);
#281=AXIS2_PLACEMENT_3D('',#432,#358,#359);
#282=AXIS2_PLACEMENT_3D('',#434,#360,#361);
#283=AXIS2_PLACEMENT_3D('',#435,#362,#363);
#284=DIRECTION('',(0.0,0.0,1.0));
#285=DIRECTION('',(1.0,0.0,0.0));
#286=DIRECTION('',(0.0,0.0,-1.0));
#287=DIRECTION('',(-1.0,0.0,0.0));
#288=DIRECTION('',(-0.0251112246842899,4.66400186113526E-4,-0.999684554679986));
#289=DIRECTION('',(0.0,0.0,-1.0));
#290=DIRECTION('',(-1.0,0.0,0.0));
#291=DIRECTION('',(-0.0130940393650178,0.0214321549869783,-0.999684554679986));
#292=DIRECTION('',(0.0,0.0,-1.0));
#293=DIRECTION('',(-1.0,0.0,0.0));
#294=DIRECTION('',(0.0,0.0,-1.0));
#295=DIRECTION('',(-1.0,0.0,0.0));
#296=DIRECTION('',(0.0,0.0,-1.0));
#297=DIRECTION('',(-1.0,0.0,0.0));
#298=DIRECTION('',(0.0129628683279737,0.0215117451405068,-0.999684554679986));
#299=DIRECTION('',(0.0,0.0,-1.0));
#300=DIRECTION('',(-1.0,0.0,0.0));
#301=DIRECTION('',(0.0,0.0,-1.0));
#302=DIRECTION('',(-1.0,0.0,0.0));
#303=DIRECTION('',(0.0,0.0,-1.0));
#304=DIRECTION('',(-1.0,0.0,0.0));
#305=DIRECTION('',(0.0251111519354021,4.70300707684483E-4,-0.999684554679986));
#306=DIRECTION('',(0.0,0.0,-1.0));
#307=DIRECTION('',(-1.0,0.0,0.0));
#308=DIRECTION('',(0.0,0.0,-1.0));
#309=DIRECTION('',(-1.0,0.0,0.0));
#310=DIRECTION('',(0.0,0.0,-1.0));
#311=DIRECTION('',(-1.0,0.0,0.0));
#312=DIRECTION('',(0.0120137709940597,-0.0220558482217481,-0.999684554679986));
#313=DIRECTION('',(0.0,0.0,-1.0));
#314=DIRECTION('',(-1.0,0.0,0.0));
#315=DIRECTION('',(0.0,0.0,1.0));
#316=DIRECTION('',(-1.0,0.0,0.0));
#317=DIRECTION('',(0.0,0.0,-1.0));
#318=DIRECTION('',(-1.0,0.0,0.0));
#319=DIRECTION('',(-0.0121516979326409,-0.0219801585897907,-0.999684554679986));
#320=DIRECTION('',(0.0,0.0,-1.0));
#321=DIRECTION('',(-1.0,0.0,0.0));
#322=DIRECTION('',(0.0,0.0,-1.0));
#323=DIRECTION('',(-1.0,0.0,0.0));
#324=DIRECTION('',(0.0,0.0,-1.0));
#325=DIRECTION('',(-1.0,0.0,0.0));
#326=DIRECTION('',(0.0,0.0,-1.0));
#327=DIRECTION('',(-1.0,0.0,0.0));
#328=DIRECTION('',(0.0,0.0,-1.0));
#329=DIRECTION('',(-1.0,0.0,0.0));
#330=DIRECTION('',(0.0,0.0,-1.0));
#331=DIRECTION('',(-1.0,0.0,0.0));
#332=DIRECTION('',(0.0,0.0,-1.0));
#333=DIRECTION('',(-1.0,0.0,0.0));
#334=DIRECTION('',(0.0,0.0,-1.0));
#335=DIRECTION('',(-1.0,0.0,0.0));
#336=DIRECTION('',(0.0,0.0,-1.0));
#337=DIRECTION('',(-1.0,0.0,0.0));
#338=DIRECTION('',(0.0,0.0,-1.0));
#339=DIRECTION('',(-1.0,0.0,0.0));
#340=DIRECTION('',(0.0,0.0,-1.0));
#341=DIRECTION('',(-1.0,0.0,0.0));
#342=DIRECTION('',(0.0,0.0,1.0));
#343=DIRECTION('',(1.0,0.0,0.0));
#344=DIRECTION('',(0.0,0.0,-1.0));
#345=DIRECTION('',(-1.0,0.0,0.0));
#346=DIRECTION('',(0.0,0.0,1.0));
#347=DIRECTION('',(1.0,0.0,0.0));
#348=DIRECTION('',(0.0,0.0,1.0));
#349=DIRECTION('',(1.0,0.0,0.0));
#350=DIRECTION('',(0.0,0.0,1.0));
#351=DIRECTION('',(1.0,0.0,0.0));
#352=DIRECTION('',(0.0,0.0,1.0));
#353=DIRECTION('',(1.0,0.0,0.0));
#354=DIRECTION('',(0.0,0.0,1.0));
#355=DIRECTION('',(1.0,0.0,0.0));
#356=DIRECTION('',(0.0,0.0,1.0));
#357=DIRECTION('',(1.0,0.0,0.0));
#358=DIRECTION('',(0.0,0.0,1.0));
#359=DIRECTION('',(1.0,0.0,0.0));
#360=DIRECTION('',(0.0,0.0,1.0));
#361=DIRECTION('',(1.0,0.0,-8.34122709757099E-18));
#362=DIRECTION('',(0.0,0.0,1.0));
#363=DIRECTION('',(1.0,0.0,0.0));
#364=CARTESIAN_POINT('',(0.0,0.0,0.0));
#365=CARTESIAN_POINT('',(5.95545434990689,-3.41355697722574,0.0));
#366=CARTESIAN_POINT('',(-14.0410968398797,-3.04215353857228,0.0));
#367=CARTESIAN_POINT('',(-4.47158103907076,13.653280251652,0.0));
#368=CARTESIAN_POINT('',(-14.0410968398797,-3.04215353857228,-1.30664401377134E-16));
#369=CARTESIAN_POINT('',(-13.4382372782294,-3.05335067512333,24.0));
#370=CARTESIAN_POINT('',(5.95545434990689,-3.41355697722574,24.0));
#371=CARTESIAN_POINT('',(-4.15722493214758,13.1387462246137,24.0));
#372=CARTESIAN_POINT('',(-4.47158103907076,13.653280251652,0.0));
#373=CARTESIAN_POINT('',(5.95545434990689,-3.41355697722574,0.0));
#374=CARTESIAN_POINT('',(-0.0400909987552516,6.39987442937897,0.0));
#375=CARTESIAN_POINT('',(4.34700608320455,13.6802163989199,0.0));
#376=CARTESIAN_POINT('',(-0.0400909987552516,6.39987442937897,24.0));
#377=CARTESIAN_POINT('',(4.03579907453875,13.1637716054546,24.0));
#378=CARTESIAN_POINT('',(4.34700608320455,13.6802163989199,0.0));
#379=CARTESIAN_POINT('',(-0.0400909987552516,6.39987442937897,0.0));
#380=CARTESIAN_POINT('',(-5.97557528611263,-3.45,0.0));
#381=CARTESIAN_POINT('',(14.0209179723354,-3.07549050099937,0.0));
#382=CARTESIAN_POINT('',(-5.97557528611263,-3.45,24.0));
#383=CARTESIAN_POINT('',(13.4180601572094,-3.08678127960707,24.0));
#384=CARTESIAN_POINT('',(14.0209179723354,-3.07549050099937,8.71096009180893E-17));
#385=CARTESIAN_POINT('',(-5.97557528611263,-3.45,0.0));
#386=CARTESIAN_POINT('',(5.522408337495,-3.23465703807463,0.0));
#387=CARTESIAN_POINT('',(9.58829702338366,-10.6991429007421,0.0));
#388=CARTESIAN_POINT('',(5.522408337495,-3.23465703807463,24.0));
#389=CARTESIAN_POINT('',(9.29987553831857,-10.1696355127927,24.0));
#390=CARTESIAN_POINT('',(9.58829702338366,-10.6991429007421,0.0));
#391=CARTESIAN_POINT('',(5.522408337495,-3.23465703807463,0.0));
#392=CARTESIAN_POINT('',(3.04217367114143,-12.4028516879828,19.8));
#393=CARTESIAN_POINT('',(3.01536690869658,-12.3714515455493,21.2000133982658));
#394=CARTESIAN_POINT('',(2.98779256558135,-12.3401358046305,22.600014237919));
#395=CARTESIAN_POINT('',(2.95939263898617,-12.30890445946,24.0));
#396=CARTESIAN_POINT('',(3.04217367114143,-12.4028516879828,19.8));
#397=CARTESIAN_POINT('',(2.95939263898617,-12.30890445946,24.0));
#398=CARTESIAN_POINT('',(0.0215001154103373,6.86435324671078,19.8));
#399=CARTESIAN_POINT('',(-3.03706002783089,-12.39687372812,19.8));
#400=CARTESIAN_POINT('',(-2.95409439161902,-12.303089485095,24.0));
#401=CARTESIAN_POINT('',(-2.98255568535731,-12.3342649162952,22.600014237919));
#402=CARTESIAN_POINT('',(-3.01019156319168,-12.365526366739,21.2000133982658));
#403=CARTESIAN_POINT('',(-3.03706002783089,-12.39687372812,19.8));
#404=CARTESIAN_POINT('',(-2.95409439161902,-12.303089485095,24.0));
#405=CARTESIAN_POINT('',(0.0215001154103373,6.86435324671078,24.0));
#406=CARTESIAN_POINT('',(-9.36339789043387,-10.1111795274681,24.0));
#407=CARTESIAN_POINT('',(-9.65513066655617,-10.6388697910471,0.0));
#408=CARTESIAN_POINT('',(-9.65513066655617,-10.6388697910471,0.0));
#409=CARTESIAN_POINT('',(0.0215001154103373,6.86435324671078,0.0));
#410=CARTESIAN_POINT('',(0.0215001154103373,6.86435324671078,24.0));
#411=CARTESIAN_POINT('',(0.0215001154103373,6.86435324671078,0.0));
#412=CARTESIAN_POINT('',(-5.54256258422041,-3.2,0.0));
#413=CARTESIAN_POINT('',(-5.54256258422041,-3.2,24.0));
#414=CARTESIAN_POINT('',(-5.54256258422041,-3.2,0.0));
#415=CARTESIAN_POINT('',(0.0,-15.0,24.0));
#416=CARTESIAN_POINT('',(2.95768167557582,1.49315872607661,24.0));
#417=CARTESIAN_POINT('',(0.0,-15.0,19.8));
#418=CARTESIAN_POINT('',(0.0,-15.0,19.8));
#419=CARTESIAN_POINT('',(0.0,-15.0,24.0));
#420=CARTESIAN_POINT('',(0.0,0.0,0.0));
#421=CARTESIAN_POINT('',(20.0,0.0,0.0));
#422=CARTESIAN_POINT('',(0.0,-20.0,0.0));
#423=CARTESIAN_POINT('',(0.0,0.0,-49.0));
#424=CARTESIAN_POINT('',(7.7,0.0,-49.0));
#425=CARTESIAN_POINT('',(0.0,0.0,-49.0));
#426=CARTESIAN_POINT('',(0.0,0.0,-27.1324100067976));
#427=CARTESIAN_POINT('',(7.7,0.0,-27.1324100067976));
#428=CARTESIAN_POINT('',(0.0,0.0,-49.0));
#429=CARTESIAN_POINT('',(0.0,0.0,-22.3027808753523));
#430=CARTESIAN_POINT('',(11.4059047744873,0.0,-22.3027808753523));
#431=CARTESIAN_POINT('',(0.0,0.0,-27.1324100067976));
#432=CARTESIAN_POINT('',(0.0,0.0,-20.0));
#433=CARTESIAN_POINT('',(20.0,0.0,-20.0));
#434=CARTESIAN_POINT('',(0.0,0.0,-22.3027808753523));
#435=CARTESIAN_POINT('',(0.0,0.0,-49.0));
#436=MECHANICAL_DESIGN_GEOMETRIC_PRESENTATION_REPRESENTATION('',(#24),#437);
#437=(GEOMETRIC_REPRESENTATION_CONTEXT(3)GLOBAL_UNCERTAINTY_ASSIGNED_CONTEXT((#438))
     GLOBAL_UNIT_ASSIGNED_CONTEXT((#444,#440,#439))REPRESENTATION_CONTEXT('C4-391',
     'TOP_LEVEL_ASSEMBLY_PART'));
#438=UNCERTAINTY_MEASURE_WITH_UNIT(LENGTH_MEASURE(2.0E-5),#444,'DISTANCE_ACCURACY_VALUE',
     'Maximum Tolerance applied to model');
#439=(NAMED_UNIT(*)SI_UNIT($,.STERADIAN.)SOLID_ANGLE_UNIT());
#440=(CONVERSION_BASED_UNIT('DEGREE',#442)NAMED_UNIT(*)PLANE_ANGLE_UNIT());
#441=DIMENSIONAL_EXPONENTS(0.0,0.0,0.0,0.0,0.0,0.0,0.0);
#442=PLANE_ANGLE_MEASURE_WITH_UNIT(PLANE_ANGLE_MEASURE(0.0174532925),#443);
#443=(NAMED_UNIT(*)PLANE_ANGLE_UNIT()SI_UNIT($,.RADIAN.));
#444=(LENGTH_UNIT()NAMED_UNIT(*)SI_UNIT(.MILLI.,.METRE.));
#445=CARTESIAN_POINT('',(0.0,0.0,0.0));
#446=DIRECTION('',(0.0,0.0,1.0));
#447=DIRECTION('',(1.0,0.0,0.0));
#448=AXIS2_PLACEMENT_3D('PCS',#445,#446,#447);
#449=CARTESIAN_POINT('',(0.0,0.0,0.0));
#450=DIRECTION('',(0.0,0.0,1.0));
#451=DIRECTION('',(1.0,0.0,0.0));
#452=AXIS2_PLACEMENT_3D('MCS',#449,#450,#451);
#453=CARTESIAN_POINT('',(0.0,0.0,-49.0));
#454=DIRECTION('',(0.0,0.0,1.0));
#455=DIRECTION('',(1.0,0.0,0.0));
#456=AXIS2_PLACEMENT_3D('CSW',#453,#454,#455);
#457=CONSTRUCTIVE_GEOMETRY_REPRESENTATION('supplemental geometry',(#448,#452,#456),
     #437);
#458=CONSTRUCTIVE_GEOMETRY_REPRESENTATION_RELATIONSHIP('supplemental geometry',$,
     #22,#457);
ENDSEC;
END-ISO-10303-21;
