ISO-10303-21;
HEADER;
FILE_DESCRIPTION(
/* description */ ('3-D model version:1'),
/* implementation_level */ '2;1');
FILE_NAME(
/* name */ 'C4-391.EH-10026',
/* time_stamp */ '2016-12-02T13:56:13',
/* author */ ('InteractiveCad'),
/* organization */ ('AB Sandvik Coromant'),
/* preprocessor_version */ 'ST-DEVELOPER v11',
/* originating_system */ 'SIEMENS UGS NX 6.0',
/* authorization */ '');
FILE_SCHEMA(('AUTOMOTIVE_DESIGN'));
ENDSEC;
DATA;
#10=SHAPE_REPRESENTATION_RELATIONSHIP('None','relationship between ds680184tkpz-None and ds680184tkpz-None',
     #22,#11);
#11=ADVANCED_BREP_SHAPE_REPRESENTATION('ds680184tkpz-None',(#32),#437);
#12=SHAPE_DEFINITION_REPRESENTATION(#13,#22);
#13=PRODUCT_DEFINITION_SHAPE('','',#14);
#14=PRODUCT_DEFINITION(' ','',#16,#15);
#15=PRODUCT_DEFINITION_CONTEXT('part definition',#21,'design');
#16=PRODUCT_DEFINITION_FORMATION_WITH_SPECIFIED_SOURCE(' ',' ',#18,.NOT_KNOWN.);
#17=PRODUCT_RELATED_PRODUCT_CATEGORY('part','',(#18));
#18=PRODUCT('ds680184tkpz','ds680184tkpz',' ',(#19));
#19=PRODUCT_CONTEXT(' ',#21,'mechanical');
#20=APPLICATION_PROTOCOL_DEFINITION('international standard','automotive_design',
     2001,#21);
#21=APPLICATION_CONTEXT('core data for automotive mechanical design processes');
#22=SHAPE_REPRESENTATION('ds680184tkpz-None',(#247),#437);
#23=PRESENTATION_LAYER_ASSIGNMENT('1','Layer 1',(#32));
#24=STYLED_ITEM('',(#25),#32);
#25=PRESENTATION_STYLE_ASSIGNMENT((#26));
#26=SURFACE_STYLE_USAGE(.BOTH.,#27);
#27=SURFACE_SIDE_STYLE('',(#28));
#28=SURFACE_STYLE_FILL_AREA(#29);
#29=FILL_AREA_STYLE('',(#30));
#30=FILL_AREA_STYLE_COLOUR('',#31);
#31=COLOUR_RGB('Medium Gray',0.490196078431373,0.490196078431373,0.490196078431373);
#32=MANIFOLD_SOLID_BREP('NOCUT',#33);
#33=CLOSED_SHELL('',(#68,#69,#70,#71,#72,#73,#74,#75,#76,#77,#78,#79,#80,#81,#82));
#34=B_SPLINE_CURVE_WITH_KNOTS('',3,(#411,#412,#413,#414),.UNSPECIFIED.,.F.,.F.,
     (4,4),(0.0,1.0),.UNSPECIFIED.);
#35=B_SPLINE_CURVE_WITH_KNOTS('',3,(#419,#420,#421,#422),.UNSPECIFIED.,.F.,.F.,
     (4,4),(0.0,1.0),.UNSPECIFIED.);
#36=CONICAL_SURFACE('',#266,20.0,1.43916666666667);
#37=CONICAL_SURFACE('',#268,8.5,1.43916666666667);
#38=CONICAL_SURFACE('',#270,20.0,1.43916666666667);
#39=CONICAL_SURFACE('',#272,8.5,1.43916666666667);
#40=CONICAL_SURFACE('',#276,20.0,1.43916666666667);
#41=CONICAL_SURFACE('',#278,8.5,1.43916666666667);
#42=LINE('',#393,#48);
#43=LINE('',#397,#49);
#44=LINE('',#401,#50);
#45=LINE('',#405,#51);
#46=LINE('',#409,#52);
#47=LINE('',#426,#53);
#48=VECTOR('',#320,1.0);
#49=VECTOR('',#323,1.0);
#50=VECTOR('',#328,1.0);
#51=VECTOR('',#333,1.0);
#52=VECTOR('',#338,1.0);
#53=VECTOR('',#345,1.0);
#54=TOROIDAL_SURFACE('',#253,9.8,5.0);
#55=CYLINDRICAL_SURFACE('',#251,4.8);
#56=CYLINDRICAL_SURFACE('',#257,20.0);
#57=CYLINDRICAL_SURFACE('',#283,4.0);
#58=FACE_BOUND('',#99,.T.);
#59=FACE_BOUND('',#100,.T.);
#60=FACE_BOUND('',#101,.T.);
#61=FACE_BOUND('',#102,.T.);
#62=FACE_BOUND('',#103,.T.);
#63=FACE_BOUND('',#104,.T.);
#64=FACE_BOUND('',#105,.T.);
#65=FACE_BOUND('',#106,.T.);
#66=FACE_BOUND('',#107,.T.);
#67=FACE_BOUND('',#108,.T.);
#68=ADVANCED_FACE('',(#88),#83,.F.);
#69=ADVANCED_FACE('',(#58,#59),#55,.T.);
#70=ADVANCED_FACE('',(#60,#61),#54,.F.);
#71=ADVANCED_FACE('',(#62,#63),#84,.F.);
#72=ADVANCED_FACE('',(#64,#65),#56,.T.);
#73=ADVANCED_FACE('',(#66,#67),#85,.F.);
#74=ADVANCED_FACE('',(#89),#36,.T.);
#75=ADVANCED_FACE('',(#90),#37,.T.);
#76=ADVANCED_FACE('',(#91),#38,.T.);
#77=ADVANCED_FACE('',(#92),#39,.T.);
#78=ADVANCED_FACE('',(#93),#40,.T.);
#79=ADVANCED_FACE('',(#94),#41,.T.);
#80=ADVANCED_FACE('',(#95),#86,.F.);
#81=ADVANCED_FACE('',(#96),#87,.F.);
#82=ADVANCED_FACE('',(#97),#57,.F.);
#83=PLANE('',#249);
#84=PLANE('',#255);
#85=PLANE('',#264);
#86=PLANE('',#280);
#87=PLANE('',#282);
#88=FACE_OUTER_BOUND('',#98,.T.);
#89=FACE_OUTER_BOUND('',#109,.T.);
#90=FACE_OUTER_BOUND('',#110,.T.);
#91=FACE_OUTER_BOUND('',#111,.T.);
#92=FACE_OUTER_BOUND('',#112,.T.);
#93=FACE_OUTER_BOUND('',#113,.T.);
#94=FACE_OUTER_BOUND('',#114,.T.);
#95=FACE_OUTER_BOUND('',#115,.T.);
#96=FACE_OUTER_BOUND('',#116,.T.);
#97=FACE_OUTER_BOUND('',#117,.T.);
#98=EDGE_LOOP('',(#118));
#99=EDGE_LOOP('',(#119));
#100=EDGE_LOOP('',(#120));
#101=EDGE_LOOP('',(#121));
#102=EDGE_LOOP('',(#122));
#103=EDGE_LOOP('',(#123));
#104=EDGE_LOOP('',(#124));
#105=EDGE_LOOP('',(#125));
#106=EDGE_LOOP('',(#126));
#107=EDGE_LOOP('',(#127,#128,#129,#130,#131,#132));
#108=EDGE_LOOP('',(#133));
#109=EDGE_LOOP('',(#134,#135,#136,#137));
#110=EDGE_LOOP('',(#138,#139,#140,#141));
#111=EDGE_LOOP('',(#142,#143,#144,#145));
#112=EDGE_LOOP('',(#146,#147,#148,#149));
#113=EDGE_LOOP('',(#150,#151,#152,#153,#154,#155,#156,#157));
#114=EDGE_LOOP('',(#158,#159,#160,#161));
#115=EDGE_LOOP('',(#162,#163,#164,#165,#166,#167,#168,#169));
#116=EDGE_LOOP('',(#170,#171));
#117=EDGE_LOOP('',(#172,#173,#174,#175));
#118=ORIENTED_EDGE('',*,*,#197,.F.);
#119=ORIENTED_EDGE('',*,*,#198,.F.);
#120=ORIENTED_EDGE('',*,*,#197,.T.);
#121=ORIENTED_EDGE('',*,*,#199,.F.);
#122=ORIENTED_EDGE('',*,*,#198,.T.);
#123=ORIENTED_EDGE('',*,*,#200,.F.);
#124=ORIENTED_EDGE('',*,*,#199,.T.);
#125=ORIENTED_EDGE('',*,*,#201,.F.);
#126=ORIENTED_EDGE('',*,*,#200,.T.);
#127=ORIENTED_EDGE('',*,*,#202,.T.);
#128=ORIENTED_EDGE('',*,*,#203,.T.);
#129=ORIENTED_EDGE('',*,*,#204,.T.);
#130=ORIENTED_EDGE('',*,*,#205,.T.);
#131=ORIENTED_EDGE('',*,*,#206,.T.);
#132=ORIENTED_EDGE('',*,*,#207,.T.);
#133=ORIENTED_EDGE('',*,*,#201,.T.);
#134=ORIENTED_EDGE('',*,*,#205,.F.);
#135=ORIENTED_EDGE('',*,*,#208,.F.);
#136=ORIENTED_EDGE('',*,*,#209,.T.);
#137=ORIENTED_EDGE('',*,*,#210,.T.);
#138=ORIENTED_EDGE('',*,*,#206,.F.);
#139=ORIENTED_EDGE('',*,*,#210,.F.);
#140=ORIENTED_EDGE('',*,*,#211,.T.);
#141=ORIENTED_EDGE('',*,*,#212,.T.);
#142=ORIENTED_EDGE('',*,*,#207,.F.);
#143=ORIENTED_EDGE('',*,*,#212,.F.);
#144=ORIENTED_EDGE('',*,*,#213,.T.);
#145=ORIENTED_EDGE('',*,*,#214,.T.);
#146=ORIENTED_EDGE('',*,*,#202,.F.);
#147=ORIENTED_EDGE('',*,*,#214,.F.);
#148=ORIENTED_EDGE('',*,*,#215,.T.);
#149=ORIENTED_EDGE('',*,*,#216,.T.);
#150=ORIENTED_EDGE('',*,*,#217,.F.);
#151=ORIENTED_EDGE('',*,*,#218,.F.);
#152=ORIENTED_EDGE('',*,*,#219,.F.);
#153=ORIENTED_EDGE('',*,*,#220,.T.);
#154=ORIENTED_EDGE('',*,*,#221,.T.);
#155=ORIENTED_EDGE('',*,*,#203,.F.);
#156=ORIENTED_EDGE('',*,*,#216,.F.);
#157=ORIENTED_EDGE('',*,*,#222,.T.);
#158=ORIENTED_EDGE('',*,*,#204,.F.);
#159=ORIENTED_EDGE('',*,*,#221,.F.);
#160=ORIENTED_EDGE('',*,*,#223,.T.);
#161=ORIENTED_EDGE('',*,*,#208,.T.);
#162=ORIENTED_EDGE('',*,*,#220,.F.);
#163=ORIENTED_EDGE('',*,*,#224,.T.);
#164=ORIENTED_EDGE('',*,*,#222,.F.);
#165=ORIENTED_EDGE('',*,*,#215,.F.);
#166=ORIENTED_EDGE('',*,*,#213,.F.);
#167=ORIENTED_EDGE('',*,*,#211,.F.);
#168=ORIENTED_EDGE('',*,*,#209,.F.);
#169=ORIENTED_EDGE('',*,*,#223,.F.);
#170=ORIENTED_EDGE('',*,*,#218,.T.);
#171=ORIENTED_EDGE('',*,*,#225,.F.);
#172=ORIENTED_EDGE('',*,*,#217,.T.);
#173=ORIENTED_EDGE('',*,*,#224,.F.);
#174=ORIENTED_EDGE('',*,*,#219,.T.);
#175=ORIENTED_EDGE('',*,*,#225,.T.);
#176=VERTEX_POINT('',#366);
#177=VERTEX_POINT('',#369);
#178=VERTEX_POINT('',#372);
#179=VERTEX_POINT('',#375);
#180=VERTEX_POINT('',#378);
#181=VERTEX_POINT('',#381);
#182=VERTEX_POINT('',#382);
#183=VERTEX_POINT('',#384);
#184=VERTEX_POINT('',#386);
#185=VERTEX_POINT('',#388);
#186=VERTEX_POINT('',#390);
#187=VERTEX_POINT('',#394);
#188=VERTEX_POINT('',#396);
#189=VERTEX_POINT('',#400);
#190=VERTEX_POINT('',#404);
#191=VERTEX_POINT('',#408);
#192=VERTEX_POINT('',#415);
#193=VERTEX_POINT('',#416);
#194=VERTEX_POINT('',#418);
#195=VERTEX_POINT('',#423);
#196=VERTEX_POINT('',#425);
#197=EDGE_CURVE('',#176,#176,#226,.T.);
#198=EDGE_CURVE('',#177,#177,#227,.T.);
#199=EDGE_CURVE('',#178,#178,#228,.T.);
#200=EDGE_CURVE('',#179,#179,#229,.T.);
#201=EDGE_CURVE('',#180,#180,#230,.T.);
#202=EDGE_CURVE('',#181,#182,#231,.T.);
#203=EDGE_CURVE('',#182,#183,#232,.T.);
#204=EDGE_CURVE('',#183,#184,#233,.T.);
#205=EDGE_CURVE('',#184,#185,#234,.T.);
#206=EDGE_CURVE('',#185,#186,#235,.T.);
#207=EDGE_CURVE('',#186,#181,#236,.T.);
#208=EDGE_CURVE('',#187,#184,#42,.T.);
#209=EDGE_CURVE('',#187,#188,#237,.T.);
#210=EDGE_CURVE('',#188,#185,#43,.T.);
#211=EDGE_CURVE('',#188,#189,#238,.T.);
#212=EDGE_CURVE('',#189,#186,#44,.T.);
#213=EDGE_CURVE('',#189,#190,#239,.T.);
#214=EDGE_CURVE('',#190,#181,#45,.T.);
#215=EDGE_CURVE('',#190,#191,#240,.T.);
#216=EDGE_CURVE('',#191,#182,#46,.T.);
#217=EDGE_CURVE('',#192,#193,#34,.T.);
#218=EDGE_CURVE('',#194,#192,#241,.T.);
#219=EDGE_CURVE('',#195,#194,#35,.T.);
#220=EDGE_CURVE('',#195,#196,#242,.T.);
#221=EDGE_CURVE('',#196,#183,#47,.T.);
#222=EDGE_CURVE('',#191,#193,#243,.T.);
#223=EDGE_CURVE('',#196,#187,#244,.T.);
#224=EDGE_CURVE('',#195,#193,#245,.T.);
#225=EDGE_CURVE('',#194,#192,#246,.T.);
#226=CIRCLE('',#248,4.8);
#227=CIRCLE('',#250,4.8);
#228=CIRCLE('',#252,9.8);
#229=CIRCLE('',#254,20.0);
#230=CIRCLE('',#256,20.0);
#231=CIRCLE('',#258,8.5);
#232=CIRCLE('',#259,20.0);
#233=CIRCLE('',#260,8.5);
#234=CIRCLE('',#261,20.0);
#235=CIRCLE('',#262,8.5);
#236=CIRCLE('',#263,20.0);
#237=CIRCLE('',#265,19.3970364630094);
#238=CIRCLE('',#267,7.89703646300946);
#239=CIRCLE('',#269,19.3970364630094);
#240=CIRCLE('',#271,7.89703646300946);
#241=CIRCLE('',#273,19.5025550819828);
#242=CIRCLE('',#274,19.3970364630094);
#243=CIRCLE('',#275,19.3970364630094);
#244=CIRCLE('',#277,7.89703646300946);
#245=CIRCLE('',#279,4.0);
#246=CIRCLE('',#281,4.0);
#247=AXIS2_PLACEMENT_3D('',#364,#284,#285);
#248=AXIS2_PLACEMENT_3D('',#365,#286,#287);
#249=AXIS2_PLACEMENT_3D('',#367,#288,#289);
#250=AXIS2_PLACEMENT_3D('',#368,#290,#291);
#251=AXIS2_PLACEMENT_3D('',#370,#292,#293);
#252=AXIS2_PLACEMENT_3D('',#371,#294,#295);
#253=AXIS2_PLACEMENT_3D('',#373,#296,#297);
#254=AXIS2_PLACEMENT_3D('',#374,#298,#299);
#255=AXIS2_PLACEMENT_3D('',#376,#300,#301);
#256=AXIS2_PLACEMENT_3D('',#377,#302,#303);
#257=AXIS2_PLACEMENT_3D('',#379,#304,#305);
#258=AXIS2_PLACEMENT_3D('',#380,#306,#307);
#259=AXIS2_PLACEMENT_3D('',#383,#308,#309);
#260=AXIS2_PLACEMENT_3D('',#385,#310,#311);
#261=AXIS2_PLACEMENT_3D('',#387,#312,#313);
#262=AXIS2_PLACEMENT_3D('',#389,#314,#315);
#263=AXIS2_PLACEMENT_3D('',#391,#316,#317);
#264=AXIS2_PLACEMENT_3D('',#392,#318,#319);
#265=AXIS2_PLACEMENT_3D('',#395,#321,#322);
#266=AXIS2_PLACEMENT_3D('',#398,#324,#325);
#267=AXIS2_PLACEMENT_3D('',#399,#326,#327);
#268=AXIS2_PLACEMENT_3D('',#402,#329,#330);
#269=AXIS2_PLACEMENT_3D('',#403,#331,#332);
#270=AXIS2_PLACEMENT_3D('',#406,#334,#335);
#271=AXIS2_PLACEMENT_3D('',#407,#336,#337);
#272=AXIS2_PLACEMENT_3D('',#410,#339,#340);
#273=AXIS2_PLACEMENT_3D('',#417,#341,#342);
#274=AXIS2_PLACEMENT_3D('',#424,#343,#344);
#275=AXIS2_PLACEMENT_3D('',#427,#346,#347);
#276=AXIS2_PLACEMENT_3D('',#428,#348,#349);
#277=AXIS2_PLACEMENT_3D('',#429,#350,#351);
#278=AXIS2_PLACEMENT_3D('',#430,#352,#353);
#279=AXIS2_PLACEMENT_3D('',#431,#354,#355);
#280=AXIS2_PLACEMENT_3D('',#432,#356,#357);
#281=AXIS2_PLACEMENT_3D('',#433,#358,#359);
#282=AXIS2_PLACEMENT_3D('',#434,#360,#361);
#283=AXIS2_PLACEMENT_3D('',#435,#362,#363);
#284=DIRECTION('',(0.0,0.0,1.0));
#285=DIRECTION('',(1.0,0.0,0.0));
#286=DIRECTION('',(0.0,0.0,1.0));
#287=DIRECTION('',(1.0,0.0,0.0));
#288=DIRECTION('',(0.0,0.0,1.0));
#289=DIRECTION('',(1.0,0.0,0.0));
#290=DIRECTION('',(0.0,0.0,1.0));
#291=DIRECTION('',(1.0,0.0,0.0));
#292=DIRECTION('',(0.0,0.0,1.0));
#293=DIRECTION('',(1.0,0.0,0.0));
#294=DIRECTION('',(0.0,0.0,1.0));
#295=DIRECTION('',(1.0,0.0,0.0));
#296=DIRECTION('',(0.0,0.0,1.0));
#297=DIRECTION('',(1.0,0.0,0.0));
#298=DIRECTION('',(0.0,0.0,1.0));
#299=DIRECTION('',(1.0,0.0,0.0));
#300=DIRECTION('',(0.0,0.0,1.0));
#301=DIRECTION('',(1.0,0.0,0.0));
#302=DIRECTION('',(0.0,0.0,1.0));
#303=DIRECTION('',(1.0,0.0,0.0));
#304=DIRECTION('',(0.0,0.0,1.0));
#305=DIRECTION('',(1.0,0.0,0.0));
#306=DIRECTION('',(0.0,0.0,-1.0));
#307=DIRECTION('',(-1.0,0.0,0.0));
#308=DIRECTION('',(0.0,0.0,-1.0));
#309=DIRECTION('',(-1.0,0.0,0.0));
#310=DIRECTION('',(0.0,0.0,-1.0));
#311=DIRECTION('',(-1.0,0.0,0.0));
#312=DIRECTION('',(0.0,0.0,-1.0));
#313=DIRECTION('',(-1.0,0.0,0.0));
#314=DIRECTION('',(0.0,0.0,-1.0));
#315=DIRECTION('',(-1.0,0.0,0.0));
#316=DIRECTION('',(0.0,0.0,-1.0));
#317=DIRECTION('',(-1.0,0.0,0.0));
#318=DIRECTION('',(0.0,0.0,-1.0));
#319=DIRECTION('',(-1.0,0.0,0.0));
#320=DIRECTION('',(-0.0251112246842899,4.66400186113526E-4,-0.999684554679986));
#321=DIRECTION('',(0.0,0.0,-1.0));
#322=DIRECTION('',(-1.0,0.0,0.0));
#323=DIRECTION('',(-0.0130940393650178,0.0214321549869783,-0.999684554679986));
#324=DIRECTION('',(0.0,0.0,-1.0));
#325=DIRECTION('',(-1.0,0.0,0.0));
#326=DIRECTION('',(0.0,0.0,-1.0));
#327=DIRECTION('',(-1.0,0.0,0.0));
#328=DIRECTION('',(0.0129628683279737,0.0215117451405068,-0.999684554679986));
#329=DIRECTION('',(0.0,0.0,-1.0));
#330=DIRECTION('',(-1.0,0.0,0.0));
#331=DIRECTION('',(0.0,0.0,-1.0));
#332=DIRECTION('',(-1.0,0.0,0.0));
#333=DIRECTION('',(0.0251111519354021,4.70300707684483E-4,-0.999684554679986));
#334=DIRECTION('',(0.0,0.0,-1.0));
#335=DIRECTION('',(-1.0,0.0,0.0));
#336=DIRECTION('',(0.0,0.0,-1.0));
#337=DIRECTION('',(-1.0,0.0,0.0));
#338=DIRECTION('',(0.0120137709940597,-0.0220558482217481,-0.999684554679986));
#339=DIRECTION('',(0.0,0.0,-1.0));
#340=DIRECTION('',(-1.0,0.0,0.0));
#341=DIRECTION('',(0.0,0.0,1.0));
#342=DIRECTION('',(-1.0,0.0,0.0));
#343=DIRECTION('',(0.0,0.0,-1.0));
#344=DIRECTION('',(-1.0,0.0,0.0));
#345=DIRECTION('',(-0.0121516979326409,-0.0219801585897907,-0.999684554679986));
#346=DIRECTION('',(0.0,0.0,-1.0));
#347=DIRECTION('',(-1.0,0.0,0.0));
#348=DIRECTION('',(0.0,0.0,-1.0));
#349=DIRECTION('',(-1.0,0.0,0.0));
#350=DIRECTION('',(0.0,0.0,-1.0));
#351=DIRECTION('',(-1.0,0.0,0.0));
#352=DIRECTION('',(0.0,0.0,-1.0));
#353=DIRECTION('',(-1.0,0.0,0.0));
#354=DIRECTION('',(0.0,0.0,-1.0));
#355=DIRECTION('',(-1.0,0.0,0.0));
#356=DIRECTION('',(0.0,0.0,-1.0));
#357=DIRECTION('',(-1.0,0.0,0.0));
#358=DIRECTION('',(0.0,0.0,-1.0));
#359=DIRECTION('',(-1.0,0.0,0.0));
#360=DIRECTION('',(0.0,0.0,-1.0));
#361=DIRECTION('',(-1.0,0.0,0.0));
#362=DIRECTION('',(0.0,0.0,-1.0));
#363=DIRECTION('',(-1.0,0.0,0.0));
#364=CARTESIAN_POINT('',(0.0,0.0,0.0));
#365=CARTESIAN_POINT('',(0.0,0.0,-26.0));
#366=CARTESIAN_POINT('',(4.8,0.0,-26.0));
#367=CARTESIAN_POINT('',(0.0,0.0,-26.0));
#368=CARTESIAN_POINT('',(0.0,0.0,-13.0));
#369=CARTESIAN_POINT('',(4.8,0.0,-13.0));
#370=CARTESIAN_POINT('',(0.0,0.0,-26.0));
#371=CARTESIAN_POINT('',(0.0,0.0,-8.0));
#372=CARTESIAN_POINT('',(9.8,0.0,-8.0));
#373=CARTESIAN_POINT('',(0.0,0.0,-13.0));
#374=CARTESIAN_POINT('',(0.0,0.0,-8.0));
#375=CARTESIAN_POINT('',(20.0,0.0,-8.0));
#376=CARTESIAN_POINT('',(0.0,-9.8,-8.0));
#377=CARTESIAN_POINT('',(0.0,0.0,0.0));
#378=CARTESIAN_POINT('',(20.0,0.0,0.0));
#379=CARTESIAN_POINT('',(0.0,0.0,-26.0));
#380=CARTESIAN_POINT('',(5.522408337495,-3.23465703807463,0.0));
#381=CARTESIAN_POINT('',(14.0209179723354,-3.07549050099937,0.0));
#382=CARTESIAN_POINT('',(9.58829702338366,-10.6991429007421,0.0));
#383=CARTESIAN_POINT('',(0.0215001154103373,6.86435324671078,0.0));
#384=CARTESIAN_POINT('',(-9.65513066655617,-10.6388697910471,0.0));
#385=CARTESIAN_POINT('',(-5.54256258422041,-3.2,0.0));
#386=CARTESIAN_POINT('',(-14.0410968398797,-3.04215353857228,0.0));
#387=CARTESIAN_POINT('',(5.95545434990689,-3.41355697722574,0.0));
#388=CARTESIAN_POINT('',(-4.47158103907076,13.653280251652,0.0));
#389=CARTESIAN_POINT('',(-0.0400909987552516,6.39987442937897,0.0));
#390=CARTESIAN_POINT('',(4.34700608320455,13.6802163989199,0.0));
#391=CARTESIAN_POINT('',(-5.97557528611263,-3.45,0.0));
#392=CARTESIAN_POINT('',(0.0,-20.0,0.0));
#393=CARTESIAN_POINT('',(-14.0410968398797,-3.04215353857228,-1.30664401377134E-16));
#394=CARTESIAN_POINT('',(-13.4382372782294,-3.05335067512333,24.0));
#395=CARTESIAN_POINT('',(5.95545434990689,-3.41355697722574,24.0));
#396=CARTESIAN_POINT('',(-4.15722493214758,13.1387462246137,24.0));
#397=CARTESIAN_POINT('',(-4.47158103907076,13.653280251652,0.0));
#398=CARTESIAN_POINT('',(5.95545434990689,-3.41355697722574,0.0));
#399=CARTESIAN_POINT('',(-0.0400909987552516,6.39987442937897,24.0));
#400=CARTESIAN_POINT('',(4.03579907453875,13.1637716054546,24.0));
#401=CARTESIAN_POINT('',(4.34700608320455,13.6802163989199,0.0));
#402=CARTESIAN_POINT('',(-0.0400909987552516,6.39987442937897,0.0));
#403=CARTESIAN_POINT('',(-5.97557528611263,-3.45,24.0));
#404=CARTESIAN_POINT('',(13.4180601572094,-3.08678127960707,24.0));
#405=CARTESIAN_POINT('',(14.0209179723354,-3.07549050099937,8.71096009180893E-17));
#406=CARTESIAN_POINT('',(-5.97557528611263,-3.45,0.0));
#407=CARTESIAN_POINT('',(5.522408337495,-3.23465703807463,24.0));
#408=CARTESIAN_POINT('',(9.29987553831857,-10.1696355127927,24.0));
#409=CARTESIAN_POINT('',(9.58829702338366,-10.6991429007421,0.0));
#410=CARTESIAN_POINT('',(5.522408337495,-3.23465703807463,0.0));
#411=CARTESIAN_POINT('',(3.04217367114143,-12.4028516879828,19.8));
#412=CARTESIAN_POINT('',(3.01536690869658,-12.3714515455493,21.2000133982658));
#413=CARTESIAN_POINT('',(2.98779256558135,-12.3401358046305,22.600014237919));
#414=CARTESIAN_POINT('',(2.95939263898617,-12.30890445946,24.0));
#415=CARTESIAN_POINT('',(3.04217367114143,-12.4028516879828,19.8));
#416=CARTESIAN_POINT('',(2.95939263898617,-12.30890445946,24.0));
#417=CARTESIAN_POINT('',(0.0215001154103373,6.86435324671078,19.8));
#418=CARTESIAN_POINT('',(-3.03706002783089,-12.39687372812,19.8));
#419=CARTESIAN_POINT('',(-2.95409439161902,-12.303089485095,24.0));
#420=CARTESIAN_POINT('',(-2.98255568535731,-12.3342649162952,22.600014237919));
#421=CARTESIAN_POINT('',(-3.01019156319168,-12.365526366739,21.2000133982658));
#422=CARTESIAN_POINT('',(-3.03706002783089,-12.39687372812,19.8));
#423=CARTESIAN_POINT('',(-2.95409439161902,-12.303089485095,24.0));
#424=CARTESIAN_POINT('',(0.0215001154103373,6.86435324671078,24.0));
#425=CARTESIAN_POINT('',(-9.36339789043387,-10.1111795274681,24.0));
#426=CARTESIAN_POINT('',(-9.65513066655617,-10.6388697910471,0.0));
#427=CARTESIAN_POINT('',(0.0215001154103373,6.86435324671078,24.0));
#428=CARTESIAN_POINT('',(0.0215001154103373,6.86435324671078,0.0));
#429=CARTESIAN_POINT('',(-5.54256258422041,-3.2,24.0));
#430=CARTESIAN_POINT('',(-5.54256258422041,-3.2,0.0));
#431=CARTESIAN_POINT('',(0.0,-15.0,24.0));
#432=CARTESIAN_POINT('',(2.95768167557582,1.49315872607661,24.0));
#433=CARTESIAN_POINT('',(0.0,-15.0,19.8));
#434=CARTESIAN_POINT('',(0.0,-15.0,19.8));
#435=CARTESIAN_POINT('',(0.0,-15.0,24.0));
#436=MECHANICAL_DESIGN_GEOMETRIC_PRESENTATION_REPRESENTATION('',(#24),#437);
#437=(GEOMETRIC_REPRESENTATION_CONTEXT(3)GLOBAL_UNCERTAINTY_ASSIGNED_CONTEXT((#438))
     GLOBAL_UNIT_ASSIGNED_CONTEXT((#444,#440,#439))REPRESENTATION_CONTEXT('C4-391',
     'TOP_LEVEL_ASSEMBLY_PART'));
#438=UNCERTAINTY_MEASURE_WITH_UNIT(LENGTH_MEASURE(2.0E-5),#444,'DISTANCE_ACCURACY_VALUE',
     'Maximum Tolerance applied to model');
#439=(NAMED_UNIT(*)SI_UNIT($,.STERADIAN.)SOLID_ANGLE_UNIT());
#440=(CONVERSION_BASED_UNIT('DEGREE',#442)NAMED_UNIT(*)PLANE_ANGLE_UNIT());
#441=DIMENSIONAL_EXPONENTS(0.0,0.0,0.0,0.0,0.0,0.0,0.0);
#442=PLANE_ANGLE_MEASURE_WITH_UNIT(PLANE_ANGLE_MEASURE(0.0174532925),#443);
#443=(NAMED_UNIT(*)PLANE_ANGLE_UNIT()SI_UNIT($,.RADIAN.));
#444=(LENGTH_UNIT()NAMED_UNIT(*)SI_UNIT(.MILLI.,.METRE.));
#445=CARTESIAN_POINT('',(0.0,0.0,0.0));
#446=DIRECTION('',(0.0,0.0,1.0));
#447=DIRECTION('',(1.0,0.0,0.0));
#448=AXIS2_PLACEMENT_3D('PCS',#445,#446,#447);
#449=CARTESIAN_POINT('',(0.0,0.0,0.0));
#450=DIRECTION('',(0.0,0.0,1.0));
#451=DIRECTION('',(1.0,0.0,0.0));
#452=AXIS2_PLACEMENT_3D('MCS',#449,#450,#451);
#453=CARTESIAN_POINT('',(0.0,0.0,-26.0));
#454=DIRECTION('',(0.0,0.0,1.0));
#455=DIRECTION('',(1.0,0.0,0.0));
#456=AXIS2_PLACEMENT_3D('CSW',#453,#454,#455);
#457=CONSTRUCTIVE_GEOMETRY_REPRESENTATION('supplemental geometry',(#448,#452,#456),
     #437);
#458=CONSTRUCTIVE_GEOMETRY_REPRESENTATION_RELATIONSHIP('supplemental geometry',$,
     #22,#457);
ENDSEC;
END-ISO-10303-21;
