ISO-10303-21;
HEADER;
/* Generated by software containing ST-Developer
 * from STEP Tools, Inc. (www.steptools.com) 
 */
/* OPTION: using custom schema-name function */

FILE_DESCRIPTION(
/* description */ (''),
/* implementation_level */ '2;1');

FILE_NAME(
/* name */ '2458_1_3d.stp',
/* time_stamp */ '2017-02-08T08:07:45+01:00',
/* author */ (''),
/* organization */ ('SMS'),
/* preprocessor_version */ 'ST-DEVELOPER v15',
/* originating_system */ 'SIEMENS PLM Software NX 8.5',
/* authorisation */ '');

FILE_SCHEMA (('AUTOMOTIVE_DESIGN { 1 0 10303 214 3 1 1 1 }'));
ENDSEC;

DATA;
#10=CONSTRUCTIVE_GEOMETRY_REPRESENTATION_RELATIONSHIP(
'supplemental geometry','',#24,#11);
#11=CONSTRUCTIVE_GEOMETRY_REPRESENTATION('supplemental geometry',(#428,
#429,#430),#728);
#12=SHAPE_REPRESENTATION_RELATIONSHIP('None',
'relationship between 2458_1_3D-None and 2458_1_3D-None',#24,#13);
#13=ADVANCED_BREP_SHAPE_REPRESENTATION('2458_1_3D-None',(#30),#728);
#14=SHAPE_DEFINITION_REPRESENTATION(#15,#24);
#15=PRODUCT_DEFINITION_SHAPE('','',#16);
#16=PRODUCT_DEFINITION(' ','',#18,#17);
#17=PRODUCT_DEFINITION_CONTEXT('part definition',#23,'design');
#18=PRODUCT_DEFINITION_FORMATION_WITH_SPECIFIED_SOURCE(' ',' ',#20,
 .NOT_KNOWN.);
#19=PRODUCT_RELATED_PRODUCT_CATEGORY('part','',(#20));
#20=PRODUCT('2458_1_3D','2458_1_3D',' ',(#21));
#21=PRODUCT_CONTEXT(' ',#23,'mechanical');
#22=APPLICATION_PROTOCOL_DEFINITION('international standard',
'automotive_design',2010,#23);
#23=APPLICATION_CONTEXT(
'core data for automotive mechanical design processes');
#24=SHAPE_REPRESENTATION('2458_1_3D-None',(#427),#728);
#25=SURFACE_STYLE_USAGE(.BOTH.,#26);
#26=SURFACE_SIDE_STYLE('',(#27));
#27=SURFACE_STYLE_FILL_AREA(#28);
#28=FILL_AREA_STYLE('',(#29));
#29=FILL_AREA_STYLE_COLOUR('',#423);
#30=MANIFOLD_SOLID_BREP('NOCUT',#31);
#31=CLOSED_SHELL('',(#83,#84,#85,#86,#87,#88,#89,#90,#91,#92,#93,#94,#95,
#96,#97,#98,#99,#100,#101,#102,#103,#104,#105,#106,#107,#108,#109));
#32=VERTEX_LOOP('',#318);
#33=CONICAL_SURFACE('',#447,22.225,30.0000000000006);
#34=CONICAL_SURFACE('',#450,12.6866004151403,8.29791666666663);
#35=CONICAL_SURFACE('',#458,12.,30.);
#36=CONICAL_SURFACE('',#462,7.,70.0000000000002);
#37=CONICAL_SURFACE('',#465,0.,70.);
#38=CONICAL_SURFACE('',#478,20.,45.000000000001);
#39=TOROIDAL_SURFACE('',#444,22.6,0.6);
#40=TOROIDAL_SURFACE('',#473,12.8,0.8);
#41=B_SPLINE_CURVE_WITH_KNOTS('',3,(#662,#663,#664,#665,#666,#667),
 .UNSPECIFIED.,.F.,.F.,(4,2,4),(0.,0.5,1.),.UNSPECIFIED.);
#42=B_SPLINE_CURVE_WITH_KNOTS('',3,(#668,#669,#670,#671,#672,#673),
 .UNSPECIFIED.,.F.,.F.,(4,2,4),(0.,0.5,1.),.UNSPECIFIED.);
#43=FACE_BOUND('',#136,.T.);
#44=FACE_BOUND('',#137,.T.);
#45=FACE_BOUND('',#138,.T.);
#46=FACE_BOUND('',#139,.T.);
#47=FACE_BOUND('',#140,.T.);
#48=FACE_BOUND('',#141,.T.);
#49=FACE_BOUND('',#142,.T.);
#50=FACE_BOUND('',#143,.T.);
#51=FACE_BOUND('',#144,.T.);
#52=FACE_BOUND('',#145,.T.);
#53=FACE_BOUND('',#146,.T.);
#54=FACE_BOUND('',#147,.T.);
#55=FACE_BOUND('',#148,.T.);
#56=FACE_BOUND('',#149,.T.);
#57=FACE_BOUND('',#150,.T.);
#58=FACE_BOUND('',#151,.T.);
#59=FACE_BOUND('',#152,.T.);
#60=FACE_BOUND('',#153,.T.);
#61=FACE_BOUND('',#154,.T.);
#62=FACE_BOUND('',#155,.T.);
#63=FACE_BOUND('',#156,.T.);
#64=FACE_BOUND('',#157,.T.);
#65=FACE_BOUND('',#158,.T.);
#66=FACE_BOUND('',#32,.T.);
#67=FACE_BOUND('',#159,.T.);
#68=FACE_BOUND('',#160,.T.);
#69=FACE_BOUND('',#167,.T.);
#70=FACE_BOUND('',#168,.T.);
#71=FACE_BOUND('',#170,.T.);
#72=FACE_BOUND('',#171,.T.);
#73=FACE_BOUND('',#172,.T.);
#74=FACE_BOUND('',#173,.T.);
#75=CYLINDRICAL_SURFACE('',#435,31.4);
#76=CYLINDRICAL_SURFACE('',#440,31.4);
#77=CYLINDRICAL_SURFACE('',#448,22.);
#78=CYLINDRICAL_SURFACE('',#456,12.);
#79=CYLINDRICAL_SURFACE('',#459,12.475);
#80=CYLINDRICAL_SURFACE('',#463,8.5);
#81=CYLINDRICAL_SURFACE('',#466,7.);
#82=CYLINDRICAL_SURFACE('',#477,20.);
#83=ADVANCED_FACE('',(#121),#110,.F.);
#84=ADVANCED_FACE('',(#122),#75,.T.);
#85=ADVANCED_FACE('',(#123),#111,.F.);
#86=ADVANCED_FACE('',(#124),#76,.T.);
#87=ADVANCED_FACE('',(#43,#44),#112,.F.);
#88=ADVANCED_FACE('',(#45,#46),#39,.F.);
#89=ADVANCED_FACE('',(#47,#48),#33,.T.);
#90=ADVANCED_FACE('',(#49,#50),#77,.T.);
#91=ADVANCED_FACE('',(#51,#52),#34,.T.);
#92=ADVANCED_FACE('',(#53,#54),#113,.T.);
#93=ADVANCED_FACE('',(#55,#56),#78,.T.);
#94=ADVANCED_FACE('',(#57,#58),#35,.T.);
#95=ADVANCED_FACE('',(#59,#60),#79,.T.);
#96=ADVANCED_FACE('',(#61,#62),#36,.F.);
#97=ADVANCED_FACE('',(#63,#64),#80,.F.);
#98=ADVANCED_FACE('',(#65,#66),#37,.F.);
#99=ADVANCED_FACE('',(#67,#68),#81,.F.);
#100=ADVANCED_FACE('',(#125),#114,.T.);
#101=ADVANCED_FACE('',(#126),#115,.T.);
#102=ADVANCED_FACE('',(#127),#116,.T.);
#103=ADVANCED_FACE('',(#128),#117,.F.);
#104=ADVANCED_FACE('',(#129),#118,.F.);
#105=ADVANCED_FACE('',(#130),#119,.F.);
#106=ADVANCED_FACE('',(#69,#70),#40,.F.);
#107=ADVANCED_FACE('AR_BY_CN_IB_SU_1',(#131),#120,.T.);
#108=ADVANCED_FACE('AR_BY_CN_IB_SU_3',(#71,#72),#82,.T.);
#109=ADVANCED_FACE('AR_BY_CN_IB_SU_2',(#73,#74),#38,.T.);
#110=PLANE('',#433);
#111=PLANE('',#438);
#112=PLANE('',#442);
#113=PLANE('',#453);
#114=PLANE('',#467);
#115=PLANE('',#468);
#116=PLANE('',#469);
#117=PLANE('',#470);
#118=PLANE('',#471);
#119=PLANE('',#472);
#120=PLANE('',#475);
#121=FACE_OUTER_BOUND('',#132,.T.);
#122=FACE_OUTER_BOUND('',#133,.T.);
#123=FACE_OUTER_BOUND('',#134,.T.);
#124=FACE_OUTER_BOUND('',#135,.T.);
#125=FACE_OUTER_BOUND('',#161,.T.);
#126=FACE_OUTER_BOUND('',#162,.T.);
#127=FACE_OUTER_BOUND('',#163,.T.);
#128=FACE_OUTER_BOUND('',#164,.T.);
#129=FACE_OUTER_BOUND('',#165,.T.);
#130=FACE_OUTER_BOUND('',#166,.T.);
#131=FACE_OUTER_BOUND('',#169,.T.);
#132=EDGE_LOOP('',(#195,#196,#197,#198,#199,#200));
#133=EDGE_LOOP('',(#201,#202,#203,#204));
#134=EDGE_LOOP('',(#205,#206,#207,#208,#209,#210));
#135=EDGE_LOOP('',(#211,#212,#213,#214));
#136=EDGE_LOOP('',(#215));
#137=EDGE_LOOP('',(#216,#217,#218,#219,#220,#221,#222,#223));
#138=EDGE_LOOP('',(#224));
#139=EDGE_LOOP('',(#225,#226,#227,#228));
#140=EDGE_LOOP('',(#229));
#141=EDGE_LOOP('',(#230));
#142=EDGE_LOOP('',(#231));
#143=EDGE_LOOP('',(#232));
#144=EDGE_LOOP('',(#233));
#145=EDGE_LOOP('',(#234));
#146=EDGE_LOOP('',(#235));
#147=EDGE_LOOP('',(#236));
#148=EDGE_LOOP('',(#237));
#149=EDGE_LOOP('',(#238));
#150=EDGE_LOOP('',(#239));
#151=EDGE_LOOP('',(#240));
#152=EDGE_LOOP('',(#241));
#153=EDGE_LOOP('',(#242));
#154=EDGE_LOOP('',(#243));
#155=EDGE_LOOP('',(#244));
#156=EDGE_LOOP('',(#245));
#157=EDGE_LOOP('',(#246));
#158=EDGE_LOOP('',(#247));
#159=EDGE_LOOP('',(#248));
#160=EDGE_LOOP('',(#249));
#161=EDGE_LOOP('',(#250,#251,#252,#253));
#162=EDGE_LOOP('',(#254,#255,#256,#257));
#163=EDGE_LOOP('',(#258,#259,#260,#261,#262,#263));
#164=EDGE_LOOP('',(#264,#265,#266,#267));
#165=EDGE_LOOP('',(#268,#269,#270,#271));
#166=EDGE_LOOP('',(#272,#273,#274,#275,#276,#277));
#167=EDGE_LOOP('',(#278));
#168=EDGE_LOOP('',(#279));
#169=EDGE_LOOP('',(#280));
#170=EDGE_LOOP('',(#281));
#171=EDGE_LOOP('',(#282));
#172=EDGE_LOOP('',(#283));
#173=EDGE_LOOP('',(#284));
#174=CIRCLE('',#431,22.6);
#175=CIRCLE('',#432,31.4);
#176=CIRCLE('',#434,31.4);
#177=CIRCLE('',#436,31.4);
#178=CIRCLE('',#437,22.6);
#179=CIRCLE('',#439,31.4);
#180=CIRCLE('',#441,20.);
#181=CIRCLE('',#443,22.);
#182=CIRCLE('',#445,22.);
#183=CIRCLE('',#446,22.225);
#184=CIRCLE('',#449,12.7126502440398);
#185=CIRCLE('',#451,12.475);
#186=CIRCLE('',#452,8.5);
#187=CIRCLE('',#454,12.);
#188=CIRCLE('',#455,12.);
#189=CIRCLE('',#457,12.475);
#190=CIRCLE('',#460,8.5);
#191=CIRCLE('',#461,7.);
#192=CIRCLE('',#464,7.);
#193=CIRCLE('',#474,19.7);
#194=CIRCLE('',#476,20.);
#195=ORIENTED_EDGE('',*,*,#321,.F.);
#196=ORIENTED_EDGE('',*,*,#322,.T.);
#197=ORIENTED_EDGE('',*,*,#323,.T.);
#198=ORIENTED_EDGE('',*,*,#324,.F.);
#199=ORIENTED_EDGE('',*,*,#325,.T.);
#200=ORIENTED_EDGE('',*,*,#326,.F.);
#201=ORIENTED_EDGE('',*,*,#327,.F.);
#202=ORIENTED_EDGE('',*,*,#328,.T.);
#203=ORIENTED_EDGE('',*,*,#326,.T.);
#204=ORIENTED_EDGE('',*,*,#329,.F.);
#205=ORIENTED_EDGE('',*,*,#330,.T.);
#206=ORIENTED_EDGE('',*,*,#331,.T.);
#207=ORIENTED_EDGE('',*,*,#332,.T.);
#208=ORIENTED_EDGE('',*,*,#333,.F.);
#209=ORIENTED_EDGE('',*,*,#334,.F.);
#210=ORIENTED_EDGE('',*,*,#335,.T.);
#211=ORIENTED_EDGE('',*,*,#332,.F.);
#212=ORIENTED_EDGE('',*,*,#336,.T.);
#213=ORIENTED_EDGE('',*,*,#337,.T.);
#214=ORIENTED_EDGE('',*,*,#338,.F.);
#215=ORIENTED_EDGE('',*,*,#339,.T.);
#216=ORIENTED_EDGE('',*,*,#340,.T.);
#217=ORIENTED_EDGE('',*,*,#341,.T.);
#218=ORIENTED_EDGE('',*,*,#327,.T.);
#219=ORIENTED_EDGE('',*,*,#342,.F.);
#220=ORIENTED_EDGE('',*,*,#343,.F.);
#221=ORIENTED_EDGE('',*,*,#344,.F.);
#222=ORIENTED_EDGE('',*,*,#337,.F.);
#223=ORIENTED_EDGE('',*,*,#345,.T.);
#224=ORIENTED_EDGE('',*,*,#346,.F.);
#225=ORIENTED_EDGE('',*,*,#323,.F.);
#226=ORIENTED_EDGE('',*,*,#347,.T.);
#227=ORIENTED_EDGE('',*,*,#335,.F.);
#228=ORIENTED_EDGE('',*,*,#348,.F.);
#229=ORIENTED_EDGE('',*,*,#349,.F.);
#230=ORIENTED_EDGE('',*,*,#350,.T.);
#231=ORIENTED_EDGE('',*,*,#346,.T.);
#232=ORIENTED_EDGE('',*,*,#349,.T.);
#233=ORIENTED_EDGE('',*,*,#351,.T.);
#234=ORIENTED_EDGE('',*,*,#350,.F.);
#235=ORIENTED_EDGE('',*,*,#352,.F.);
#236=ORIENTED_EDGE('',*,*,#353,.F.);
#237=ORIENTED_EDGE('',*,*,#354,.T.);
#238=ORIENTED_EDGE('',*,*,#355,.T.);
#239=ORIENTED_EDGE('',*,*,#356,.T.);
#240=ORIENTED_EDGE('',*,*,#355,.F.);
#241=ORIENTED_EDGE('',*,*,#352,.T.);
#242=ORIENTED_EDGE('',*,*,#356,.F.);
#243=ORIENTED_EDGE('',*,*,#357,.F.);
#244=ORIENTED_EDGE('',*,*,#358,.T.);
#245=ORIENTED_EDGE('',*,*,#353,.T.);
#246=ORIENTED_EDGE('',*,*,#357,.T.);
#247=ORIENTED_EDGE('',*,*,#359,.F.);
#248=ORIENTED_EDGE('',*,*,#358,.F.);
#249=ORIENTED_EDGE('',*,*,#359,.T.);
#250=ORIENTED_EDGE('',*,*,#342,.T.);
#251=ORIENTED_EDGE('',*,*,#329,.T.);
#252=ORIENTED_EDGE('',*,*,#325,.F.);
#253=ORIENTED_EDGE('',*,*,#360,.F.);
#254=ORIENTED_EDGE('',*,*,#344,.T.);
#255=ORIENTED_EDGE('',*,*,#361,.F.);
#256=ORIENTED_EDGE('',*,*,#333,.T.);
#257=ORIENTED_EDGE('',*,*,#338,.T.);
#258=ORIENTED_EDGE('',*,*,#343,.T.);
#259=ORIENTED_EDGE('',*,*,#360,.T.);
#260=ORIENTED_EDGE('',*,*,#324,.T.);
#261=ORIENTED_EDGE('',*,*,#348,.T.);
#262=ORIENTED_EDGE('',*,*,#334,.T.);
#263=ORIENTED_EDGE('',*,*,#361,.T.);
#264=ORIENTED_EDGE('',*,*,#362,.T.);
#265=ORIENTED_EDGE('',*,*,#321,.T.);
#266=ORIENTED_EDGE('',*,*,#328,.F.);
#267=ORIENTED_EDGE('',*,*,#341,.F.);
#268=ORIENTED_EDGE('',*,*,#345,.F.);
#269=ORIENTED_EDGE('',*,*,#336,.F.);
#270=ORIENTED_EDGE('',*,*,#331,.F.);
#271=ORIENTED_EDGE('',*,*,#363,.T.);
#272=ORIENTED_EDGE('',*,*,#363,.F.);
#273=ORIENTED_EDGE('',*,*,#330,.F.);
#274=ORIENTED_EDGE('',*,*,#347,.F.);
#275=ORIENTED_EDGE('',*,*,#322,.F.);
#276=ORIENTED_EDGE('',*,*,#362,.F.);
#277=ORIENTED_EDGE('',*,*,#340,.F.);
#278=ORIENTED_EDGE('',*,*,#354,.F.);
#279=ORIENTED_EDGE('',*,*,#351,.F.);
#280=ORIENTED_EDGE('',*,*,#364,.F.);
#281=ORIENTED_EDGE('',*,*,#365,.T.);
#282=ORIENTED_EDGE('',*,*,#339,.F.);
#283=ORIENTED_EDGE('',*,*,#364,.T.);
#284=ORIENTED_EDGE('',*,*,#365,.F.);
#285=VERTEX_POINT('',#610);
#286=VERTEX_POINT('',#611);
#287=VERTEX_POINT('',#613);
#288=VERTEX_POINT('',#615);
#289=VERTEX_POINT('',#617);
#290=VERTEX_POINT('',#619);
#291=VERTEX_POINT('',#623);
#292=VERTEX_POINT('',#624);
#293=VERTEX_POINT('',#629);
#294=VERTEX_POINT('',#630);
#295=VERTEX_POINT('',#632);
#296=VERTEX_POINT('',#634);
#297=VERTEX_POINT('',#636);
#298=VERTEX_POINT('',#638);
#299=VERTEX_POINT('',#642);
#300=VERTEX_POINT('',#644);
#301=VERTEX_POINT('',#648);
#302=VERTEX_POINT('',#650);
#303=VERTEX_POINT('',#651);
#304=VERTEX_POINT('',#654);
#305=VERTEX_POINT('',#656);
#306=VERTEX_POINT('',#661);
#307=VERTEX_POINT('',#676);
#308=VERTEX_POINT('',#678);
#309=VERTEX_POINT('',#682);
#310=VERTEX_POINT('',#685);
#311=VERTEX_POINT('',#687);
#312=VERTEX_POINT('',#690);
#313=VERTEX_POINT('',#692);
#314=VERTEX_POINT('',#695);
#315=VERTEX_POINT('',#699);
#316=VERTEX_POINT('',#701);
#317=VERTEX_POINT('',#705);
#318=VERTEX_POINT('',#706);
#319=VERTEX_POINT('',#721);
#320=VERTEX_POINT('',#724);
#321=EDGE_CURVE('',#285,#286,#366,.T.);
#322=EDGE_CURVE('',#285,#287,#367,.T.);
#323=EDGE_CURVE('',#287,#288,#174,.T.);
#324=EDGE_CURVE('',#289,#288,#368,.T.);
#325=EDGE_CURVE('',#289,#290,#369,.T.);
#326=EDGE_CURVE('',#286,#290,#175,.T.);
#327=EDGE_CURVE('',#291,#292,#176,.T.);
#328=EDGE_CURVE('',#291,#286,#370,.T.);
#329=EDGE_CURVE('',#292,#290,#371,.T.);
#330=EDGE_CURVE('',#293,#294,#372,.T.);
#331=EDGE_CURVE('',#294,#295,#373,.T.);
#332=EDGE_CURVE('',#295,#296,#177,.T.);
#333=EDGE_CURVE('',#297,#296,#374,.T.);
#334=EDGE_CURVE('',#298,#297,#375,.T.);
#335=EDGE_CURVE('',#298,#293,#178,.T.);
#336=EDGE_CURVE('',#295,#299,#376,.T.);
#337=EDGE_CURVE('',#299,#300,#179,.T.);
#338=EDGE_CURVE('',#296,#300,#377,.T.);
#339=EDGE_CURVE('',#301,#301,#180,.T.);
#340=EDGE_CURVE('',#302,#303,#378,.T.);
#341=EDGE_CURVE('',#303,#291,#379,.T.);
#342=EDGE_CURVE('',#304,#292,#380,.T.);
#343=EDGE_CURVE('',#305,#304,#381,.T.);
#344=EDGE_CURVE('',#300,#305,#382,.T.);
#345=EDGE_CURVE('',#299,#302,#383,.T.);
#346=EDGE_CURVE('',#306,#306,#181,.T.);
#347=EDGE_CURVE('',#287,#293,#41,.T.);
#348=EDGE_CURVE('',#288,#298,#42,.T.);
#349=EDGE_CURVE('',#307,#307,#182,.T.);
#350=EDGE_CURVE('',#308,#308,#183,.T.);
#351=EDGE_CURVE('',#309,#309,#184,.T.);
#352=EDGE_CURVE('',#310,#310,#185,.T.);
#353=EDGE_CURVE('',#311,#311,#186,.T.);
#354=EDGE_CURVE('',#312,#312,#187,.T.);
#355=EDGE_CURVE('',#313,#313,#188,.T.);
#356=EDGE_CURVE('',#314,#314,#189,.T.);
#357=EDGE_CURVE('',#315,#315,#190,.T.);
#358=EDGE_CURVE('',#316,#316,#191,.T.);
#359=EDGE_CURVE('',#317,#317,#192,.T.);
#360=EDGE_CURVE('',#304,#289,#384,.T.);
#361=EDGE_CURVE('',#297,#305,#385,.T.);
#362=EDGE_CURVE('',#303,#285,#386,.T.);
#363=EDGE_CURVE('',#294,#302,#387,.T.);
#364=EDGE_CURVE('',#319,#319,#193,.T.);
#365=EDGE_CURVE('',#320,#320,#194,.T.);
#366=LINE('',#609,#388);
#367=LINE('',#612,#389);
#368=LINE('',#616,#390);
#369=LINE('',#618,#391);
#370=LINE('',#625,#392);
#371=LINE('',#626,#393);
#372=LINE('',#628,#394);
#373=LINE('',#631,#395);
#374=LINE('',#635,#396);
#375=LINE('',#637,#397);
#376=LINE('',#641,#398);
#377=LINE('',#645,#399);
#378=LINE('',#649,#400);
#379=LINE('',#652,#401);
#380=LINE('',#653,#402);
#381=LINE('',#655,#403);
#382=LINE('',#657,#404);
#383=LINE('',#658,#405);
#384=LINE('',#709,#406);
#385=LINE('',#711,#407);
#386=LINE('',#714,#408);
#387=LINE('',#716,#409);
#388=VECTOR('',#487,1.);
#389=VECTOR('',#488,1.);
#390=VECTOR('',#491,1.);
#391=VECTOR('',#492,1.);
#392=VECTOR('',#499,1.);
#393=VECTOR('',#500,1.);
#394=VECTOR('',#503,1.);
#395=VECTOR('',#504,1.);
#396=VECTOR('',#507,1.);
#397=VECTOR('',#508,1.);
#398=VECTOR('',#513,1.);
#399=VECTOR('',#516,1.);
#400=VECTOR('',#521,1.);
#401=VECTOR('',#522,1.);
#402=VECTOR('',#523,1.);
#403=VECTOR('',#524,1.);
#404=VECTOR('',#525,1.);
#405=VECTOR('',#526,1.);
#406=VECTOR('',#577,1.);
#407=VECTOR('',#580,1.);
#408=VECTOR('',#585,1.);
#409=VECTOR('',#588,1.);
#410=PRESENTATION_LAYER_ASSIGNMENT('1','Layer 1',(#428,#429,#430,#30));
#411=STYLED_ITEM('',(#415),#428);
#412=STYLED_ITEM('',(#416),#429);
#413=STYLED_ITEM('',(#417),#430);
#414=STYLED_ITEM('',(#418),#30);
#415=PRESENTATION_STYLE_ASSIGNMENT((#419));
#416=PRESENTATION_STYLE_ASSIGNMENT((#420));
#417=PRESENTATION_STYLE_ASSIGNMENT((#421));
#418=PRESENTATION_STYLE_ASSIGNMENT((#25));
#419=CURVE_STYLE('',#424,POSITIVE_LENGTH_MEASURE(0.13),#422);
#420=CURVE_STYLE('',#425,POSITIVE_LENGTH_MEASURE(0.13),#422);
#421=CURVE_STYLE('',#426,POSITIVE_LENGTH_MEASURE(0.13),#422);
#422=COLOUR_RGB('Strong Emerald',0.,0.803921568627451,0.525490196078431);
#423=COLOUR_RGB('TLS_NOCUT',0.499992370489052,0.499992370489052,0.499992370489052);
#424=DRAUGHTING_PRE_DEFINED_CURVE_FONT('continuous');
#425=DRAUGHTING_PRE_DEFINED_CURVE_FONT('continuous');
#426=DRAUGHTING_PRE_DEFINED_CURVE_FONT('continuous');
#427=AXIS2_PLACEMENT_3D('',#605,#479,#480);
#428=AXIS2_PLACEMENT_3D('PCS',#606,#481,#482);
#429=AXIS2_PLACEMENT_3D('MCS',#607,#483,#484);
#430=AXIS2_PLACEMENT_3D('CSW',#608,#485,#486);
#431=AXIS2_PLACEMENT_3D('',#614,#489,#490);
#432=AXIS2_PLACEMENT_3D('',#620,#493,#494);
#433=AXIS2_PLACEMENT_3D('',#621,#495,#496);
#434=AXIS2_PLACEMENT_3D('',#622,#497,#498);
#435=AXIS2_PLACEMENT_3D('',#627,#501,#502);
#436=AXIS2_PLACEMENT_3D('',#633,#505,#506);
#437=AXIS2_PLACEMENT_3D('',#639,#509,#510);
#438=AXIS2_PLACEMENT_3D('',#640,#511,#512);
#439=AXIS2_PLACEMENT_3D('',#643,#514,#515);
#440=AXIS2_PLACEMENT_3D('',#646,#517,#518);
#441=AXIS2_PLACEMENT_3D('',#647,#519,#520);
#442=AXIS2_PLACEMENT_3D('',#659,#527,#528);
#443=AXIS2_PLACEMENT_3D('',#660,#529,#530);
#444=AXIS2_PLACEMENT_3D('',#674,#531,#532);
#445=AXIS2_PLACEMENT_3D('',#675,#533,#534);
#446=AXIS2_PLACEMENT_3D('',#677,#535,#536);
#447=AXIS2_PLACEMENT_3D('',#679,#537,#538);
#448=AXIS2_PLACEMENT_3D('',#680,#539,#540);
#449=AXIS2_PLACEMENT_3D('',#681,#541,#542);
#450=AXIS2_PLACEMENT_3D('',#683,#543,#544);
#451=AXIS2_PLACEMENT_3D('',#684,#545,#546);
#452=AXIS2_PLACEMENT_3D('',#686,#547,#548);
#453=AXIS2_PLACEMENT_3D('',#688,#549,#550);
#454=AXIS2_PLACEMENT_3D('',#689,#551,#552);
#455=AXIS2_PLACEMENT_3D('',#691,#553,#554);
#456=AXIS2_PLACEMENT_3D('',#693,#555,#556);
#457=AXIS2_PLACEMENT_3D('',#694,#557,#558);
#458=AXIS2_PLACEMENT_3D('',#696,#559,#560);
#459=AXIS2_PLACEMENT_3D('',#697,#561,#562);
#460=AXIS2_PLACEMENT_3D('',#698,#563,#564);
#461=AXIS2_PLACEMENT_3D('',#700,#565,#566);
#462=AXIS2_PLACEMENT_3D('',#702,#567,#568);
#463=AXIS2_PLACEMENT_3D('',#703,#569,#570);
#464=AXIS2_PLACEMENT_3D('',#704,#571,#572);
#465=AXIS2_PLACEMENT_3D('',#707,#573,#574);
#466=AXIS2_PLACEMENT_3D('',#708,#575,#576);
#467=AXIS2_PLACEMENT_3D('',#710,#578,#579);
#468=AXIS2_PLACEMENT_3D('',#712,#581,#582);
#469=AXIS2_PLACEMENT_3D('',#713,#583,#584);
#470=AXIS2_PLACEMENT_3D('',#715,#586,#587);
#471=AXIS2_PLACEMENT_3D('',#717,#589,#590);
#472=AXIS2_PLACEMENT_3D('',#718,#591,#592);
#473=AXIS2_PLACEMENT_3D('',#719,#593,#594);
#474=AXIS2_PLACEMENT_3D('',#720,#595,#596);
#475=AXIS2_PLACEMENT_3D('',#722,#597,#598);
#476=AXIS2_PLACEMENT_3D('',#723,#599,#600);
#477=AXIS2_PLACEMENT_3D('',#725,#601,#602);
#478=AXIS2_PLACEMENT_3D('',#726,#603,#604);
#479=DIRECTION('',(0.,0.,1.));
#480=DIRECTION('',(1.,0.,0.));
#481=DIRECTION('',(0.,0.,1.));
#482=DIRECTION('',(1.,0.,0.));
#483=DIRECTION('',(0.,0.,1.));
#484=DIRECTION('',(1.,0.,0.));
#485=DIRECTION('',(0.,0.,1.));
#486=DIRECTION('',(1.,0.,0.));
#487=DIRECTION('',(1.,0.,0.));
#488=DIRECTION('',(0.,1.,0.));
#489=DIRECTION('',(0.,0.,-1.));
#490=DIRECTION('',(-1.,0.,0.));
#491=DIRECTION('',(0.,1.,0.));
#492=DIRECTION('',(-1.,0.,0.));
#493=DIRECTION('',(0.,0.,-1.));
#494=DIRECTION('',(-1.,0.,0.));
#495=DIRECTION('',(0.,0.,-1.));
#496=DIRECTION('',(-1.,0.,0.));
#497=DIRECTION('',(0.,0.,-1.));
#498=DIRECTION('',(1.,0.,0.));
#499=DIRECTION('',(0.,0.,1.));
#500=DIRECTION('',(0.,0.,1.));
#501=DIRECTION('',(0.,0.,-1.));
#502=DIRECTION('',(-1.,0.,0.));
#503=DIRECTION('',(0.,1.,0.));
#504=DIRECTION('',(1.,0.,0.));
#505=DIRECTION('',(0.,0.,1.));
#506=DIRECTION('',(-1.,0.,0.));
#507=DIRECTION('',(-1.,0.,0.));
#508=DIRECTION('',(0.,1.,0.));
#509=DIRECTION('',(0.,0.,-1.));
#510=DIRECTION('',(-1.,0.,0.));
#511=DIRECTION('',(0.,0.,-1.));
#512=DIRECTION('',(-1.,0.,0.));
#513=DIRECTION('',(0.,0.,-1.));
#514=DIRECTION('',(0.,0.,1.));
#515=DIRECTION('',(1.,0.,0.));
#516=DIRECTION('',(0.,0.,-1.));
#517=DIRECTION('',(0.,0.,-1.));
#518=DIRECTION('',(-1.,0.,0.));
#519=DIRECTION('',(0.,0.,1.));
#520=DIRECTION('',(1.,0.,0.));
#521=DIRECTION('',(0.,-1.,0.));
#522=DIRECTION('',(1.,0.,0.));
#523=DIRECTION('',(-1.,0.,0.));
#524=DIRECTION('',(0.,-1.,0.));
#525=DIRECTION('',(1.,0.,0.));
#526=DIRECTION('',(-1.,0.,0.));
#527=DIRECTION('',(0.,0.,1.));
#528=DIRECTION('',(1.,0.,0.));
#529=DIRECTION('',(0.,0.,1.));
#530=DIRECTION('',(-1.,0.,0.));
#531=DIRECTION('',(0.,0.,-1.));
#532=DIRECTION('',(-1.,0.,0.));
#533=DIRECTION('',(0.,0.,-1.));
#534=DIRECTION('',(-1.,0.,0.));
#535=DIRECTION('',(0.,0.,-1.));
#536=DIRECTION('',(-1.,0.,0.));
#537=DIRECTION('',(0.,0.,1.));
#538=DIRECTION('',(1.,0.,0.));
#539=DIRECTION('',(0.,0.,-1.));
#540=DIRECTION('',(-1.,0.,0.));
#541=DIRECTION('',(0.,0.,-1.));
#542=DIRECTION('',(1.,0.,0.));
#543=DIRECTION('',(0.,0.,-1.));
#544=DIRECTION('',(-1.,0.,8.75384147486305E-017));
#545=DIRECTION('',(0.,-1.22460635382238E-016,-1.));
#546=DIRECTION('',(0.,1.,0.));
#547=DIRECTION('',(0.,1.22460635382238E-016,1.));
#548=DIRECTION('',(0.,1.,0.));
#549=DIRECTION('',(0.,1.22460635382238E-016,1.));
#550=DIRECTION('',(0.,1.,-1.2490009027033E-016));
#551=DIRECTION('',(0.,6.12303176911189E-017,1.));
#552=DIRECTION('',(0.,-1.,0.));
#553=DIRECTION('',(0.,-1.22460635382238E-016,-1.));
#554=DIRECTION('',(0.,-1.,0.));
#555=DIRECTION('',(0.,-1.22460635382238E-016,-1.));
#556=DIRECTION('',(0.,-1.,0.));
#557=DIRECTION('',(0.,-1.22460635382238E-016,-1.));
#558=DIRECTION('',(0.,-1.,0.));
#559=DIRECTION('',(0.,1.22460635382238E-016,1.));
#560=DIRECTION('',(0.,1.,4.70952115688241E-017));
#561=DIRECTION('',(0.,-1.22460635382238E-016,-1.));
#562=DIRECTION('',(0.,-1.,0.));
#563=DIRECTION('',(0.,-1.1812404934552E-016,-1.));
#564=DIRECTION('',(0.,-1.,0.));
#565=DIRECTION('',(0.,-1.1812404934552E-016,-1.));
#566=DIRECTION('',(0.,-1.,0.));
#567=DIRECTION('',(0.,1.1812404934552E-016,1.));
#568=DIRECTION('',(0.,1.,-7.05357132126606E-017));
#569=DIRECTION('',(0.,-1.1812404934552E-016,-1.));
#570=DIRECTION('',(0.,-1.,0.));
#571=DIRECTION('',(0.,-1.1812404934552E-016,-1.));
#572=DIRECTION('',(0.,-1.,0.));
#573=DIRECTION('',(0.,1.1812404934552E-016,1.));
#574=DIRECTION('',(0.,1.,-8.08176268721101E-017));
#575=DIRECTION('',(0.,-1.1812404934552E-016,-1.));
#576=DIRECTION('',(0.,-1.,0.));
#577=DIRECTION('',(0.,0.,1.));
#578=DIRECTION('',(0.,1.,0.));
#579=DIRECTION('',(0.,0.,-1.));
#580=DIRECTION('',(0.,0.,-1.));
#581=DIRECTION('',(0.,-1.,0.));
#582=DIRECTION('',(0.,0.,1.));
#583=DIRECTION('',(-1.,0.,0.));
#584=DIRECTION('',(0.,0.,1.));
#585=DIRECTION('',(0.,0.,1.));
#586=DIRECTION('',(0.,-1.,0.));
#587=DIRECTION('',(0.,0.,1.));
#588=DIRECTION('',(0.,0.,-1.));
#589=DIRECTION('',(0.,1.,0.));
#590=DIRECTION('',(0.,0.,-1.));
#591=DIRECTION('',(-1.,0.,0.));
#592=DIRECTION('',(0.,0.,1.));
#593=DIRECTION('',(0.,-6.12303176911189E-017,-1.));
#594=DIRECTION('',(0.,-1.,0.));
#595=DIRECTION('',(0.,0.,1.));
#596=DIRECTION('',(1.,0.,0.));
#597=DIRECTION('',(0.,0.,-1.));
#598=DIRECTION('',(-1.,0.,0.));
#599=DIRECTION('',(0.,0.,1.));
#600=DIRECTION('',(1.,0.,0.));
#601=DIRECTION('',(0.,0.,1.));
#602=DIRECTION('',(1.,0.,0.));
#603=DIRECTION('',(0.,0.,1.));
#604=DIRECTION('',(1.,0.,4.08170229641588E-017));
#605=CARTESIAN_POINT('',(0.,0.,0.));
#606=CARTESIAN_POINT('',(0.,0.,0.));
#607=CARTESIAN_POINT('',(0.,0.,0.));
#608=CARTESIAN_POINT('',(0.,0.,-60.));
#609=CARTESIAN_POINT('',(0.,-8.095,-1.6));
#610=CARTESIAN_POINT('',(22.4,-8.095,-1.6));
#611=CARTESIAN_POINT('',(30.3386053568717,-8.095,-1.6));
#612=CARTESIAN_POINT('',(22.4,22.,-1.6));
#613=CARTESIAN_POINT('',(22.4,-3.,-1.6));
#614=CARTESIAN_POINT('',(0.,0.,-1.6));
#615=CARTESIAN_POINT('',(-22.4,-3.,-1.6));
#616=CARTESIAN_POINT('',(-22.4,22.,-1.6));
#617=CARTESIAN_POINT('',(-22.4,-8.095,-1.6));
#618=CARTESIAN_POINT('',(-41.4,-8.095,-1.6));
#619=CARTESIAN_POINT('',(-30.3386053568717,-8.095,-1.6));
#620=CARTESIAN_POINT('',(0.,0.,-1.6));
#621=CARTESIAN_POINT('',(0.,22.,-1.6));
#622=CARTESIAN_POINT('',(0.,0.,-11.6));
#623=CARTESIAN_POINT('',(30.3386053568717,-8.095,-11.6));
#624=CARTESIAN_POINT('',(-30.3386053568717,-8.095,-11.6));
#625=CARTESIAN_POINT('',(30.3386053568717,-8.095,65.4));
#626=CARTESIAN_POINT('',(-30.3386053568717,-8.095,65.4));
#627=CARTESIAN_POINT('',(0.,0.,65.4));
#628=CARTESIAN_POINT('',(22.4,22.,-1.6));
#629=CARTESIAN_POINT('',(22.4,3.,-1.6));
#630=CARTESIAN_POINT('',(22.4,8.095,-1.6));
#631=CARTESIAN_POINT('',(41.4,8.095,-1.6));
#632=CARTESIAN_POINT('',(30.3386053568717,8.095,-1.6));
#633=CARTESIAN_POINT('',(0.,0.,-1.6));
#634=CARTESIAN_POINT('',(-30.3386053568717,8.095,-1.6));
#635=CARTESIAN_POINT('',(0.,8.095,-1.6));
#636=CARTESIAN_POINT('',(-22.4,8.095,-1.6));
#637=CARTESIAN_POINT('',(-22.4,22.,-1.6));
#638=CARTESIAN_POINT('',(-22.4,3.,-1.6));
#639=CARTESIAN_POINT('',(0.,0.,-1.6));
#640=CARTESIAN_POINT('',(0.,22.,-1.6));
#641=CARTESIAN_POINT('',(30.3386053568717,8.095,65.4));
#642=CARTESIAN_POINT('',(30.3386053568717,8.095,-11.6));
#643=CARTESIAN_POINT('',(0.,0.,-11.6));
#644=CARTESIAN_POINT('',(-30.3386053568717,8.095,-11.6));
#645=CARTESIAN_POINT('',(-30.3386053568717,8.095,65.4));
#646=CARTESIAN_POINT('',(0.,0.,65.4));
#647=CARTESIAN_POINT('',(0.,0.,-11.6));
#648=CARTESIAN_POINT('',(20.,0.,-11.6));
#649=CARTESIAN_POINT('',(22.4,31.4,-11.6));
#650=CARTESIAN_POINT('',(22.4,8.095,-11.6));
#651=CARTESIAN_POINT('',(22.4,-8.095,-11.6));
#652=CARTESIAN_POINT('',(0.,-8.095,-11.6));
#653=CARTESIAN_POINT('',(0.,-8.095,-11.6));
#654=CARTESIAN_POINT('',(-22.4,-8.095,-11.6));
#655=CARTESIAN_POINT('',(-22.4,31.4,-11.6));
#656=CARTESIAN_POINT('',(-22.4,8.095,-11.6));
#657=CARTESIAN_POINT('',(0.,8.095,-11.6));
#658=CARTESIAN_POINT('',(0.,8.095,-11.6));
#659=CARTESIAN_POINT('',(0.,31.4,-11.6));
#660=CARTESIAN_POINT('',(0.,0.,-1.));
#661=CARTESIAN_POINT('',(-22.,0.,-1.));
#662=CARTESIAN_POINT('',(22.4,-3.,-1.6));
#663=CARTESIAN_POINT('',(22.4,-1.98436924622762,-1.6));
#664=CARTESIAN_POINT('',(22.4,-0.939173265158226,-1.56499192155724));
#665=CARTESIAN_POINT('',(22.4,1.03054364906706,-1.56641186659246));
#666=CARTESIAN_POINT('',(22.4,2.01507218934026,-1.6));
#667=CARTESIAN_POINT('',(22.4,3.,-1.6));
#668=CARTESIAN_POINT('',(-22.4,-3.,-1.6));
#669=CARTESIAN_POINT('',(-22.4,-1.98436924622762,-1.6));
#670=CARTESIAN_POINT('',(-22.4,-0.939173265158226,-1.56499192155724));
#671=CARTESIAN_POINT('',(-22.4,1.03054364906706,-1.56641186659246));
#672=CARTESIAN_POINT('',(-22.4,2.01507218934026,-1.6));
#673=CARTESIAN_POINT('',(-22.4,3.,-1.6));
#674=CARTESIAN_POINT('',(0.,0.,-1.));
#675=CARTESIAN_POINT('',(0.,0.,-0.389711431702993));
#676=CARTESIAN_POINT('',(-22.,0.,-0.389711431702993));
#677=CARTESIAN_POINT('',(0.,0.,0.));
#678=CARTESIAN_POINT('',(-22.225,0.,0.));
#679=CARTESIAN_POINT('',(0.,0.,0.));
#680=CARTESIAN_POINT('',(0.,0.,65.4));
#681=CARTESIAN_POINT('',(0.,-2.07775246968736E-015,65.2213894485262));
#682=CARTESIAN_POINT('',(12.7126502440398,-2.07775246968736E-015,65.2213894485262));
#683=CARTESIAN_POINT('',(0.,0.,65.4));
#684=CARTESIAN_POINT('',(0.,-2.55942727948876E-015,93.4));
#685=CARTESIAN_POINT('',(0.,12.475,93.4));
#686=CARTESIAN_POINT('',(0.,-1.84326181969983E-015,93.4));
#687=CARTESIAN_POINT('',(0.,8.5,93.4));
#688=CARTESIAN_POINT('',(0.,12.475,93.4));
#689=CARTESIAN_POINT('',(0.,-5.91281505710982E-015,66.0166064127131));
#690=CARTESIAN_POINT('',(0.,-12.,66.0166064127131));
#691=CARTESIAN_POINT('',(0.,-5.47677321342461E-015,69.5772758664048));
#692=CARTESIAN_POINT('',(0.,-12.,69.5772758664048));
#693=CARTESIAN_POINT('',(0.,-2.55942727948876E-015,93.4));
#694=CARTESIAN_POINT('',(0.,-5.37602189328024E-015,70.4));
#695=CARTESIAN_POINT('',(0.,-12.475,70.4));
#696=CARTESIAN_POINT('',(0.,-5.47677321342461E-015,69.5772758664048));
#697=CARTESIAN_POINT('',(0.,-2.55942727948876E-015,93.4));
#698=CARTESIAN_POINT('',(0.,-2.84141003666947E-015,84.95));
#699=CARTESIAN_POINT('',(0.,-8.5,84.95));
#700=CARTESIAN_POINT('',(0.,-2.90590049353862E-015,84.4040446486007));
#701=CARTESIAN_POINT('',(0.,-7.,84.4040446486007));
#702=CARTESIAN_POINT('',(0.,-2.90590049353862E-015,84.4040446486007));
#703=CARTESIAN_POINT('',(0.,-8.45113602730179E-016,101.85));
#704=CARTESIAN_POINT('',(0.,-6.80447189221167E-015,51.4));
#705=CARTESIAN_POINT('',(0.,-7.00000000000001,51.4));
#706=CARTESIAN_POINT('',(0.,-7.105427357601E-015,48.8522083601366));
#707=CARTESIAN_POINT('',(0.,-7.105427357601E-015,48.8522083601366));
#708=CARTESIAN_POINT('',(0.,-8.45113602730179E-016,101.85));
#709=CARTESIAN_POINT('',(-22.4,-8.095,-13.515));
#710=CARTESIAN_POINT('',(-41.4,-8.095,-13.515));
#711=CARTESIAN_POINT('',(-22.4,8.095,-2.1));
#712=CARTESIAN_POINT('',(-41.4,8.095,-2.1));
#713=CARTESIAN_POINT('',(-22.4,1.01,-13.515));
#714=CARTESIAN_POINT('',(22.4,-8.095,-13.515));
#715=CARTESIAN_POINT('',(41.4,-8.095,-13.515));
#716=CARTESIAN_POINT('',(22.4,8.095,-2.1));
#717=CARTESIAN_POINT('',(41.4,8.095,-2.1));
#718=CARTESIAN_POINT('',(22.4,1.01,-13.515));
#719=CARTESIAN_POINT('',(0.,-2.07775246968736E-015,66.0166064127131));
#720=CARTESIAN_POINT('',(0.,0.,-60.));
#721=CARTESIAN_POINT('',(19.7,0.,-60.));
#722=CARTESIAN_POINT('',(0.,19.7,-60.));
#723=CARTESIAN_POINT('',(0.,0.,-59.7));
#724=CARTESIAN_POINT('',(20.,0.,-59.7));
#725=CARTESIAN_POINT('',(0.,0.,-11.6));
#726=CARTESIAN_POINT('',(0.,0.,-59.7));
#727=MECHANICAL_DESIGN_GEOMETRIC_PRESENTATION_REPRESENTATION('',(#411,#412,
#413,#414),#728);
#728=(
GEOMETRIC_REPRESENTATION_CONTEXT(3)
GLOBAL_UNCERTAINTY_ASSIGNED_CONTEXT((#729))
GLOBAL_UNIT_ASSIGNED_CONTEXT((#735,#731,#730))
REPRESENTATION_CONTEXT('2458_1_3d','TOP_LEVEL_ASSEMBLY_PART')
);
#729=UNCERTAINTY_MEASURE_WITH_UNIT(LENGTH_MEASURE(0.0508),#735,
'DISTANCE_ACCURACY_VALUE','Maximum Tolerance applied to model');
#730=(
NAMED_UNIT(*)
SI_UNIT($,.STERADIAN.)
SOLID_ANGLE_UNIT()
);
#731=(
CONVERSION_BASED_UNIT('DEGREE',#733)
NAMED_UNIT(#732)
PLANE_ANGLE_UNIT()
);
#732=DIMENSIONAL_EXPONENTS(0.,0.,0.,0.,0.,0.,0.);
#733=PLANE_ANGLE_MEASURE_WITH_UNIT(PLANE_ANGLE_MEASURE(0.0174532925),#734);
#734=(
NAMED_UNIT(*)
PLANE_ANGLE_UNIT()
SI_UNIT($,.RADIAN.)
);
#735=(
LENGTH_UNIT()
NAMED_UNIT(*)
SI_UNIT(.MILLI.,.METRE.)
);
ENDSEC;
END-ISO-10303-21;
