ISO-10303-21;
HEADER;
FILE_DESCRIPTION(
/* description */ ('3-D model version:1'),
/* implementation_level */ '2;1');
FILE_NAME(
/* name */ 'C3-391.EH-16027',
/* time_stamp */ '2016-12-02T14:14:44',
/* author */ ('InteractiveCad'),
/* organization */ ('AB Sandvik Coromant'),
/* preprocessor_version */ 'ST-DEVELOPER v15',
/* originating_system */ 'SIEMENS PLM Software NX 8.5',
/* authorization */ '');
FILE_SCHEMA(('AUTOMOTIVE_DESIGN'));
ENDSEC;
DATA;
#10=SHAPE_REPRESENTATION_RELATIONSHIP('None','relationship between C3_391_EH_16027_SIM-None and C3_391_EH_16027_SIM-None',
     #92,#11);
#11=ADVANCED_BREP_SHAPE_REPRESENTATION('C3_391_EH_16027_SIM-None',(#102),#519);
#15=APPROVAL_PERSON_ORGANIZATION(#69,#24,#18);
#16=APPROVAL_PERSON_ORGANIZATION(#70,#25,#19);
#17=APPROVAL_PERSON_ORGANIZATION(#71,#26,#20);
#18=APPROVAL_ROLE('approver');
#19=APPROVAL_ROLE('approver');
#20=APPROVAL_ROLE('approver');
#21=APPROVAL_DATE_TIME(#39,#24);
#22=APPROVAL_DATE_TIME(#40,#25);
#23=APPROVAL_DATE_TIME(#41,#26);
#24=APPROVAL(#27,' ');
#25=APPROVAL(#28,' ');
#26=APPROVAL(#29,' ');
#27=APPROVAL_STATUS('not_yet_approved');
#28=APPROVAL_STATUS('not_yet_approved');
#29=APPROVAL_STATUS('not_yet_approved');
#31=SECURITY_CLASSIFICATION(' ',' ',#32);
#32=SECURITY_CLASSIFICATION_LEVEL('confidential');
#35=DATE_TIME_ROLE('creation_date');
#36=DATE_TIME_ROLE('classification_date');
#37=DATE_AND_TIME(#52,#42);
#38=DATE_AND_TIME(#53,#43);
#39=DATE_AND_TIME(#54,#44);
#40=DATE_AND_TIME(#55,#45);
#41=DATE_AND_TIME(#56,#46);
#42=LOCAL_TIME(0,0,0.0,#47);
#43=LOCAL_TIME(0,0,0.0,#48);
#44=LOCAL_TIME(0,0,0.0,#49);
#45=LOCAL_TIME(0,0,0.0,#50);
#46=LOCAL_TIME(0,0,0.0,#51);
#47=COORDINATED_UNIVERSAL_TIME_OFFSET(0,0,.BEHIND.);
#48=COORDINATED_UNIVERSAL_TIME_OFFSET(0,0,.BEHIND.);
#49=COORDINATED_UNIVERSAL_TIME_OFFSET(0,0,.BEHIND.);
#50=COORDINATED_UNIVERSAL_TIME_OFFSET(0,0,.BEHIND.);
#51=COORDINATED_UNIVERSAL_TIME_OFFSET(0,0,.BEHIND.);
#52=CALENDAR_DATE(0,1,1);
#53=CALENDAR_DATE(0,1,1);
#54=CALENDAR_DATE(0,1,1);
#55=CALENDAR_DATE(0,1,1);
#56=CALENDAR_DATE(0,1,1);
#61=PERSON_AND_ORGANIZATION_ROLE('creator');
#62=PERSON_AND_ORGANIZATION_ROLE('design_owner');
#63=PERSON_AND_ORGANIZATION_ROLE('design_supplier');
#64=PERSON_AND_ORGANIZATION_ROLE('classification_officer');
#65=PERSON_AND_ORGANIZATION(#79,#72);
#66=PERSON_AND_ORGANIZATION(#79,#73);
#67=PERSON_AND_ORGANIZATION(#79,#74);
#68=PERSON_AND_ORGANIZATION(#79,#75);
#69=PERSON_AND_ORGANIZATION(#79,#76);
#70=PERSON_AND_ORGANIZATION(#79,#77);
#71=PERSON_AND_ORGANIZATION(#79,#78);
#72=ORGANIZATION(' ',' ',' ');
#73=ORGANIZATION(' ',' ',' ');
#74=ORGANIZATION(' ',' ',' ');
#75=ORGANIZATION(' ',' ',' ');
#76=ORGANIZATION(' ',' ',' ');
#77=ORGANIZATION(' ',' ',' ');
#78=ORGANIZATION(' ',' ',' ');
#79=PERSON(' ',' ',' ',(' '),$,$);
#80=SHAPE_DEFINITION_REPRESENTATION(#81,#92);
#81=PRODUCT_DEFINITION_SHAPE('','',#82);
#82=PRODUCT_DEFINITION(' ','',#84,$);
#84=PRODUCT_DEFINITION_FORMATION_WITH_SPECIFIED_SOURCE(' ',' ',#86,.NOT_KNOWN.);
#85=PRODUCT_RELATED_PRODUCT_CATEGORY('detail','',(#86));
#86=PRODUCT('C3_391_EH_16027_SIM','C3_391_EH_16027_SIM',' ',());
#87=PRODUCT_CATEGORY('part',' ');
#88=PRODUCT_CATEGORY(' ','');
#90=APPLICATION_PROTOCOL_DEFINITION('international standard','config_control_design',
     2010,#91);
#91=APPLICATION_CONTEXT('configuration controlled 3D designs of mechanical parts and assemblies');
#92=SHAPE_REPRESENTATION('C3_391_EH_16027_SIM-None',(#317),#519);
#93=PRESENTATION_LAYER_ASSIGNMENT('1','Layer 1',(#102));
#94=STYLED_ITEM('',(#95),#102);
#95=PRESENTATION_STYLE_ASSIGNMENT((#96));
#96=SURFACE_STYLE_USAGE(.BOTH.,#97);
#97=SURFACE_SIDE_STYLE('',(#98));
#98=SURFACE_STYLE_FILL_AREA(#99);
#99=FILL_AREA_STYLE('',(#100));
#100=FILL_AREA_STYLE_COLOUR('',#101);
#101=COLOUR_RGB('TLS_NOCUT',0.499992370489052,0.499992370489052,0.499992370489052);
#102=MANIFOLD_SOLID_BREP('NOCUT',#103);
#103=CLOSED_SHELL('',(#138,#139,#140,#141,#142,#143,#144,#145,#146,#147,#148,#149,
     #150,#151,#152));
#104=TOROIDAL_SURFACE('',#354,12.7,5.0);
#105=LINE('',#487,#111);
#106=LINE('',#488,#112);
#107=LINE('',#494,#113);
#108=LINE('',#498,#114);
#109=LINE('',#502,#115);
#110=LINE('',#506,#116);
#111=VECTOR('',#395,1.0);
#112=VECTOR('',#396,1.0);
#113=VECTOR('',#403,1.0);
#114=VECTOR('',#408,1.0);
#115=VECTOR('',#413,1.0);
#116=VECTOR('',#418,1.0);
#117=CONICAL_SURFACE('',#331,2.0,45.0);
#118=CONICAL_SURFACE('',#338,14.9999975642769,1.43916999999995);
#119=CONICAL_SURFACE('',#340,6.00000517228696,1.43916999999995);
#120=CONICAL_SURFACE('',#342,6.00000517228696,1.43916999999995);
#121=CONICAL_SURFACE('',#344,14.9999993910693,1.43916999999995);
#122=CONICAL_SURFACE('',#346,6.00000835704711,1.43916999999995);
#123=CONICAL_SURFACE('',#348,14.9999993910693,1.43916999999995);
#124=FACE_OUTER_BOUND('',#173,.T.);
#125=FACE_OUTER_BOUND('',#174,.T.);
#126=FACE_OUTER_BOUND('',#175,.T.);
#127=FACE_OUTER_BOUND('',#176,.T.);
#128=FACE_OUTER_BOUND('',#177,.T.);
#129=FACE_OUTER_BOUND('',#178,.T.);
#130=FACE_OUTER_BOUND('',#179,.T.);
#131=FACE_OUTER_BOUND('',#180,.T.);
#132=FACE_OUTER_BOUND('',#181,.T.);
#133=FACE_OUTER_BOUND('',#182,.T.);
#134=B_SPLINE_CURVE_WITH_KNOTS('',3,(#459,#460,#461,#462,#463,#464,#465,#466,#467,
     #468,#469,#470,#471,#472,#473,#474),.UNSPECIFIED.,.F.,.F.,(4,3,3,3,3,4),(0.0,
     0.280059682780733,0.451536035240963,0.625138067859642,0.856610029919224,1.0),
     .UNSPECIFIED.);
#135=CYLINDRICAL_SURFACE('',#322,16.0);
#136=CYLINDRICAL_SURFACE('',#335,4.0);
#137=CYLINDRICAL_SURFACE('',#353,7.7);
#138=ADVANCED_FACE('',(#157,#158),#153,.T.);
#139=ADVANCED_FACE('',(#159,#160),#135,.T.);
#140=ADVANCED_FACE('',(#161,#162),#154,.T.);
#141=ADVANCED_FACE('',(#124),#117,.F.);
#142=ADVANCED_FACE('',(#125),#136,.F.);
#143=ADVANCED_FACE('',(#126),#118,.T.);
#144=ADVANCED_FACE('',(#127),#119,.T.);
#145=ADVANCED_FACE('',(#128),#120,.T.);
#146=ADVANCED_FACE('',(#129),#121,.T.);
#147=ADVANCED_FACE('',(#130),#122,.T.);
#148=ADVANCED_FACE('',(#131),#123,.T.);
#149=ADVANCED_FACE('',(#132),#155,.T.);
#150=ADVANCED_FACE('',(#133),#156,.T.);
#151=ADVANCED_FACE('',(#163,#164),#137,.T.);
#152=ADVANCED_FACE('',(#165,#166),#104,.F.);
#153=PLANE('',#320);
#154=PLANE('',#329);
#155=PLANE('',#349);
#156=PLANE('',#351);
#157=FACE_BOUND('',#167,.T.);
#158=FACE_BOUND('',#168,.T.);
#159=FACE_BOUND('',#169,.T.);
#160=FACE_BOUND('',#170,.T.);
#161=FACE_BOUND('',#171,.T.);
#162=FACE_BOUND('',#172,.T.);
#163=FACE_BOUND('',#183,.T.);
#164=FACE_BOUND('',#184,.T.);
#165=FACE_BOUND('',#185,.T.);
#166=FACE_BOUND('',#186,.T.);
#167=EDGE_LOOP('',(#187));
#168=EDGE_LOOP('',(#188));
#169=EDGE_LOOP('',(#189));
#170=EDGE_LOOP('',(#190));
#171=EDGE_LOOP('',(#191,#192,#193,#194,#195,#196));
#172=EDGE_LOOP('',(#197));
#173=EDGE_LOOP('',(#198,#199));
#174=EDGE_LOOP('',(#200,#201,#202,#203));
#175=EDGE_LOOP('',(#204,#205,#206,#207,#208,#209,#210,#211));
#176=EDGE_LOOP('',(#212,#213,#214,#215));
#177=EDGE_LOOP('',(#216,#217,#218,#219));
#178=EDGE_LOOP('',(#220,#221,#222,#223));
#179=EDGE_LOOP('',(#224,#225,#226,#227));
#180=EDGE_LOOP('',(#228,#229,#230,#231));
#181=EDGE_LOOP('',(#232,#233,#234,#235,#236,#237,#238,#239));
#182=EDGE_LOOP('',(#240));
#183=EDGE_LOOP('',(#241));
#184=EDGE_LOOP('',(#242));
#185=EDGE_LOOP('',(#243));
#186=EDGE_LOOP('',(#244));
#187=ORIENTED_EDGE('',*,*,#266,.T.);
#188=ORIENTED_EDGE('',*,*,#267,.T.);
#189=ORIENTED_EDGE('',*,*,#268,.T.);
#190=ORIENTED_EDGE('',*,*,#267,.F.);
#191=ORIENTED_EDGE('',*,*,#269,.F.);
#192=ORIENTED_EDGE('',*,*,#270,.F.);
#193=ORIENTED_EDGE('',*,*,#271,.F.);
#194=ORIENTED_EDGE('',*,*,#272,.F.);
#195=ORIENTED_EDGE('',*,*,#273,.F.);
#196=ORIENTED_EDGE('',*,*,#274,.F.);
#197=ORIENTED_EDGE('',*,*,#268,.F.);
#198=ORIENTED_EDGE('',*,*,#275,.T.);
#199=ORIENTED_EDGE('',*,*,#276,.F.);
#200=ORIENTED_EDGE('',*,*,#277,.F.);
#201=ORIENTED_EDGE('',*,*,#278,.F.);
#202=ORIENTED_EDGE('',*,*,#279,.F.);
#203=ORIENTED_EDGE('',*,*,#276,.T.);
#204=ORIENTED_EDGE('',*,*,#277,.T.);
#205=ORIENTED_EDGE('',*,*,#275,.F.);
#206=ORIENTED_EDGE('',*,*,#279,.T.);
#207=ORIENTED_EDGE('',*,*,#280,.T.);
#208=ORIENTED_EDGE('',*,*,#281,.F.);
#209=ORIENTED_EDGE('',*,*,#272,.T.);
#210=ORIENTED_EDGE('',*,*,#282,.T.);
#211=ORIENTED_EDGE('',*,*,#283,.T.);
#212=ORIENTED_EDGE('',*,*,#284,.T.);
#213=ORIENTED_EDGE('',*,*,#282,.F.);
#214=ORIENTED_EDGE('',*,*,#271,.T.);
#215=ORIENTED_EDGE('',*,*,#285,.T.);
#216=ORIENTED_EDGE('',*,*,#286,.T.);
#217=ORIENTED_EDGE('',*,*,#287,.F.);
#218=ORIENTED_EDGE('',*,*,#273,.T.);
#219=ORIENTED_EDGE('',*,*,#281,.T.);
#220=ORIENTED_EDGE('',*,*,#288,.T.);
#221=ORIENTED_EDGE('',*,*,#289,.F.);
#222=ORIENTED_EDGE('',*,*,#274,.T.);
#223=ORIENTED_EDGE('',*,*,#287,.T.);
#224=ORIENTED_EDGE('',*,*,#290,.T.);
#225=ORIENTED_EDGE('',*,*,#291,.F.);
#226=ORIENTED_EDGE('',*,*,#269,.T.);
#227=ORIENTED_EDGE('',*,*,#289,.T.);
#228=ORIENTED_EDGE('',*,*,#292,.T.);
#229=ORIENTED_EDGE('',*,*,#285,.F.);
#230=ORIENTED_EDGE('',*,*,#270,.T.);
#231=ORIENTED_EDGE('',*,*,#291,.T.);
#232=ORIENTED_EDGE('',*,*,#278,.T.);
#233=ORIENTED_EDGE('',*,*,#283,.F.);
#234=ORIENTED_EDGE('',*,*,#284,.F.);
#235=ORIENTED_EDGE('',*,*,#292,.F.);
#236=ORIENTED_EDGE('',*,*,#290,.F.);
#237=ORIENTED_EDGE('',*,*,#288,.F.);
#238=ORIENTED_EDGE('',*,*,#286,.F.);
#239=ORIENTED_EDGE('',*,*,#280,.F.);
#240=ORIENTED_EDGE('',*,*,#293,.T.);
#241=ORIENTED_EDGE('',*,*,#294,.T.);
#242=ORIENTED_EDGE('',*,*,#293,.F.);
#243=ORIENTED_EDGE('',*,*,#266,.F.);
#244=ORIENTED_EDGE('',*,*,#294,.F.);
#245=VERTEX_POINT('',#439);
#246=VERTEX_POINT('',#441);
#247=VERTEX_POINT('',#444);
#248=VERTEX_POINT('',#447);
#249=VERTEX_POINT('',#448);
#250=VERTEX_POINT('',#450);
#251=VERTEX_POINT('',#452);
#252=VERTEX_POINT('',#454);
#253=VERTEX_POINT('',#456);
#254=VERTEX_POINT('',#475);
#255=VERTEX_POINT('',#476);
#256=VERTEX_POINT('',#480);
#257=VERTEX_POINT('',#482);
#258=VERTEX_POINT('',#486);
#259=VERTEX_POINT('',#489);
#260=VERTEX_POINT('',#493);
#261=VERTEX_POINT('',#497);
#262=VERTEX_POINT('',#501);
#263=VERTEX_POINT('',#505);
#264=VERTEX_POINT('',#512);
#265=VERTEX_POINT('',#515);
#266=EDGE_CURVE('',#245,#245,#295,.T.);
#267=EDGE_CURVE('',#246,#246,#296,.T.);
#268=EDGE_CURVE('',#247,#247,#297,.T.);
#269=EDGE_CURVE('',#248,#249,#298,.T.);
#270=EDGE_CURVE('',#250,#248,#299,.T.);
#271=EDGE_CURVE('',#251,#250,#300,.T.);
#272=EDGE_CURVE('',#252,#251,#301,.T.);
#273=EDGE_CURVE('',#253,#252,#302,.T.);
#274=EDGE_CURVE('',#249,#253,#303,.T.);
#275=EDGE_CURVE('',#254,#255,#134,.T.);
#276=EDGE_CURVE('',#254,#255,#304,.T.);
#277=EDGE_CURVE('',#256,#255,#305,.T.);
#278=EDGE_CURVE('',#257,#256,#306,.T.);
#279=EDGE_CURVE('',#254,#257,#307,.T.);
#280=EDGE_CURVE('',#257,#258,#308,.T.);
#281=EDGE_CURVE('',#252,#258,#105,.T.);
#282=EDGE_CURVE('',#251,#259,#106,.T.);
#283=EDGE_CURVE('',#259,#256,#309,.T.);
#284=EDGE_CURVE('',#260,#259,#310,.T.);
#285=EDGE_CURVE('',#250,#260,#107,.T.);
#286=EDGE_CURVE('',#258,#261,#311,.T.);
#287=EDGE_CURVE('',#253,#261,#108,.T.);
#288=EDGE_CURVE('',#261,#262,#312,.T.);
#289=EDGE_CURVE('',#249,#262,#109,.T.);
#290=EDGE_CURVE('',#262,#263,#313,.T.);
#291=EDGE_CURVE('',#248,#263,#110,.T.);
#292=EDGE_CURVE('',#263,#260,#314,.T.);
#293=EDGE_CURVE('',#264,#264,#315,.T.);
#294=EDGE_CURVE('',#265,#265,#316,.T.);
#295=CIRCLE('',#318,12.7);
#296=CIRCLE('',#319,16.0);
#297=CIRCLE('',#321,16.0);
#298=CIRCLE('',#323,6.06281720435286);
#299=CIRCLE('',#324,15.0628082383751);
#300=CIRCLE('',#325,6.06281401959271);
#301=CIRCLE('',#326,15.0628064115827);
#302=CIRCLE('',#327,6.06281401959271);
#303=CIRCLE('',#328,15.0628082383751);
#304=CIRCLE('',#330,4.0);
#305=CIRCLE('',#332,2103.17546319548);
#306=CIRCLE('',#333,4.0);
#307=CIRCLE('',#334,2103.17546325638);
#308=CIRCLE('',#336,14.5854591720589);
#309=CIRCLE('',#337,14.5854591720589);
#310=CIRCLE('',#339,5.58546678006898);
#311=CIRCLE('',#341,5.58546678006898);
#312=CIRCLE('',#343,14.5854609988514);
#313=CIRCLE('',#345,5.58546996482912);
#314=CIRCLE('',#347,14.5854609988514);
#315=CIRCLE('',#350,7.7);
#316=CIRCLE('',#352,7.7);
#317=AXIS2_PLACEMENT_3D('',#437,#355,#356);
#318=AXIS2_PLACEMENT_3D('',#438,#357,#358);
#319=AXIS2_PLACEMENT_3D('',#440,#359,#360);
#320=AXIS2_PLACEMENT_3D('',#442,#361,#362);
#321=AXIS2_PLACEMENT_3D('',#443,#363,#364);
#322=AXIS2_PLACEMENT_3D('',#445,#365,#366);
#323=AXIS2_PLACEMENT_3D('',#446,#367,#368);
#324=AXIS2_PLACEMENT_3D('',#449,#369,#370);
#325=AXIS2_PLACEMENT_3D('',#451,#371,#372);
#326=AXIS2_PLACEMENT_3D('',#453,#373,#374);
#327=AXIS2_PLACEMENT_3D('',#455,#375,#376);
#328=AXIS2_PLACEMENT_3D('',#457,#377,#378);
#329=AXIS2_PLACEMENT_3D('',#458,#379,#380);
#330=AXIS2_PLACEMENT_3D('',#477,#381,#382);
#331=AXIS2_PLACEMENT_3D('',#478,#383,#384);
#332=AXIS2_PLACEMENT_3D('',#479,#385,#386);
#333=AXIS2_PLACEMENT_3D('',#481,#387,#388);
#334=AXIS2_PLACEMENT_3D('',#483,#389,#390);
#335=AXIS2_PLACEMENT_3D('',#484,#391,#392);
#336=AXIS2_PLACEMENT_3D('',#485,#393,#394);
#337=AXIS2_PLACEMENT_3D('',#490,#397,#398);
#338=AXIS2_PLACEMENT_3D('',#491,#399,#400);
#339=AXIS2_PLACEMENT_3D('',#492,#401,#402);
#340=AXIS2_PLACEMENT_3D('',#495,#404,#405);
#341=AXIS2_PLACEMENT_3D('',#496,#406,#407);
#342=AXIS2_PLACEMENT_3D('',#499,#409,#410);
#343=AXIS2_PLACEMENT_3D('',#500,#411,#412);
#344=AXIS2_PLACEMENT_3D('',#503,#414,#415);
#345=AXIS2_PLACEMENT_3D('',#504,#416,#417);
#346=AXIS2_PLACEMENT_3D('',#507,#419,#420);
#347=AXIS2_PLACEMENT_3D('',#508,#421,#422);
#348=AXIS2_PLACEMENT_3D('',#509,#423,#424);
#349=AXIS2_PLACEMENT_3D('',#510,#425,#426);
#350=AXIS2_PLACEMENT_3D('',#511,#427,#428);
#351=AXIS2_PLACEMENT_3D('',#513,#429,#430);
#352=AXIS2_PLACEMENT_3D('',#514,#431,#432);
#353=AXIS2_PLACEMENT_3D('',#516,#433,#434);
#354=AXIS2_PLACEMENT_3D('',#517,#435,#436);
#355=DIRECTION('',(0.0,0.0,1.0));
#356=DIRECTION('',(1.0,0.0,0.0));
#357=DIRECTION('',(0.0,0.0,1.0));
#358=DIRECTION('',(-1.0,0.0,0.0));
#359=DIRECTION('',(0.0,0.0,-1.0));
#360=DIRECTION('',(-1.0,0.0,0.0));
#361=DIRECTION('',(0.0,0.0,-1.0));
#362=DIRECTION('',(1.0,0.0,0.0));
#363=DIRECTION('',(0.0,0.0,-1.0));
#364=DIRECTION('',(-1.0,0.0,0.0));
#365=DIRECTION('',(0.0,0.0,-1.0));
#366=DIRECTION('',(1.0,0.0,0.0));
#367=DIRECTION('',(0.0,0.0,1.0));
#368=DIRECTION('',(1.0,0.0,0.0));
#369=DIRECTION('',(0.0,0.0,1.0));
#370=DIRECTION('',(1.0,0.0,0.0));
#371=DIRECTION('',(0.0,0.0,1.0));
#372=DIRECTION('',(1.0,0.0,0.0));
#373=DIRECTION('',(0.0,0.0,1.0));
#374=DIRECTION('',(1.0,0.0,0.0));
#375=DIRECTION('',(0.0,0.0,1.0));
#376=DIRECTION('',(1.0,0.0,0.0));
#377=DIRECTION('',(0.0,0.0,1.0));
#378=DIRECTION('',(1.0,0.0,0.0));
#379=DIRECTION('',(0.0,0.0,1.0));
#380=DIRECTION('',(-1.0,0.0,0.0));
#381=DIRECTION('',(0.0,0.0,-1.0));
#382=DIRECTION('',(-1.61726194475907E-13,1.0,0.0));
#383=DIRECTION('',(0.0,0.0,1.0));
#384=DIRECTION('',(0.0,-1.0,-6.05941333924035E-17));
#385=DIRECTION('',(-0.0732505293981271,0.997052233161759,-0.0228298990370784));
#386=DIRECTION('',(0.996878841868759,0.0738752372038326,0.0278392521896502));
#387=DIRECTION('',(0.0,-6.12303176911189E-17,-1.0));
#388=DIRECTION('',(-1.61726194475907E-13,1.0,0.0));
#389=DIRECTION('',(0.0732505293384454,0.997052233166181,-0.0228298990354594));
#390=DIRECTION('',(-0.996924503956327,0.0738421201572323,0.0262464226536937));
#391=DIRECTION('',(0.0,0.0,-1.0));
#392=DIRECTION('',(0.0,1.0,0.0));
#393=DIRECTION('',(0.0,-6.12303176911189E-17,-1.0));
#394=DIRECTION('',(0.0,-1.0,0.0));
#395=DIRECTION('',(0.0137754746237107,0.0210007227156388,0.99968455321882));
#396=DIRECTION('',(-0.0137754810594535,0.0210007184940963,0.99968455321882));
#397=DIRECTION('',(0.0,-6.12303176911189E-17,-1.0));
#398=DIRECTION('',(0.0,-1.0,0.0));
#399=DIRECTION('',(0.0,0.0,-1.0));
#400=DIRECTION('',(0.0,1.0,-1.32946274324873E-15));
#401=DIRECTION('',(0.0,-6.12303176911189E-17,-1.0));
#402=DIRECTION('',(0.866025250557684,-0.500000265396431,0.0));
#403=DIRECTION('',(-0.0250748958052459,0.00142956498407764,0.99968455321882));
#404=DIRECTION('',(0.0,0.0,-1.0));
#405=DIRECTION('',(0.0,1.0,-1.71390336281022E-15));
#406=DIRECTION('',(0.0,-6.12303176911189E-17,-1.0));
#407=DIRECTION('',(-0.866025250557684,-0.500000265396431,0.0));
#408=DIRECTION('',(0.025074896142823,0.00142955906288819,0.99968455321882));
#409=DIRECTION('',(0.0,0.0,-1.0));
#410=DIRECTION('',(0.0,1.0,-1.71390336281022E-15));
#411=DIRECTION('',(0.0,-6.12303176911189E-17,-1.0));
#412=DIRECTION('',(-0.866025438941074,0.499999939106917,0.0));
#413=DIRECTION('',(0.011299415183886,-0.0224302757938864,0.99968455321882));
#414=DIRECTION('',(0.0,0.0,-1.0));
#415=DIRECTION('',(0.0,1.0,-1.32946268271936E-15));
#416=DIRECTION('',(0.0,-6.12303176911189E-17,-1.0));
#417=DIRECTION('',(0.0,1.0,0.0));
#418=DIRECTION('',(-0.0112994167610325,-0.0224302749993875,0.99968455321882));
#419=DIRECTION('',(0.0,0.0,-1.0));
#420=DIRECTION('',(0.0,1.0,-1.71390318743268E-15));
#421=DIRECTION('',(0.0,-6.12303176911189E-17,-1.0));
#422=DIRECTION('',(0.866025438941074,0.499999939106917,0.0));
#423=DIRECTION('',(0.0,0.0,-1.0));
#424=DIRECTION('',(0.0,1.0,-1.32946268271936E-15));
#425=DIRECTION('',(0.0,6.12303176911189E-17,1.0));
#426=DIRECTION('',(0.0,-1.0,6.24500451351651E-17));
#427=DIRECTION('',(0.0,0.0,-1.0));
#428=DIRECTION('',(-1.0,0.0,0.0));
#429=DIRECTION('',(0.0,0.0,-1.0));
#430=DIRECTION('',(-1.0,0.0,0.0));
#431=DIRECTION('',(0.0,0.0,-1.0));
#432=DIRECTION('',(-1.0,0.0,0.0));
#433=DIRECTION('',(0.0,0.0,-1.0));
#434=DIRECTION('',(-1.0,0.0,0.0));
#435=DIRECTION('',(0.0,0.0,-1.0));
#436=DIRECTION('',(-1.0,0.0,0.0));
#437=CARTESIAN_POINT('',(0.0,0.0,0.0));
#438=CARTESIAN_POINT('',(0.0,0.0,-8.0));
#439=CARTESIAN_POINT('',(-12.7,0.0,-8.0));
#440=CARTESIAN_POINT('',(0.0,0.0,-8.0));
#441=CARTESIAN_POINT('',(-16.0,0.0,-8.0));
#442=CARTESIAN_POINT('',(0.0,9.8,-8.0));
#443=CARTESIAN_POINT('',(0.0,0.0,0.0));
#444=CARTESIAN_POINT('',(-16.0,0.0,0.0));
#445=CARTESIAN_POINT('',(0.0,0.0,0.0));
#446=CARTESIAN_POINT('',(0.0,5.69999693755837,0.0));
#447=CARTESIAN_POINT('',(2.72763808621137,11.1145830643131,0.0));
#448=CARTESIAN_POINT('',(-2.72763808621141,11.1145830643132,0.0));
#449=CARTESIAN_POINT('',(-4.04906126847029,-2.33772297897611,0.0));
#450=CARTESIAN_POINT('',(10.9893271560567,-3.19508265793908,0.0));
#451=CARTESIAN_POINT('',(4.9363421661785,-2.84999346877931,0.0));
#452=CARTESIAN_POINT('',(8.26169214283496,-7.91948667509894,0.0));
#453=CARTESIAN_POINT('',(0.0,4.67545595795221,0.0));
#454=CARTESIAN_POINT('',(-8.26169214283496,-7.91948667509894,0.0));
#455=CARTESIAN_POINT('',(-4.9363421661785,-2.84999346877931,0.0));
#456=CARTESIAN_POINT('',(-10.9893271560569,-3.19508265793909,0.0));
#457=CARTESIAN_POINT('',(4.04906126847029,-2.33772297897611,0.0));
#458=CARTESIAN_POINT('',(0.0,16.0,0.0));
#459=CARTESIAN_POINT('',(-2.39618612708319,-9.79714326415061,15.6499999032502));
#460=CARTESIAN_POINT('',(-2.00331720137683,-9.86966135647846,15.3565868608137));
#461=CARTESIAN_POINT('',(-1.58609308482355,-9.92963474367649,15.0813482514586));
#462=CARTESIAN_POINT('',(-1.13267424609166,-9.96964756358399,14.8851177469532));
#463=CARTESIAN_POINT('',(-0.855149967237543,-9.99413822881706,14.7650108510767));
#464=CARTESIAN_POINT('',(-0.558022452534415,-10.0111457323289,14.6756611830003));
#465=CARTESIAN_POINT('',(-0.256372881719714,-10.0172101334542,14.6437873074836));
#466=CARTESIAN_POINT('',(0.0477133341674203,-10.0233235212002,14.6116559632706));
#467=CARTESIAN_POINT('',(0.362692660528274,-10.018030986892,14.640379144012));
#468=CARTESIAN_POINT('',(0.657983793319142,-10.0028281340527,14.718547191473));
#469=CARTESIAN_POINT('',(1.05245685255108,-9.98251897064547,14.8229702011471));
#470=CARTESIAN_POINT('',(1.42486705052623,-9.9451373044954,15.0094394062076));
#471=CARTESIAN_POINT('',(1.77057992325868,-9.8977563121984,15.2219559296205));
#472=CARTESIAN_POINT('',(1.9862595101405,-9.86819677406521,15.3545384268038));
#473=CARTESIAN_POINT('',(2.19416074686883,-9.83443377738785,15.4991182757131));
#474=CARTESIAN_POINT('',(2.39618504191658,-9.79714294308971,15.6499995102631));
#475=CARTESIAN_POINT('',(-2.39618612708319,-9.79714326415061,15.6499999032502));
#476=CARTESIAN_POINT('',(2.39618504191658,-9.79714294308971,15.6499995102631));
#477=CARTESIAN_POINT('',(0.0,-13.0,15.65));
#478=CARTESIAN_POINT('',(0.0,-13.0,13.65));
#479=CARTESIAN_POINT('',(-2094.31096897581,-165.100078733755,-39.5508321189835));
#480=CARTESIAN_POINT('',(2.30015102129197,-9.72749250890858,19.0));
#481=CARTESIAN_POINT('',(0.0,-13.0,19.0));
#482=CARTESIAN_POINT('',(-2.30015102129197,-9.72749250890858,19.0));
#483=CARTESIAN_POINT('',(2094.31096904575,-165.100078612714,-39.550832123505));
#484=CARTESIAN_POINT('',(0.0,-13.0,19.0));
#485=CARTESIAN_POINT('',(0.0,4.67545595795221,19.0));
#486=CARTESIAN_POINT('',(-7.9998729465036,-7.52034873462951,19.0));
#487=CARTESIAN_POINT('',(-8.22724,-7.86697,2.5));
#488=CARTESIAN_POINT('',(8.22724,-7.86697,2.5));
#489=CARTESIAN_POINT('',(7.99987284028034,-7.52034880430694,19.0));
#490=CARTESIAN_POINT('',(0.0,4.67545595795221,19.0));
#491=CARTESIAN_POINT('',(0.0,4.67545595795221,2.5));
#492=CARTESIAN_POINT('',(4.9363421661785,-2.84999346877931,19.0));
#493=CARTESIAN_POINT('',(10.5127536664107,-3.16791473471223,19.0));
#494=CARTESIAN_POINT('',(10.92662,-3.19151,2.5));
#495=CARTESIAN_POINT('',(4.9363421661785,-2.84999346877931,2.5));
#496=CARTESIAN_POINT('',(-4.9363421661785,-2.84999346877931,19.0));
#497=CARTESIAN_POINT('',(-10.5127536608389,-3.16791483244269,19.0));
#498=CARTESIAN_POINT('',(-10.92662,-3.19151,2.5));
#499=CARTESIAN_POINT('',(-4.9363421661785,-2.84999346877931,2.5));
#500=CARTESIAN_POINT('',(4.04906126847029,-2.33772297897611,19.0));
#501=CARTESIAN_POINT('',(-2.51288081889951,10.6882736658499,19.0));
#502=CARTESIAN_POINT('',(-2.69938,11.05849,2.5));
#503=CARTESIAN_POINT('',(4.04906126847029,-2.33772297897611,2.5));
#504=CARTESIAN_POINT('',(0.0,5.69999693755836,19.0));
#505=CARTESIAN_POINT('',(2.51288079286838,10.6882736789633,19.0));
#506=CARTESIAN_POINT('',(2.69938,11.05849,2.5));
#507=CARTESIAN_POINT('',(0.0,5.69999693755837,2.5));
#508=CARTESIAN_POINT('',(-4.04906126847029,-2.33772297897611,19.0));
#509=CARTESIAN_POINT('',(-4.04906126847029,-2.33772297897611,2.5));
#510=CARTESIAN_POINT('',(0.0,4.11258836697792E-6,19.0));
#511=CARTESIAN_POINT('',(0.0,0.0,-27.0));
#512=CARTESIAN_POINT('',(-7.7,0.0,-27.0));
#513=CARTESIAN_POINT('',(0.0,0.0,-27.0));
#514=CARTESIAN_POINT('',(0.0,0.0,-13.0));
#515=CARTESIAN_POINT('',(-7.7,0.0,-13.0));
#516=CARTESIAN_POINT('',(0.0,0.0,-8.0));
#517=CARTESIAN_POINT('',(0.0,0.0,-13.0));
#518=MECHANICAL_DESIGN_GEOMETRIC_PRESENTATION_REPRESENTATION('',(#94),#519);
#519=(GEOMETRIC_REPRESENTATION_CONTEXT(3)GLOBAL_UNCERTAINTY_ASSIGNED_CONTEXT((#520))
     GLOBAL_UNIT_ASSIGNED_CONTEXT((#526,#522,#521))REPRESENTATION_CONTEXT('C3_391_EH_16027_SIM',
     'TOP_LEVEL_ASSEMBLY_PART'));
#520=UNCERTAINTY_MEASURE_WITH_UNIT(LENGTH_MEASURE(0.0508),#526,'DISTANCE_ACCURACY_VALUE',
     'Maximum Tolerance applied to model');
#521=(NAMED_UNIT(*)SI_UNIT($,.STERADIAN.)SOLID_ANGLE_UNIT());
#522=(CONVERSION_BASED_UNIT('DEGREE',#524)NAMED_UNIT(*)PLANE_ANGLE_UNIT());
#523=DIMENSIONAL_EXPONENTS(0.0,0.0,0.0,0.0,0.0,0.0,0.0);
#524=PLANE_ANGLE_MEASURE_WITH_UNIT(PLANE_ANGLE_MEASURE(0.0174532925),#525);
#525=(NAMED_UNIT(*)PLANE_ANGLE_UNIT()SI_UNIT($,.RADIAN.));
#526=(LENGTH_UNIT()NAMED_UNIT(*)SI_UNIT(.MILLI.,.METRE.));
#527=CARTESIAN_POINT('',(0.0,0.0,0.0));
#528=DIRECTION('',(0.0,0.0,1.0));
#529=DIRECTION('',(1.0,0.0,0.0));
#530=AXIS2_PLACEMENT_3D('PCS',#527,#528,#529);
#531=CARTESIAN_POINT('',(0.0,0.0,0.0));
#532=DIRECTION('',(0.0,0.0,1.0));
#533=DIRECTION('',(1.0,0.0,0.0));
#534=AXIS2_PLACEMENT_3D('MCS',#531,#532,#533);
#535=CARTESIAN_POINT('',(0.0,0.0,-27.0));
#536=DIRECTION('',(0.0,0.0,1.0));
#537=DIRECTION('',(1.0,0.0,0.0));
#538=AXIS2_PLACEMENT_3D('CSW',#535,#536,#537);
#539=CONSTRUCTIVE_GEOMETRY_REPRESENTATION('supplemental geometry',(#530,#534,#538),
     #519);
#540=CONSTRUCTIVE_GEOMETRY_REPRESENTATION_RELATIONSHIP('supplemental geometry',$,
     #92,#539);
ENDSEC;
END-ISO-10303-21;
