ISO-10303-21;
HEADER;
FILE_DESCRIPTION(
/* description */ ('3-D model version:1'),
/* implementation_level */ '2;1');
FILE_NAME(
/* name */ 'C3-391.EH-12132',
/* time_stamp */ '2016-12-02T13:57:34',
/* author */ ('InteractiveCad'),
/* organization */ ('AB Sandvik Coromant'),
/* preprocessor_version */ 'ST-DEVELOPER v11',
/* originating_system */ 'SIEMENS UGS NX 6.0',
/* authorization */ '');
FILE_SCHEMA(('AUTOMOTIVE_DESIGN'));
ENDSEC;
DATA;
#10=SHAPE_REPRESENTATION_RELATIONSHIP('None','relationship between ds68DC2Drqd2-None and ds68DC2Drqd2-None',
     #22,#11);
#11=ADVANCED_BREP_SHAPE_REPRESENTATION('ds68DC2Drqd2-None',(#32),#409);
#12=SHAPE_DEFINITION_REPRESENTATION(#13,#22);
#13=PRODUCT_DEFINITION_SHAPE('','',#14);
#14=PRODUCT_DEFINITION(' ','',#16,#15);
#15=PRODUCT_DEFINITION_CONTEXT('part definition',#21,'design');
#16=PRODUCT_DEFINITION_FORMATION_WITH_SPECIFIED_SOURCE(' ',' ',#18,.NOT_KNOWN.);
#17=PRODUCT_RELATED_PRODUCT_CATEGORY('part','',(#18));
#18=PRODUCT('ds68DC2Drqd2','ds68DC2Drqd2',' ',(#19));
#19=PRODUCT_CONTEXT(' ',#21,'mechanical');
#20=APPLICATION_PROTOCOL_DEFINITION('international standard','automotive_design',
     2001,#21);
#21=APPLICATION_CONTEXT('core data for automotive mechanical design processes');
#22=SHAPE_REPRESENTATION('ds68DC2Drqd2-None',(#225),#409);
#23=PRESENTATION_LAYER_ASSIGNMENT('1','Layer 1',(#32));
#24=STYLED_ITEM('',(#25),#32);
#25=PRESENTATION_STYLE_ASSIGNMENT((#26));
#26=SURFACE_STYLE_USAGE(.BOTH.,#27);
#27=SURFACE_SIDE_STYLE('',(#28));
#28=SURFACE_STYLE_FILL_AREA(#29);
#29=FILL_AREA_STYLE('',(#30));
#30=FILL_AREA_STYLE_COLOUR('',#31);
#31=COLOUR_RGB('Medium Gray',0.490196078431373,0.490196078431373,0.490196078431373);
#32=MANIFOLD_SOLID_BREP('NOCUT',#33);
#33=CLOSED_SHELL('',(#67,#68,#69,#70,#71,#72,#73,#74,#75,#76,#77,#78,#79));
#34=LINE('',#384,#40);
#35=LINE('',#385,#41);
#36=LINE('',#391,#42);
#37=LINE('',#395,#43);
#38=LINE('',#399,#44);
#39=LINE('',#403,#45);
#40=VECTOR('',#301,1.0);
#41=VECTOR('',#302,1.0);
#42=VECTOR('',#309,1.0);
#43=VECTOR('',#314,1.0);
#44=VECTOR('',#319,1.0);
#45=VECTOR('',#324,1.0);
#46=B_SPLINE_CURVE_WITH_KNOTS('',3,(#356,#357,#358,#359,#360,#361,#362,#363,#364,
     #365,#366,#367,#368,#369,#370,#371),.UNSPECIFIED.,.F.,.F.,(4,3,3,3,3,4),(0.0,
     0.2800596981137,0.451536062893216,0.625138107805911,0.856610091405707,1.0),
     .UNSPECIFIED.);
#47=FACE_OUTER_BOUND('',#95,.T.);
#48=FACE_OUTER_BOUND('',#96,.T.);
#49=FACE_OUTER_BOUND('',#97,.T.);
#50=FACE_OUTER_BOUND('',#98,.T.);
#51=FACE_OUTER_BOUND('',#99,.T.);
#52=FACE_OUTER_BOUND('',#100,.T.);
#53=FACE_OUTER_BOUND('',#101,.T.);
#54=FACE_OUTER_BOUND('',#102,.T.);
#55=FACE_OUTER_BOUND('',#103,.T.);
#56=FACE_OUTER_BOUND('',#104,.T.);
#57=CONICAL_SURFACE('',#237,16.0,4.98241959037582);
#58=CONICAL_SURFACE('',#240,2.0,45.0);
#59=CONICAL_SURFACE('',#247,14.9999975642769,1.43916999999995);
#60=CONICAL_SURFACE('',#249,6.00000517228696,1.43916999999995);
#61=CONICAL_SURFACE('',#251,6.00000517228696,1.43916999999995);
#62=CONICAL_SURFACE('',#253,14.9999993910693,1.43916999999995);
#63=CONICAL_SURFACE('',#255,6.00000835704711,1.43916999999995);
#64=CONICAL_SURFACE('',#257,14.9999993910693,1.43916999999995);
#65=CYLINDRICAL_SURFACE('',#235,16.0);
#66=CYLINDRICAL_SURFACE('',#244,4.0);
#67=ADVANCED_FACE('',(#83,#84),#80,.F.);
#68=ADVANCED_FACE('',(#85,#86),#65,.T.);
#69=ADVANCED_FACE('',(#87,#88),#57,.T.);
#70=ADVANCED_FACE('',(#47),#81,.F.);
#71=ADVANCED_FACE('',(#48),#58,.F.);
#72=ADVANCED_FACE('',(#49),#66,.F.);
#73=ADVANCED_FACE('',(#50),#59,.T.);
#74=ADVANCED_FACE('',(#51),#60,.T.);
#75=ADVANCED_FACE('',(#52),#61,.T.);
#76=ADVANCED_FACE('',(#53),#62,.T.);
#77=ADVANCED_FACE('',(#54),#63,.T.);
#78=ADVANCED_FACE('',(#55),#64,.T.);
#79=ADVANCED_FACE('',(#56),#82,.T.);
#80=PLANE('',#233);
#81=PLANE('',#238);
#82=PLANE('',#258);
#83=FACE_BOUND('',#89,.T.);
#84=FACE_BOUND('',#90,.T.);
#85=FACE_BOUND('',#91,.T.);
#86=FACE_BOUND('',#92,.T.);
#87=FACE_BOUND('',#93,.T.);
#88=FACE_BOUND('',#94,.T.);
#89=EDGE_LOOP('',(#105));
#90=EDGE_LOOP('',(#106,#107,#108,#109,#110,#111));
#91=EDGE_LOOP('',(#112));
#92=EDGE_LOOP('',(#113));
#93=EDGE_LOOP('',(#114));
#94=EDGE_LOOP('',(#115));
#95=EDGE_LOOP('',(#116));
#96=EDGE_LOOP('',(#117,#118));
#97=EDGE_LOOP('',(#119,#120,#121,#122));
#98=EDGE_LOOP('',(#123,#124,#125,#126,#127,#128,#129,#130));
#99=EDGE_LOOP('',(#131,#132,#133,#134));
#100=EDGE_LOOP('',(#135,#136,#137,#138));
#101=EDGE_LOOP('',(#139,#140,#141,#142));
#102=EDGE_LOOP('',(#143,#144,#145,#146));
#103=EDGE_LOOP('',(#147,#148,#149,#150));
#104=EDGE_LOOP('',(#151,#152,#153,#154,#155,#156,#157,#158));
#105=ORIENTED_EDGE('',*,*,#178,.F.);
#106=ORIENTED_EDGE('',*,*,#179,.F.);
#107=ORIENTED_EDGE('',*,*,#180,.F.);
#108=ORIENTED_EDGE('',*,*,#181,.F.);
#109=ORIENTED_EDGE('',*,*,#182,.F.);
#110=ORIENTED_EDGE('',*,*,#183,.F.);
#111=ORIENTED_EDGE('',*,*,#184,.F.);
#112=ORIENTED_EDGE('',*,*,#185,.F.);
#113=ORIENTED_EDGE('',*,*,#178,.T.);
#114=ORIENTED_EDGE('',*,*,#186,.F.);
#115=ORIENTED_EDGE('',*,*,#185,.T.);
#116=ORIENTED_EDGE('',*,*,#186,.T.);
#117=ORIENTED_EDGE('',*,*,#187,.T.);
#118=ORIENTED_EDGE('',*,*,#188,.F.);
#119=ORIENTED_EDGE('',*,*,#189,.F.);
#120=ORIENTED_EDGE('',*,*,#190,.F.);
#121=ORIENTED_EDGE('',*,*,#191,.F.);
#122=ORIENTED_EDGE('',*,*,#188,.T.);
#123=ORIENTED_EDGE('',*,*,#189,.T.);
#124=ORIENTED_EDGE('',*,*,#187,.F.);
#125=ORIENTED_EDGE('',*,*,#191,.T.);
#126=ORIENTED_EDGE('',*,*,#192,.T.);
#127=ORIENTED_EDGE('',*,*,#193,.F.);
#128=ORIENTED_EDGE('',*,*,#182,.T.);
#129=ORIENTED_EDGE('',*,*,#194,.T.);
#130=ORIENTED_EDGE('',*,*,#195,.T.);
#131=ORIENTED_EDGE('',*,*,#196,.T.);
#132=ORIENTED_EDGE('',*,*,#194,.F.);
#133=ORIENTED_EDGE('',*,*,#181,.T.);
#134=ORIENTED_EDGE('',*,*,#197,.T.);
#135=ORIENTED_EDGE('',*,*,#198,.T.);
#136=ORIENTED_EDGE('',*,*,#199,.F.);
#137=ORIENTED_EDGE('',*,*,#183,.T.);
#138=ORIENTED_EDGE('',*,*,#193,.T.);
#139=ORIENTED_EDGE('',*,*,#200,.T.);
#140=ORIENTED_EDGE('',*,*,#201,.F.);
#141=ORIENTED_EDGE('',*,*,#184,.T.);
#142=ORIENTED_EDGE('',*,*,#199,.T.);
#143=ORIENTED_EDGE('',*,*,#202,.T.);
#144=ORIENTED_EDGE('',*,*,#203,.F.);
#145=ORIENTED_EDGE('',*,*,#179,.T.);
#146=ORIENTED_EDGE('',*,*,#201,.T.);
#147=ORIENTED_EDGE('',*,*,#204,.T.);
#148=ORIENTED_EDGE('',*,*,#197,.F.);
#149=ORIENTED_EDGE('',*,*,#180,.T.);
#150=ORIENTED_EDGE('',*,*,#203,.T.);
#151=ORIENTED_EDGE('',*,*,#190,.T.);
#152=ORIENTED_EDGE('',*,*,#195,.F.);
#153=ORIENTED_EDGE('',*,*,#196,.F.);
#154=ORIENTED_EDGE('',*,*,#204,.F.);
#155=ORIENTED_EDGE('',*,*,#202,.F.);
#156=ORIENTED_EDGE('',*,*,#200,.F.);
#157=ORIENTED_EDGE('',*,*,#198,.F.);
#158=ORIENTED_EDGE('',*,*,#192,.F.);
#159=VERTEX_POINT('',#335);
#160=VERTEX_POINT('',#337);
#161=VERTEX_POINT('',#338);
#162=VERTEX_POINT('',#340);
#163=VERTEX_POINT('',#342);
#164=VERTEX_POINT('',#344);
#165=VERTEX_POINT('',#346);
#166=VERTEX_POINT('',#350);
#167=VERTEX_POINT('',#353);
#168=VERTEX_POINT('',#372);
#169=VERTEX_POINT('',#373);
#170=VERTEX_POINT('',#377);
#171=VERTEX_POINT('',#379);
#172=VERTEX_POINT('',#383);
#173=VERTEX_POINT('',#386);
#174=VERTEX_POINT('',#390);
#175=VERTEX_POINT('',#394);
#176=VERTEX_POINT('',#398);
#177=VERTEX_POINT('',#402);
#178=EDGE_CURVE('',#159,#159,#205,.T.);
#179=EDGE_CURVE('',#160,#161,#206,.T.);
#180=EDGE_CURVE('',#162,#160,#207,.T.);
#181=EDGE_CURVE('',#163,#162,#208,.T.);
#182=EDGE_CURVE('',#164,#163,#209,.T.);
#183=EDGE_CURVE('',#165,#164,#210,.T.);
#184=EDGE_CURVE('',#161,#165,#211,.T.);
#185=EDGE_CURVE('',#166,#166,#212,.T.);
#186=EDGE_CURVE('',#167,#167,#213,.T.);
#187=EDGE_CURVE('',#168,#169,#46,.T.);
#188=EDGE_CURVE('',#168,#169,#214,.T.);
#189=EDGE_CURVE('',#170,#169,#215,.T.);
#190=EDGE_CURVE('',#171,#170,#216,.T.);
#191=EDGE_CURVE('',#168,#171,#217,.T.);
#192=EDGE_CURVE('',#171,#172,#218,.T.);
#193=EDGE_CURVE('',#164,#172,#34,.T.);
#194=EDGE_CURVE('',#163,#173,#35,.T.);
#195=EDGE_CURVE('',#173,#170,#219,.T.);
#196=EDGE_CURVE('',#174,#173,#220,.T.);
#197=EDGE_CURVE('',#162,#174,#36,.T.);
#198=EDGE_CURVE('',#172,#175,#221,.T.);
#199=EDGE_CURVE('',#165,#175,#37,.T.);
#200=EDGE_CURVE('',#175,#176,#222,.T.);
#201=EDGE_CURVE('',#161,#176,#38,.T.);
#202=EDGE_CURVE('',#176,#177,#223,.T.);
#203=EDGE_CURVE('',#160,#177,#39,.T.);
#204=EDGE_CURVE('',#177,#174,#224,.T.);
#205=CIRCLE('',#226,16.0);
#206=CIRCLE('',#227,6.06281720435286);
#207=CIRCLE('',#228,15.0628082383751);
#208=CIRCLE('',#229,6.06281401959271);
#209=CIRCLE('',#230,15.0628064115827);
#210=CIRCLE('',#231,6.06281401959271);
#211=CIRCLE('',#232,15.0628082383751);
#212=CIRCLE('',#234,16.0);
#213=CIRCLE('',#236,5.8);
#214=CIRCLE('',#239,4.0);
#215=CIRCLE('',#241,2103.17546319548);
#216=CIRCLE('',#242,4.0);
#217=CIRCLE('',#243,2103.17546325638);
#218=CIRCLE('',#245,14.5854591720589);
#219=CIRCLE('',#246,14.5854591720589);
#220=CIRCLE('',#248,5.58546678006898);
#221=CIRCLE('',#250,5.58546678006898);
#222=CIRCLE('',#252,14.5854609988514);
#223=CIRCLE('',#254,5.58546996482912);
#224=CIRCLE('',#256,14.5854609988514);
#225=AXIS2_PLACEMENT_3D('',#333,#259,#260);
#226=AXIS2_PLACEMENT_3D('',#334,#261,#262);
#227=AXIS2_PLACEMENT_3D('',#336,#263,#264);
#228=AXIS2_PLACEMENT_3D('',#339,#265,#266);
#229=AXIS2_PLACEMENT_3D('',#341,#267,#268);
#230=AXIS2_PLACEMENT_3D('',#343,#269,#270);
#231=AXIS2_PLACEMENT_3D('',#345,#271,#272);
#232=AXIS2_PLACEMENT_3D('',#347,#273,#274);
#233=AXIS2_PLACEMENT_3D('',#348,#275,#276);
#234=AXIS2_PLACEMENT_3D('',#349,#277,#278);
#235=AXIS2_PLACEMENT_3D('',#351,#279,#280);
#236=AXIS2_PLACEMENT_3D('',#352,#281,#282);
#237=AXIS2_PLACEMENT_3D('',#354,#283,#284);
#238=AXIS2_PLACEMENT_3D('',#355,#285,#286);
#239=AXIS2_PLACEMENT_3D('',#374,#287,#288);
#240=AXIS2_PLACEMENT_3D('',#375,#289,#290);
#241=AXIS2_PLACEMENT_3D('',#376,#291,#292);
#242=AXIS2_PLACEMENT_3D('',#378,#293,#294);
#243=AXIS2_PLACEMENT_3D('',#380,#295,#296);
#244=AXIS2_PLACEMENT_3D('',#381,#297,#298);
#245=AXIS2_PLACEMENT_3D('',#382,#299,#300);
#246=AXIS2_PLACEMENT_3D('',#387,#303,#304);
#247=AXIS2_PLACEMENT_3D('',#388,#305,#306);
#248=AXIS2_PLACEMENT_3D('',#389,#307,#308);
#249=AXIS2_PLACEMENT_3D('',#392,#310,#311);
#250=AXIS2_PLACEMENT_3D('',#393,#312,#313);
#251=AXIS2_PLACEMENT_3D('',#396,#315,#316);
#252=AXIS2_PLACEMENT_3D('',#397,#317,#318);
#253=AXIS2_PLACEMENT_3D('',#400,#320,#321);
#254=AXIS2_PLACEMENT_3D('',#401,#322,#323);
#255=AXIS2_PLACEMENT_3D('',#404,#325,#326);
#256=AXIS2_PLACEMENT_3D('',#405,#327,#328);
#257=AXIS2_PLACEMENT_3D('',#406,#329,#330);
#258=AXIS2_PLACEMENT_3D('',#407,#331,#332);
#259=DIRECTION('',(0.0,0.0,1.0));
#260=DIRECTION('',(1.0,0.0,0.0));
#261=DIRECTION('',(0.0,0.0,-1.0));
#262=DIRECTION('',(-1.0,0.0,0.0));
#263=DIRECTION('',(0.0,0.0,1.0));
#264=DIRECTION('',(1.0,0.0,0.0));
#265=DIRECTION('',(0.0,0.0,1.0));
#266=DIRECTION('',(1.0,0.0,0.0));
#267=DIRECTION('',(0.0,0.0,1.0));
#268=DIRECTION('',(1.0,0.0,0.0));
#269=DIRECTION('',(0.0,0.0,1.0));
#270=DIRECTION('',(1.0,0.0,0.0));
#271=DIRECTION('',(0.0,0.0,1.0));
#272=DIRECTION('',(1.0,0.0,0.0));
#273=DIRECTION('',(0.0,0.0,1.0));
#274=DIRECTION('',(1.0,0.0,0.0));
#275=DIRECTION('',(0.0,0.0,-1.0));
#276=DIRECTION('',(-1.0,0.0,0.0));
#277=DIRECTION('',(0.0,0.0,-1.0));
#278=DIRECTION('',(-1.0,0.0,0.0));
#279=DIRECTION('',(0.0,0.0,-1.0));
#280=DIRECTION('',(-1.0,0.0,0.0));
#281=DIRECTION('',(0.0,0.0,-1.0));
#282=DIRECTION('',(-1.0,0.0,0.0));
#283=DIRECTION('',(0.0,0.0,1.0));
#284=DIRECTION('',(1.0,0.0,1.68126778238309E-17));
#285=DIRECTION('',(0.0,0.0,1.0));
#286=DIRECTION('',(1.0,0.0,0.0));
#287=DIRECTION('',(0.0,0.0,-1.0));
#288=DIRECTION('',(-1.61726194475907E-13,1.0,0.0));
#289=DIRECTION('',(0.0,0.0,1.0));
#290=DIRECTION('',(0.0,1.0,-6.05941333924034E-17));
#291=DIRECTION('',(-0.0732505293981271,0.997052233161759,-0.0228298990370784));
#292=DIRECTION('',(0.996878841868759,0.0738752372038326,0.0278392521896502));
#293=DIRECTION('',(0.0,-6.12303176911189E-17,-1.0));
#294=DIRECTION('',(-1.61726194475907E-13,1.0,0.0));
#295=DIRECTION('',(0.0732505293384454,0.997052233166181,-0.0228298990354594));
#296=DIRECTION('',(-0.996924503956327,0.0738421201572323,0.0262464226536937));
#297=DIRECTION('',(0.0,0.0,-1.0));
#298=DIRECTION('',(0.0,-1.0,0.0));
#299=DIRECTION('',(0.0,-6.12303176911189E-17,-1.0));
#300=DIRECTION('',(0.0,-1.0,0.0));
#301=DIRECTION('',(0.0137754746237107,0.0210007227156388,0.99968455321882));
#302=DIRECTION('',(-0.0137754810594535,0.0210007184940963,0.99968455321882));
#303=DIRECTION('',(0.0,-6.12303176911189E-17,-1.0));
#304=DIRECTION('',(0.0,-1.0,0.0));
#305=DIRECTION('',(0.0,0.0,-1.0));
#306=DIRECTION('',(0.0,-1.0,-1.32946274324873E-15));
#307=DIRECTION('',(0.0,-6.12303176911189E-17,-1.0));
#308=DIRECTION('',(0.866025250557684,-0.500000265396431,0.0));
#309=DIRECTION('',(-0.0250748958052459,0.00142956498407764,0.99968455321882));
#310=DIRECTION('',(0.0,0.0,-1.0));
#311=DIRECTION('',(0.0,-1.0,-1.71390336281022E-15));
#312=DIRECTION('',(0.0,-6.12303176911189E-17,-1.0));
#313=DIRECTION('',(-0.866025250557684,-0.500000265396431,0.0));
#314=DIRECTION('',(0.025074896142823,0.00142955906288819,0.99968455321882));
#315=DIRECTION('',(0.0,0.0,-1.0));
#316=DIRECTION('',(0.0,-1.0,-1.71390336281022E-15));
#317=DIRECTION('',(0.0,-6.12303176911189E-17,-1.0));
#318=DIRECTION('',(-0.866025438941074,0.499999939106917,0.0));
#319=DIRECTION('',(0.011299415183886,-0.0224302757938864,0.99968455321882));
#320=DIRECTION('',(0.0,0.0,-1.0));
#321=DIRECTION('',(0.0,-1.0,-1.32946268271937E-15));
#322=DIRECTION('',(0.0,-6.12303176911189E-17,-1.0));
#323=DIRECTION('',(0.0,1.0,0.0));
#324=DIRECTION('',(-0.0112994167610325,-0.0224302749993875,0.99968455321882));
#325=DIRECTION('',(0.0,0.0,-1.0));
#326=DIRECTION('',(0.0,-1.0,-1.71390318743268E-15));
#327=DIRECTION('',(0.0,-6.12303176911189E-17,-1.0));
#328=DIRECTION('',(0.866025438941074,0.499999939106917,0.0));
#329=DIRECTION('',(0.0,0.0,-1.0));
#330=DIRECTION('',(0.0,-1.0,-1.32946268271937E-15));
#331=DIRECTION('',(0.0,6.12303176911189E-17,1.0));
#332=DIRECTION('',(0.0,1.0,-6.24500451351651E-17));
#333=CARTESIAN_POINT('',(0.0,0.0,0.0));
#334=CARTESIAN_POINT('',(0.0,0.0,0.0));
#335=CARTESIAN_POINT('',(-16.0,0.0,0.0));
#336=CARTESIAN_POINT('',(0.0,5.69999693755837,0.0));
#337=CARTESIAN_POINT('',(2.72763808621137,11.1145830643131,0.0));
#338=CARTESIAN_POINT('',(-2.72763808621141,11.1145830643132,0.0));
#339=CARTESIAN_POINT('',(-4.04906126847029,-2.33772297897611,0.0));
#340=CARTESIAN_POINT('',(10.9893271560567,-3.19508265793908,0.0));
#341=CARTESIAN_POINT('',(4.9363421661785,-2.84999346877931,0.0));
#342=CARTESIAN_POINT('',(8.26169214283496,-7.91948667509894,0.0));
#343=CARTESIAN_POINT('',(0.0,4.67545595795221,0.0));
#344=CARTESIAN_POINT('',(-8.26169214283496,-7.91948667509894,0.0));
#345=CARTESIAN_POINT('',(-4.9363421661785,-2.84999346877931,0.0));
#346=CARTESIAN_POINT('',(-10.9893271560569,-3.19508265793909,0.0));
#347=CARTESIAN_POINT('',(4.04906126847029,-2.33772297897611,0.0));
#348=CARTESIAN_POINT('',(0.0,-10.3873504536305,0.0));
#349=CARTESIAN_POINT('',(0.0,0.0,-15.0));
#350=CARTESIAN_POINT('',(-16.0,0.0,-15.0));
#351=CARTESIAN_POINT('',(0.0,0.0,0.0));
#352=CARTESIAN_POINT('',(0.0,0.0,-132.0));
#353=CARTESIAN_POINT('',(-5.8,0.0,-132.0));
#354=CARTESIAN_POINT('',(0.0,0.0,-15.0));
#355=CARTESIAN_POINT('',(0.0,-5.8,-132.0));
#356=CARTESIAN_POINT('',(-2.39618604874524,-9.79714323120858,15.6499998826993));
#357=CARTESIAN_POINT('',(-2.00331713081758,-9.86966132085557,15.3565868511301));
#358=CARTESIAN_POINT('',(-1.58609304299647,-9.92963474847536,15.0813482286711));
#359=CARTESIAN_POINT('',(-1.13267421436881,-9.96964756638343,14.8851177332242));
#360=CARTESIAN_POINT('',(-0.855149936338882,-9.99413823086574,14.7650108405723));
#361=CARTESIAN_POINT('',(-0.558022422546713,-10.0111457336003,14.6756611763462));
#362=CARTESIAN_POINT('',(-0.256372853433768,-10.0172101340229,14.6437873044947));
#363=CARTESIAN_POINT('',(0.0477133605717466,-10.0233235210571,14.6116559639942));
#364=CARTESIAN_POINT('',(0.362692684039951,-10.0180309861578,14.6403791479113));
#365=CARTESIAN_POINT('',(0.657983814037701,-10.002828132986,14.7185471969575));
#366=CARTESIAN_POINT('',(1.05245687815543,-9.9825189686909,14.8229702110304));
#367=CARTESIAN_POINT('',(1.4248670799825,-9.94513730132958,15.0094394215042));
#368=CARTESIAN_POINT('',(1.77057995637259,-9.89775630766004,15.2219559499763));
#369=CARTESIAN_POINT('',(1.98625942966532,-9.86819678455104,15.3545383790877));
#370=CARTESIAN_POINT('',(2.19416045075317,-9.83443358786154,15.4991182567267));
#371=CARTESIAN_POINT('',(2.3961846453786,-9.79714277634108,15.6499994062366));
#372=CARTESIAN_POINT('',(-2.39618604874524,-9.79714323120858,15.6499998826993));
#373=CARTESIAN_POINT('',(2.3961846453786,-9.79714277634108,15.6499994062366));
#374=CARTESIAN_POINT('',(0.0,-13.0,15.65));
#375=CARTESIAN_POINT('',(0.0,-13.0,13.65));
#376=CARTESIAN_POINT('',(-2094.31096897581,-165.100078733755,-39.5508321189835));
#377=CARTESIAN_POINT('',(2.30015102129197,-9.72749250890858,19.0));
#378=CARTESIAN_POINT('',(0.0,-13.0,19.0));
#379=CARTESIAN_POINT('',(-2.30015102129197,-9.72749250890858,19.0));
#380=CARTESIAN_POINT('',(2094.31096904575,-165.100078612714,-39.550832123505));
#381=CARTESIAN_POINT('',(0.0,-13.0,19.0));
#382=CARTESIAN_POINT('',(0.0,4.67545595795221,19.0));
#383=CARTESIAN_POINT('',(-7.9998729465036,-7.52034873462951,19.0));
#384=CARTESIAN_POINT('',(-8.22724,-7.86697,2.5));
#385=CARTESIAN_POINT('',(8.22724,-7.86697,2.5));
#386=CARTESIAN_POINT('',(7.99987284028034,-7.52034880430694,19.0));
#387=CARTESIAN_POINT('',(0.0,4.67545595795221,19.0));
#388=CARTESIAN_POINT('',(0.0,4.67545595795221,2.5));
#389=CARTESIAN_POINT('',(4.9363421661785,-2.84999346877931,19.0));
#390=CARTESIAN_POINT('',(10.5127536664107,-3.16791473471223,19.0));
#391=CARTESIAN_POINT('',(10.92662,-3.19151,2.5));
#392=CARTESIAN_POINT('',(4.9363421661785,-2.84999346877931,2.5));
#393=CARTESIAN_POINT('',(-4.9363421661785,-2.84999346877931,19.0));
#394=CARTESIAN_POINT('',(-10.5127536608389,-3.16791483244269,19.0));
#395=CARTESIAN_POINT('',(-10.92662,-3.19151,2.5));
#396=CARTESIAN_POINT('',(-4.9363421661785,-2.84999346877931,2.5));
#397=CARTESIAN_POINT('',(4.04906126847029,-2.33772297897611,19.0));
#398=CARTESIAN_POINT('',(-2.51288081889951,10.6882736658499,19.0));
#399=CARTESIAN_POINT('',(-2.69938,11.05849,2.5));
#400=CARTESIAN_POINT('',(4.04906126847029,-2.33772297897611,2.5));
#401=CARTESIAN_POINT('',(0.0,5.69999693755836,19.0));
#402=CARTESIAN_POINT('',(2.51288079286838,10.6882736789633,19.0));
#403=CARTESIAN_POINT('',(2.69938,11.05849,2.5));
#404=CARTESIAN_POINT('',(0.0,5.69999693755837,2.5));
#405=CARTESIAN_POINT('',(-4.04906126847029,-2.33772297897611,19.0));
#406=CARTESIAN_POINT('',(-4.04906126847029,-2.33772297897611,2.5));
#407=CARTESIAN_POINT('',(0.0,4.11258836697792E-6,19.0));
#408=MECHANICAL_DESIGN_GEOMETRIC_PRESENTATION_REPRESENTATION('',(#24),#409);
#409=(GEOMETRIC_REPRESENTATION_CONTEXT(3)GLOBAL_UNCERTAINTY_ASSIGNED_CONTEXT((#410))
     GLOBAL_UNIT_ASSIGNED_CONTEXT((#416,#412,#411))REPRESENTATION_CONTEXT('C3-391',
     'TOP_LEVEL_ASSEMBLY_PART'));
#410=UNCERTAINTY_MEASURE_WITH_UNIT(LENGTH_MEASURE(0.0508),#416,'DISTANCE_ACCURACY_VALUE',
     'Maximum Tolerance applied to model');
#411=(NAMED_UNIT(*)SI_UNIT($,.STERADIAN.)SOLID_ANGLE_UNIT());
#412=(CONVERSION_BASED_UNIT('DEGREE',#414)NAMED_UNIT(*)PLANE_ANGLE_UNIT());
#413=DIMENSIONAL_EXPONENTS(0.0,0.0,0.0,0.0,0.0,0.0,0.0);
#414=PLANE_ANGLE_MEASURE_WITH_UNIT(PLANE_ANGLE_MEASURE(0.0174532925),#415);
#415=(NAMED_UNIT(*)PLANE_ANGLE_UNIT()SI_UNIT($,.RADIAN.));
#416=(LENGTH_UNIT()NAMED_UNIT(*)SI_UNIT(.MILLI.,.METRE.));
#417=CARTESIAN_POINT('',(0.0,0.0,0.0));
#418=DIRECTION('',(0.0,0.0,1.0));
#419=DIRECTION('',(1.0,0.0,0.0));
#420=AXIS2_PLACEMENT_3D('PCS',#417,#418,#419);
#421=CARTESIAN_POINT('',(0.0,0.0,0.0));
#422=DIRECTION('',(0.0,0.0,1.0));
#423=DIRECTION('',(1.0,0.0,0.0));
#424=AXIS2_PLACEMENT_3D('MCS',#421,#422,#423);
#425=CARTESIAN_POINT('',(0.0,0.0,-132.0));
#426=DIRECTION('',(0.0,0.0,1.0));
#427=DIRECTION('',(1.0,0.0,0.0));
#428=AXIS2_PLACEMENT_3D('CSW',#425,#426,#427);
#429=CONSTRUCTIVE_GEOMETRY_REPRESENTATION('supplemental geometry',(#420,#424,#428),
     #409);
#430=CONSTRUCTIVE_GEOMETRY_REPRESENTATION_RELATIONSHIP('supplemental geometry',$,
     #22,#429);
ENDSEC;
END-ISO-10303-21;
