ISO-10303-21;
HEADER;
FILE_DESCRIPTION(
/* description */ ('3-D model version:1'),
/* implementation_level */ '2;1');
FILE_NAME(
/* name */ 'C3-391.EH-12029',
/* time_stamp */ '2016-12-02T13:56:13',
/* author */ ('InteractiveCad'),
/* organization */ ('AB Sandvik Coromant'),
/* preprocessor_version */ 'ST-DEVELOPER v11',
/* originating_system */ 'SIEMENS UGS NX 6.0',
/* authorization */ '');
FILE_SCHEMA(('AUTOMOTIVE_DESIGN'));
ENDSEC;
DATA;
#10=SHAPE_REPRESENTATION_RELATIONSHIP('None','relationship between ds68DC2Drqcc-None and ds68DC2Drqcc-None',
     #22,#11);
#11=ADVANCED_BREP_SHAPE_REPRESENTATION('ds68DC2Drqcc-None',(#32),#449);
#12=SHAPE_DEFINITION_REPRESENTATION(#13,#22);
#13=PRODUCT_DEFINITION_SHAPE('','',#14);
#14=PRODUCT_DEFINITION(' ','',#16,#15);
#15=PRODUCT_DEFINITION_CONTEXT('part definition',#21,'design');
#16=PRODUCT_DEFINITION_FORMATION_WITH_SPECIFIED_SOURCE(' ',' ',#18,.NOT_KNOWN.);
#17=PRODUCT_RELATED_PRODUCT_CATEGORY('part','',(#18));
#18=PRODUCT('ds68DC2Drqcc','ds68DC2Drqcc',' ',(#19));
#19=PRODUCT_CONTEXT(' ',#21,'mechanical');
#20=APPLICATION_PROTOCOL_DEFINITION('international standard','automotive_design',
     2001,#21);
#21=APPLICATION_CONTEXT('core data for automotive mechanical design processes');
#22=SHAPE_REPRESENTATION('ds68DC2Drqcc-None',(#247),#449);
#23=PRESENTATION_LAYER_ASSIGNMENT('1','Layer 1',(#32));
#24=STYLED_ITEM('',(#25),#32);
#25=PRESENTATION_STYLE_ASSIGNMENT((#26));
#26=SURFACE_STYLE_USAGE(.BOTH.,#27);
#27=SURFACE_SIDE_STYLE('',(#28));
#28=SURFACE_STYLE_FILL_AREA(#29);
#29=FILL_AREA_STYLE('',(#30));
#30=FILL_AREA_STYLE_COLOUR('',#31);
#31=COLOUR_RGB('Medium Gray',0.490196078431373,0.490196078431373,0.490196078431373);
#32=MANIFOLD_SOLID_BREP('NOCUT',#33);
#33=CLOSED_SHELL('',(#68,#69,#70,#71,#72,#73,#74,#75,#76,#77,#78,#79,#80,#81,#82));
#34=LINE('',#424,#40);
#35=LINE('',#425,#41);
#36=LINE('',#431,#42);
#37=LINE('',#435,#43);
#38=LINE('',#439,#44);
#39=LINE('',#443,#45);
#40=VECTOR('',#335,1.0);
#41=VECTOR('',#336,1.0);
#42=VECTOR('',#343,1.0);
#43=VECTOR('',#348,1.0);
#44=VECTOR('',#353,1.0);
#45=VECTOR('',#358,1.0);
#46=CONICAL_SURFACE('',#266,2.0,45.0);
#47=CONICAL_SURFACE('',#273,14.9999975642769,1.43916999999995);
#48=CONICAL_SURFACE('',#275,6.00000517228696,1.43916999999995);
#49=CONICAL_SURFACE('',#277,6.00000517228696,1.43916999999995);
#50=CONICAL_SURFACE('',#279,14.9999993910693,1.43916999999995);
#51=CONICAL_SURFACE('',#281,6.00000835704711,1.43916999999995);
#52=CONICAL_SURFACE('',#283,14.9999993910693,1.43916999999995);
#53=B_SPLINE_CURVE_WITH_KNOTS('',3,(#396,#397,#398,#399,#400,#401,#402,#403,#404,
     #405,#406,#407,#408,#409,#410,#411),.UNSPECIFIED.,.F.,.F.,(4,3,3,3,3,4),(0.0,
     0.2800596981137,0.451536062893216,0.625138107805911,0.856610091405707,1.0),
     .UNSPECIFIED.);
#54=FACE_OUTER_BOUND('',#107,.T.);
#55=FACE_OUTER_BOUND('',#108,.T.);
#56=FACE_OUTER_BOUND('',#109,.T.);
#57=FACE_OUTER_BOUND('',#110,.T.);
#58=FACE_OUTER_BOUND('',#111,.T.);
#59=FACE_OUTER_BOUND('',#112,.T.);
#60=FACE_OUTER_BOUND('',#113,.T.);
#61=FACE_OUTER_BOUND('',#114,.T.);
#62=FACE_OUTER_BOUND('',#115,.T.);
#63=FACE_OUTER_BOUND('',#116,.T.);
#64=TOROIDAL_SURFACE('',#261,10.8,5.0);
#65=CYLINDRICAL_SURFACE('',#257,16.0);
#66=CYLINDRICAL_SURFACE('',#263,5.8);
#67=CYLINDRICAL_SURFACE('',#270,4.0);
#68=ADVANCED_FACE('',(#87,#88),#83,.F.);
#69=ADVANCED_FACE('',(#89,#90),#65,.T.);
#70=ADVANCED_FACE('',(#91,#92),#84,.F.);
#71=ADVANCED_FACE('',(#93,#94),#64,.F.);
#72=ADVANCED_FACE('',(#95,#96),#66,.T.);
#73=ADVANCED_FACE('',(#54),#85,.F.);
#74=ADVANCED_FACE('',(#55),#46,.F.);
#75=ADVANCED_FACE('',(#56),#67,.F.);
#76=ADVANCED_FACE('',(#57),#47,.T.);
#77=ADVANCED_FACE('',(#58),#48,.T.);
#78=ADVANCED_FACE('',(#59),#49,.T.);
#79=ADVANCED_FACE('',(#60),#50,.T.);
#80=ADVANCED_FACE('',(#61),#51,.T.);
#81=ADVANCED_FACE('',(#62),#52,.T.);
#82=ADVANCED_FACE('',(#63),#86,.T.);
#83=PLANE('',#255);
#84=PLANE('',#259);
#85=PLANE('',#264);
#86=PLANE('',#284);
#87=FACE_BOUND('',#97,.T.);
#88=FACE_BOUND('',#98,.T.);
#89=FACE_BOUND('',#99,.T.);
#90=FACE_BOUND('',#100,.T.);
#91=FACE_BOUND('',#101,.T.);
#92=FACE_BOUND('',#102,.T.);
#93=FACE_BOUND('',#103,.T.);
#94=FACE_BOUND('',#104,.T.);
#95=FACE_BOUND('',#105,.T.);
#96=FACE_BOUND('',#106,.T.);
#97=EDGE_LOOP('',(#117));
#98=EDGE_LOOP('',(#118,#119,#120,#121,#122,#123));
#99=EDGE_LOOP('',(#124));
#100=EDGE_LOOP('',(#125));
#101=EDGE_LOOP('',(#126));
#102=EDGE_LOOP('',(#127));
#103=EDGE_LOOP('',(#128));
#104=EDGE_LOOP('',(#129));
#105=EDGE_LOOP('',(#130));
#106=EDGE_LOOP('',(#131));
#107=EDGE_LOOP('',(#132));
#108=EDGE_LOOP('',(#133,#134));
#109=EDGE_LOOP('',(#135,#136,#137,#138));
#110=EDGE_LOOP('',(#139,#140,#141,#142,#143,#144,#145,#146));
#111=EDGE_LOOP('',(#147,#148,#149,#150));
#112=EDGE_LOOP('',(#151,#152,#153,#154));
#113=EDGE_LOOP('',(#155,#156,#157,#158));
#114=EDGE_LOOP('',(#159,#160,#161,#162));
#115=EDGE_LOOP('',(#163,#164,#165,#166));
#116=EDGE_LOOP('',(#167,#168,#169,#170,#171,#172,#173,#174));
#117=ORIENTED_EDGE('',*,*,#196,.F.);
#118=ORIENTED_EDGE('',*,*,#197,.F.);
#119=ORIENTED_EDGE('',*,*,#198,.F.);
#120=ORIENTED_EDGE('',*,*,#199,.F.);
#121=ORIENTED_EDGE('',*,*,#200,.F.);
#122=ORIENTED_EDGE('',*,*,#201,.F.);
#123=ORIENTED_EDGE('',*,*,#202,.F.);
#124=ORIENTED_EDGE('',*,*,#203,.F.);
#125=ORIENTED_EDGE('',*,*,#196,.T.);
#126=ORIENTED_EDGE('',*,*,#204,.F.);
#127=ORIENTED_EDGE('',*,*,#203,.T.);
#128=ORIENTED_EDGE('',*,*,#205,.F.);
#129=ORIENTED_EDGE('',*,*,#204,.T.);
#130=ORIENTED_EDGE('',*,*,#206,.F.);
#131=ORIENTED_EDGE('',*,*,#205,.T.);
#132=ORIENTED_EDGE('',*,*,#206,.T.);
#133=ORIENTED_EDGE('',*,*,#207,.T.);
#134=ORIENTED_EDGE('',*,*,#208,.F.);
#135=ORIENTED_EDGE('',*,*,#209,.F.);
#136=ORIENTED_EDGE('',*,*,#210,.F.);
#137=ORIENTED_EDGE('',*,*,#211,.F.);
#138=ORIENTED_EDGE('',*,*,#208,.T.);
#139=ORIENTED_EDGE('',*,*,#209,.T.);
#140=ORIENTED_EDGE('',*,*,#207,.F.);
#141=ORIENTED_EDGE('',*,*,#211,.T.);
#142=ORIENTED_EDGE('',*,*,#212,.T.);
#143=ORIENTED_EDGE('',*,*,#213,.F.);
#144=ORIENTED_EDGE('',*,*,#200,.T.);
#145=ORIENTED_EDGE('',*,*,#214,.T.);
#146=ORIENTED_EDGE('',*,*,#215,.T.);
#147=ORIENTED_EDGE('',*,*,#216,.T.);
#148=ORIENTED_EDGE('',*,*,#214,.F.);
#149=ORIENTED_EDGE('',*,*,#199,.T.);
#150=ORIENTED_EDGE('',*,*,#217,.T.);
#151=ORIENTED_EDGE('',*,*,#218,.T.);
#152=ORIENTED_EDGE('',*,*,#219,.F.);
#153=ORIENTED_EDGE('',*,*,#201,.T.);
#154=ORIENTED_EDGE('',*,*,#213,.T.);
#155=ORIENTED_EDGE('',*,*,#220,.T.);
#156=ORIENTED_EDGE('',*,*,#221,.F.);
#157=ORIENTED_EDGE('',*,*,#202,.T.);
#158=ORIENTED_EDGE('',*,*,#219,.T.);
#159=ORIENTED_EDGE('',*,*,#222,.T.);
#160=ORIENTED_EDGE('',*,*,#223,.F.);
#161=ORIENTED_EDGE('',*,*,#197,.T.);
#162=ORIENTED_EDGE('',*,*,#221,.T.);
#163=ORIENTED_EDGE('',*,*,#224,.T.);
#164=ORIENTED_EDGE('',*,*,#217,.F.);
#165=ORIENTED_EDGE('',*,*,#198,.T.);
#166=ORIENTED_EDGE('',*,*,#223,.T.);
#167=ORIENTED_EDGE('',*,*,#210,.T.);
#168=ORIENTED_EDGE('',*,*,#215,.F.);
#169=ORIENTED_EDGE('',*,*,#216,.F.);
#170=ORIENTED_EDGE('',*,*,#224,.F.);
#171=ORIENTED_EDGE('',*,*,#222,.F.);
#172=ORIENTED_EDGE('',*,*,#220,.F.);
#173=ORIENTED_EDGE('',*,*,#218,.F.);
#174=ORIENTED_EDGE('',*,*,#212,.F.);
#175=VERTEX_POINT('',#369);
#176=VERTEX_POINT('',#371);
#177=VERTEX_POINT('',#372);
#178=VERTEX_POINT('',#374);
#179=VERTEX_POINT('',#376);
#180=VERTEX_POINT('',#378);
#181=VERTEX_POINT('',#380);
#182=VERTEX_POINT('',#384);
#183=VERTEX_POINT('',#387);
#184=VERTEX_POINT('',#390);
#185=VERTEX_POINT('',#393);
#186=VERTEX_POINT('',#412);
#187=VERTEX_POINT('',#413);
#188=VERTEX_POINT('',#417);
#189=VERTEX_POINT('',#419);
#190=VERTEX_POINT('',#423);
#191=VERTEX_POINT('',#426);
#192=VERTEX_POINT('',#430);
#193=VERTEX_POINT('',#434);
#194=VERTEX_POINT('',#438);
#195=VERTEX_POINT('',#442);
#196=EDGE_CURVE('',#175,#175,#225,.T.);
#197=EDGE_CURVE('',#176,#177,#226,.T.);
#198=EDGE_CURVE('',#178,#176,#227,.T.);
#199=EDGE_CURVE('',#179,#178,#228,.T.);
#200=EDGE_CURVE('',#180,#179,#229,.T.);
#201=EDGE_CURVE('',#181,#180,#230,.T.);
#202=EDGE_CURVE('',#177,#181,#231,.T.);
#203=EDGE_CURVE('',#182,#182,#232,.T.);
#204=EDGE_CURVE('',#183,#183,#233,.T.);
#205=EDGE_CURVE('',#184,#184,#234,.T.);
#206=EDGE_CURVE('',#185,#185,#235,.T.);
#207=EDGE_CURVE('',#186,#187,#53,.T.);
#208=EDGE_CURVE('',#186,#187,#236,.T.);
#209=EDGE_CURVE('',#188,#187,#237,.T.);
#210=EDGE_CURVE('',#189,#188,#238,.T.);
#211=EDGE_CURVE('',#186,#189,#239,.T.);
#212=EDGE_CURVE('',#189,#190,#240,.T.);
#213=EDGE_CURVE('',#180,#190,#34,.T.);
#214=EDGE_CURVE('',#179,#191,#35,.T.);
#215=EDGE_CURVE('',#191,#188,#241,.T.);
#216=EDGE_CURVE('',#192,#191,#242,.T.);
#217=EDGE_CURVE('',#178,#192,#36,.T.);
#218=EDGE_CURVE('',#190,#193,#243,.T.);
#219=EDGE_CURVE('',#181,#193,#37,.T.);
#220=EDGE_CURVE('',#193,#194,#244,.T.);
#221=EDGE_CURVE('',#177,#194,#38,.T.);
#222=EDGE_CURVE('',#194,#195,#245,.T.);
#223=EDGE_CURVE('',#176,#195,#39,.T.);
#224=EDGE_CURVE('',#195,#192,#246,.T.);
#225=CIRCLE('',#248,16.0);
#226=CIRCLE('',#249,6.06281720435286);
#227=CIRCLE('',#250,15.0628082383751);
#228=CIRCLE('',#251,6.06281401959271);
#229=CIRCLE('',#252,15.0628064115827);
#230=CIRCLE('',#253,6.06281401959271);
#231=CIRCLE('',#254,15.0628082383751);
#232=CIRCLE('',#256,16.0);
#233=CIRCLE('',#258,10.8);
#234=CIRCLE('',#260,5.8);
#235=CIRCLE('',#262,5.8);
#236=CIRCLE('',#265,4.0);
#237=CIRCLE('',#267,2103.17546319548);
#238=CIRCLE('',#268,4.0);
#239=CIRCLE('',#269,2103.17546325638);
#240=CIRCLE('',#271,14.5854591720589);
#241=CIRCLE('',#272,14.5854591720589);
#242=CIRCLE('',#274,5.58546678006898);
#243=CIRCLE('',#276,5.58546678006898);
#244=CIRCLE('',#278,14.5854609988514);
#245=CIRCLE('',#280,5.58546996482912);
#246=CIRCLE('',#282,14.5854609988514);
#247=AXIS2_PLACEMENT_3D('',#367,#285,#286);
#248=AXIS2_PLACEMENT_3D('',#368,#287,#288);
#249=AXIS2_PLACEMENT_3D('',#370,#289,#290);
#250=AXIS2_PLACEMENT_3D('',#373,#291,#292);
#251=AXIS2_PLACEMENT_3D('',#375,#293,#294);
#252=AXIS2_PLACEMENT_3D('',#377,#295,#296);
#253=AXIS2_PLACEMENT_3D('',#379,#297,#298);
#254=AXIS2_PLACEMENT_3D('',#381,#299,#300);
#255=AXIS2_PLACEMENT_3D('',#382,#301,#302);
#256=AXIS2_PLACEMENT_3D('',#383,#303,#304);
#257=AXIS2_PLACEMENT_3D('',#385,#305,#306);
#258=AXIS2_PLACEMENT_3D('',#386,#307,#308);
#259=AXIS2_PLACEMENT_3D('',#388,#309,#310);
#260=AXIS2_PLACEMENT_3D('',#389,#311,#312);
#261=AXIS2_PLACEMENT_3D('',#391,#313,#314);
#262=AXIS2_PLACEMENT_3D('',#392,#315,#316);
#263=AXIS2_PLACEMENT_3D('',#394,#317,#318);
#264=AXIS2_PLACEMENT_3D('',#395,#319,#320);
#265=AXIS2_PLACEMENT_3D('',#414,#321,#322);
#266=AXIS2_PLACEMENT_3D('',#415,#323,#324);
#267=AXIS2_PLACEMENT_3D('',#416,#325,#326);
#268=AXIS2_PLACEMENT_3D('',#418,#327,#328);
#269=AXIS2_PLACEMENT_3D('',#420,#329,#330);
#270=AXIS2_PLACEMENT_3D('',#421,#331,#332);
#271=AXIS2_PLACEMENT_3D('',#422,#333,#334);
#272=AXIS2_PLACEMENT_3D('',#427,#337,#338);
#273=AXIS2_PLACEMENT_3D('',#428,#339,#340);
#274=AXIS2_PLACEMENT_3D('',#429,#341,#342);
#275=AXIS2_PLACEMENT_3D('',#432,#344,#345);
#276=AXIS2_PLACEMENT_3D('',#433,#346,#347);
#277=AXIS2_PLACEMENT_3D('',#436,#349,#350);
#278=AXIS2_PLACEMENT_3D('',#437,#351,#352);
#279=AXIS2_PLACEMENT_3D('',#440,#354,#355);
#280=AXIS2_PLACEMENT_3D('',#441,#356,#357);
#281=AXIS2_PLACEMENT_3D('',#444,#359,#360);
#282=AXIS2_PLACEMENT_3D('',#445,#361,#362);
#283=AXIS2_PLACEMENT_3D('',#446,#363,#364);
#284=AXIS2_PLACEMENT_3D('',#447,#365,#366);
#285=DIRECTION('',(0.0,0.0,1.0));
#286=DIRECTION('',(1.0,0.0,0.0));
#287=DIRECTION('',(0.0,0.0,-1.0));
#288=DIRECTION('',(-1.0,0.0,0.0));
#289=DIRECTION('',(0.0,0.0,1.0));
#290=DIRECTION('',(1.0,0.0,0.0));
#291=DIRECTION('',(0.0,0.0,1.0));
#292=DIRECTION('',(1.0,0.0,0.0));
#293=DIRECTION('',(0.0,0.0,1.0));
#294=DIRECTION('',(1.0,0.0,0.0));
#295=DIRECTION('',(0.0,0.0,1.0));
#296=DIRECTION('',(1.0,0.0,0.0));
#297=DIRECTION('',(0.0,0.0,1.0));
#298=DIRECTION('',(1.0,0.0,0.0));
#299=DIRECTION('',(0.0,0.0,1.0));
#300=DIRECTION('',(1.0,0.0,0.0));
#301=DIRECTION('',(0.0,0.0,-1.0));
#302=DIRECTION('',(-1.0,0.0,0.0));
#303=DIRECTION('',(0.0,0.0,-1.0));
#304=DIRECTION('',(-1.0,0.0,0.0));
#305=DIRECTION('',(0.0,0.0,-1.0));
#306=DIRECTION('',(-1.0,0.0,0.0));
#307=DIRECTION('',(0.0,0.0,-1.0));
#308=DIRECTION('',(-1.0,0.0,0.0));
#309=DIRECTION('',(0.0,0.0,1.0));
#310=DIRECTION('',(1.0,0.0,0.0));
#311=DIRECTION('',(0.0,0.0,-1.0));
#312=DIRECTION('',(-1.0,0.0,0.0));
#313=DIRECTION('',(0.0,0.0,-1.0));
#314=DIRECTION('',(-1.0,0.0,0.0));
#315=DIRECTION('',(0.0,0.0,-1.0));
#316=DIRECTION('',(-1.0,0.0,0.0));
#317=DIRECTION('',(0.0,0.0,-1.0));
#318=DIRECTION('',(-1.0,0.0,0.0));
#319=DIRECTION('',(0.0,0.0,1.0));
#320=DIRECTION('',(1.0,0.0,0.0));
#321=DIRECTION('',(0.0,0.0,-1.0));
#322=DIRECTION('',(-1.61726194475907E-13,1.0,0.0));
#323=DIRECTION('',(0.0,0.0,1.0));
#324=DIRECTION('',(0.0,1.0,-6.05941333924034E-17));
#325=DIRECTION('',(-0.0732505293981271,0.997052233161759,-0.0228298990370784));
#326=DIRECTION('',(0.996878841868759,0.0738752372038326,0.0278392521896502));
#327=DIRECTION('',(0.0,-6.12303176911189E-17,-1.0));
#328=DIRECTION('',(-1.61726194475907E-13,1.0,0.0));
#329=DIRECTION('',(0.0732505293384454,0.997052233166181,-0.0228298990354594));
#330=DIRECTION('',(-0.996924503956327,0.0738421201572323,0.0262464226536937));
#331=DIRECTION('',(0.0,0.0,-1.0));
#332=DIRECTION('',(0.0,-1.0,0.0));
#333=DIRECTION('',(0.0,-6.12303176911189E-17,-1.0));
#334=DIRECTION('',(0.0,-1.0,0.0));
#335=DIRECTION('',(0.0137754746237107,0.0210007227156388,0.99968455321882));
#336=DIRECTION('',(-0.0137754810594535,0.0210007184940963,0.99968455321882));
#337=DIRECTION('',(0.0,-6.12303176911189E-17,-1.0));
#338=DIRECTION('',(0.0,-1.0,0.0));
#339=DIRECTION('',(0.0,0.0,-1.0));
#340=DIRECTION('',(0.0,-1.0,-1.32946274324873E-15));
#341=DIRECTION('',(0.0,-6.12303176911189E-17,-1.0));
#342=DIRECTION('',(0.866025250557684,-0.500000265396431,0.0));
#343=DIRECTION('',(-0.0250748958052459,0.00142956498407764,0.99968455321882));
#344=DIRECTION('',(0.0,0.0,-1.0));
#345=DIRECTION('',(0.0,-1.0,-1.71390336281022E-15));
#346=DIRECTION('',(0.0,-6.12303176911189E-17,-1.0));
#347=DIRECTION('',(-0.866025250557684,-0.500000265396431,0.0));
#348=DIRECTION('',(0.025074896142823,0.00142955906288819,0.99968455321882));
#349=DIRECTION('',(0.0,0.0,-1.0));
#350=DIRECTION('',(0.0,-1.0,-1.71390336281022E-15));
#351=DIRECTION('',(0.0,-6.12303176911189E-17,-1.0));
#352=DIRECTION('',(-0.866025438941074,0.499999939106917,0.0));
#353=DIRECTION('',(0.011299415183886,-0.0224302757938864,0.99968455321882));
#354=DIRECTION('',(0.0,0.0,-1.0));
#355=DIRECTION('',(0.0,-1.0,-1.32946268271937E-15));
#356=DIRECTION('',(0.0,-6.12303176911189E-17,-1.0));
#357=DIRECTION('',(0.0,1.0,0.0));
#358=DIRECTION('',(-0.0112994167610325,-0.0224302749993875,0.99968455321882));
#359=DIRECTION('',(0.0,0.0,-1.0));
#360=DIRECTION('',(0.0,-1.0,-1.71390318743268E-15));
#361=DIRECTION('',(0.0,-6.12303176911189E-17,-1.0));
#362=DIRECTION('',(0.866025438941074,0.499999939106917,0.0));
#363=DIRECTION('',(0.0,0.0,-1.0));
#364=DIRECTION('',(0.0,-1.0,-1.32946268271937E-15));
#365=DIRECTION('',(0.0,6.12303176911189E-17,1.0));
#366=DIRECTION('',(0.0,1.0,-6.24500451351651E-17));
#367=CARTESIAN_POINT('',(0.0,0.0,0.0));
#368=CARTESIAN_POINT('',(0.0,0.0,0.0));
#369=CARTESIAN_POINT('',(-16.0,0.0,0.0));
#370=CARTESIAN_POINT('',(0.0,5.69999693755837,0.0));
#371=CARTESIAN_POINT('',(2.72763808621137,11.1145830643131,0.0));
#372=CARTESIAN_POINT('',(-2.72763808621141,11.1145830643132,0.0));
#373=CARTESIAN_POINT('',(-4.04906126847029,-2.33772297897611,0.0));
#374=CARTESIAN_POINT('',(10.9893271560567,-3.19508265793908,0.0));
#375=CARTESIAN_POINT('',(4.9363421661785,-2.84999346877931,0.0));
#376=CARTESIAN_POINT('',(8.26169214283496,-7.91948667509894,0.0));
#377=CARTESIAN_POINT('',(0.0,4.67545595795221,0.0));
#378=CARTESIAN_POINT('',(-8.26169214283496,-7.91948667509894,0.0));
#379=CARTESIAN_POINT('',(-4.9363421661785,-2.84999346877931,0.0));
#380=CARTESIAN_POINT('',(-10.9893271560569,-3.19508265793909,0.0));
#381=CARTESIAN_POINT('',(4.04906126847029,-2.33772297897611,0.0));
#382=CARTESIAN_POINT('',(0.0,-10.3873504536305,0.0));
#383=CARTESIAN_POINT('',(0.0,0.0,-8.0));
#384=CARTESIAN_POINT('',(-16.0,0.0,-8.0));
#385=CARTESIAN_POINT('',(0.0,0.0,0.0));
#386=CARTESIAN_POINT('',(0.0,0.0,-8.0));
#387=CARTESIAN_POINT('',(-10.8,0.0,-8.0));
#388=CARTESIAN_POINT('',(0.0,-16.0,-8.0));
#389=CARTESIAN_POINT('',(0.0,0.0,-13.0));
#390=CARTESIAN_POINT('',(-5.8,0.0,-13.0));
#391=CARTESIAN_POINT('',(0.0,0.0,-13.0));
#392=CARTESIAN_POINT('',(0.0,0.0,-29.0));
#393=CARTESIAN_POINT('',(-5.8,0.0,-29.0));
#394=CARTESIAN_POINT('',(0.0,0.0,0.0));
#395=CARTESIAN_POINT('',(0.0,-5.8,-29.0));
#396=CARTESIAN_POINT('',(-2.39618604874524,-9.79714323120858,15.6499998826993));
#397=CARTESIAN_POINT('',(-2.00331713081758,-9.86966132085557,15.3565868511301));
#398=CARTESIAN_POINT('',(-1.58609304299647,-9.92963474847536,15.0813482286711));
#399=CARTESIAN_POINT('',(-1.13267421436881,-9.96964756638343,14.8851177332242));
#400=CARTESIAN_POINT('',(-0.855149936338882,-9.99413823086574,14.7650108405723));
#401=CARTESIAN_POINT('',(-0.558022422546713,-10.0111457336003,14.6756611763462));
#402=CARTESIAN_POINT('',(-0.256372853433768,-10.0172101340229,14.6437873044947));
#403=CARTESIAN_POINT('',(0.0477133605717466,-10.0233235210571,14.6116559639942));
#404=CARTESIAN_POINT('',(0.362692684039951,-10.0180309861578,14.6403791479113));
#405=CARTESIAN_POINT('',(0.657983814037701,-10.002828132986,14.7185471969575));
#406=CARTESIAN_POINT('',(1.05245687815543,-9.9825189686909,14.8229702110304));
#407=CARTESIAN_POINT('',(1.4248670799825,-9.94513730132958,15.0094394215042));
#408=CARTESIAN_POINT('',(1.77057995637259,-9.89775630766004,15.2219559499763));
#409=CARTESIAN_POINT('',(1.98625942966532,-9.86819678455104,15.3545383790877));
#410=CARTESIAN_POINT('',(2.19416045075317,-9.83443358786154,15.4991182567267));
#411=CARTESIAN_POINT('',(2.3961846453786,-9.79714277634108,15.6499994062366));
#412=CARTESIAN_POINT('',(-2.39618604874524,-9.79714323120858,15.6499998826993));
#413=CARTESIAN_POINT('',(2.3961846453786,-9.79714277634108,15.6499994062366));
#414=CARTESIAN_POINT('',(0.0,-13.0,15.65));
#415=CARTESIAN_POINT('',(0.0,-13.0,13.65));
#416=CARTESIAN_POINT('',(-2094.31096897581,-165.100078733755,-39.5508321189835));
#417=CARTESIAN_POINT('',(2.30015102129197,-9.72749250890858,19.0));
#418=CARTESIAN_POINT('',(0.0,-13.0,19.0));
#419=CARTESIAN_POINT('',(-2.30015102129197,-9.72749250890858,19.0));
#420=CARTESIAN_POINT('',(2094.31096904575,-165.100078612714,-39.550832123505));
#421=CARTESIAN_POINT('',(0.0,-13.0,19.0));
#422=CARTESIAN_POINT('',(0.0,4.67545595795221,19.0));
#423=CARTESIAN_POINT('',(-7.9998729465036,-7.52034873462951,19.0));
#424=CARTESIAN_POINT('',(-8.22724,-7.86697,2.5));
#425=CARTESIAN_POINT('',(8.22724,-7.86697,2.5));
#426=CARTESIAN_POINT('',(7.99987284028034,-7.52034880430694,19.0));
#427=CARTESIAN_POINT('',(0.0,4.67545595795221,19.0));
#428=CARTESIAN_POINT('',(0.0,4.67545595795221,2.5));
#429=CARTESIAN_POINT('',(4.9363421661785,-2.84999346877931,19.0));
#430=CARTESIAN_POINT('',(10.5127536664107,-3.16791473471223,19.0));
#431=CARTESIAN_POINT('',(10.92662,-3.19151,2.5));
#432=CARTESIAN_POINT('',(4.9363421661785,-2.84999346877931,2.5));
#433=CARTESIAN_POINT('',(-4.9363421661785,-2.84999346877931,19.0));
#434=CARTESIAN_POINT('',(-10.5127536608389,-3.16791483244269,19.0));
#435=CARTESIAN_POINT('',(-10.92662,-3.19151,2.5));
#436=CARTESIAN_POINT('',(-4.9363421661785,-2.84999346877931,2.5));
#437=CARTESIAN_POINT('',(4.04906126847029,-2.33772297897611,19.0));
#438=CARTESIAN_POINT('',(-2.51288081889951,10.6882736658499,19.0));
#439=CARTESIAN_POINT('',(-2.69938,11.05849,2.5));
#440=CARTESIAN_POINT('',(4.04906126847029,-2.33772297897611,2.5));
#441=CARTESIAN_POINT('',(0.0,5.69999693755836,19.0));
#442=CARTESIAN_POINT('',(2.51288079286838,10.6882736789633,19.0));
#443=CARTESIAN_POINT('',(2.69938,11.05849,2.5));
#444=CARTESIAN_POINT('',(0.0,5.69999693755837,2.5));
#445=CARTESIAN_POINT('',(-4.04906126847029,-2.33772297897611,19.0));
#446=CARTESIAN_POINT('',(-4.04906126847029,-2.33772297897611,2.5));
#447=CARTESIAN_POINT('',(0.0,4.11258836697792E-6,19.0));
#448=MECHANICAL_DESIGN_GEOMETRIC_PRESENTATION_REPRESENTATION('',(#24),#449);
#449=(GEOMETRIC_REPRESENTATION_CONTEXT(3)GLOBAL_UNCERTAINTY_ASSIGNED_CONTEXT((#450))
     GLOBAL_UNIT_ASSIGNED_CONTEXT((#456,#452,#451))REPRESENTATION_CONTEXT('C3-391',
     'TOP_LEVEL_ASSEMBLY_PART'));
#450=UNCERTAINTY_MEASURE_WITH_UNIT(LENGTH_MEASURE(0.0508),#456,'DISTANCE_ACCURACY_VALUE',
     'Maximum Tolerance applied to model');
#451=(NAMED_UNIT(*)SI_UNIT($,.STERADIAN.)SOLID_ANGLE_UNIT());
#452=(CONVERSION_BASED_UNIT('DEGREE',#454)NAMED_UNIT(*)PLANE_ANGLE_UNIT());
#453=DIMENSIONAL_EXPONENTS(0.0,0.0,0.0,0.0,0.0,0.0,0.0);
#454=PLANE_ANGLE_MEASURE_WITH_UNIT(PLANE_ANGLE_MEASURE(0.0174532925),#455);
#455=(NAMED_UNIT(*)PLANE_ANGLE_UNIT()SI_UNIT($,.RADIAN.));
#456=(LENGTH_UNIT()NAMED_UNIT(*)SI_UNIT(.MILLI.,.METRE.));
#457=CARTESIAN_POINT('',(0.0,0.0,0.0));
#458=DIRECTION('',(0.0,0.0,1.0));
#459=DIRECTION('',(1.0,0.0,0.0));
#460=AXIS2_PLACEMENT_3D('PCS',#457,#458,#459);
#461=CARTESIAN_POINT('',(0.0,0.0,0.0));
#462=DIRECTION('',(0.0,0.0,1.0));
#463=DIRECTION('',(1.0,0.0,0.0));
#464=AXIS2_PLACEMENT_3D('MCS',#461,#462,#463);
#465=CARTESIAN_POINT('',(0.0,0.0,-29.0));
#466=DIRECTION('',(0.0,0.0,1.0));
#467=DIRECTION('',(1.0,0.0,0.0));
#468=AXIS2_PLACEMENT_3D('CSW',#465,#466,#467);
#469=CONSTRUCTIVE_GEOMETRY_REPRESENTATION('supplemental geometry',(#460,#464,#468),
     #449);
#470=CONSTRUCTIVE_GEOMETRY_REPRESENTATION_RELATIONSHIP('supplemental geometry',$,
     #22,#469);
ENDSEC;
END-ISO-10303-21;
