ISO-10303-21;
HEADER;
FILE_DESCRIPTION(
/* description */ ('3-D model version:1'),
/* implementation_level */ '2;1');
FILE_NAME(
/* name */ 'AE10-A12-SS-025',
/* time_stamp */ '2016-12-02T13:55:36',
/* author */ ('InteractiveCad'),
/* organization */ ('AB Sandvik Coromant'),
/* preprocessor_version */ 'ST-DEVELOPER v11',
/* originating_system */ 'SIEMENS UGS NX 6.0',
/* authorization */ '');
FILE_SCHEMA(('AUTOMOTIVE_DESIGN'));
ENDSEC;
DATA;
#10=SHAPE_REPRESENTATION_RELATIONSHIP('None','relationship between AE10_A12_SS_025_635120833396964947_1_stp-None and AE10_A12_SS_025_635120833396964947_1_stp-None',
     #94,#11);
#11=ADVANCED_BREP_SHAPE_REPRESENTATION('AE10_A12_SS_025_635120833396964947_1_stp-None',
     (#104),#521);
#15=APPROVAL_PERSON_ORGANIZATION(#69,#24,#18);
#16=APPROVAL_PERSON_ORGANIZATION(#70,#25,#19);
#17=APPROVAL_PERSON_ORGANIZATION(#71,#26,#20);
#18=APPROVAL_ROLE('approver');
#19=APPROVAL_ROLE('approver');
#20=APPROVAL_ROLE('approver');
#21=APPROVAL_DATE_TIME(#39,#24);
#22=APPROVAL_DATE_TIME(#40,#25);
#23=APPROVAL_DATE_TIME(#41,#26);
#24=APPROVAL(#27,' ');
#25=APPROVAL(#28,' ');
#26=APPROVAL(#29,' ');
#27=APPROVAL_STATUS('not_yet_approved');
#28=APPROVAL_STATUS('not_yet_approved');
#29=APPROVAL_STATUS('not_yet_approved');
#31=SECURITY_CLASSIFICATION(' ',' ',#32);
#32=SECURITY_CLASSIFICATION_LEVEL('confidential');
#35=DATE_TIME_ROLE('creation_date');
#36=DATE_TIME_ROLE('classification_date');
#37=DATE_AND_TIME(#52,#42);
#38=DATE_AND_TIME(#53,#43);
#39=DATE_AND_TIME(#54,#44);
#40=DATE_AND_TIME(#55,#45);
#41=DATE_AND_TIME(#56,#46);
#42=LOCAL_TIME(0,0,0.0,#47);
#43=LOCAL_TIME(0,0,0.0,#48);
#44=LOCAL_TIME(0,0,0.0,#49);
#45=LOCAL_TIME(0,0,0.0,#50);
#46=LOCAL_TIME(0,0,0.0,#51);
#47=COORDINATED_UNIVERSAL_TIME_OFFSET(0,0,.BEHIND.);
#48=COORDINATED_UNIVERSAL_TIME_OFFSET(0,0,.BEHIND.);
#49=COORDINATED_UNIVERSAL_TIME_OFFSET(0,0,.BEHIND.);
#50=COORDINATED_UNIVERSAL_TIME_OFFSET(0,0,.BEHIND.);
#51=COORDINATED_UNIVERSAL_TIME_OFFSET(0,0,.BEHIND.);
#52=CALENDAR_DATE(0,1,1);
#53=CALENDAR_DATE(0,1,1);
#54=CALENDAR_DATE(0,1,1);
#55=CALENDAR_DATE(0,1,1);
#56=CALENDAR_DATE(0,1,1);
#61=PERSON_AND_ORGANIZATION_ROLE('creator');
#62=PERSON_AND_ORGANIZATION_ROLE('design_owner');
#63=PERSON_AND_ORGANIZATION_ROLE('design_supplier');
#64=PERSON_AND_ORGANIZATION_ROLE('classification_officer');
#65=PERSON_AND_ORGANIZATION(#79,#72);
#66=PERSON_AND_ORGANIZATION(#79,#73);
#67=PERSON_AND_ORGANIZATION(#79,#74);
#68=PERSON_AND_ORGANIZATION(#79,#75);
#69=PERSON_AND_ORGANIZATION(#79,#76);
#70=PERSON_AND_ORGANIZATION(#79,#77);
#71=PERSON_AND_ORGANIZATION(#79,#78);
#72=ORGANIZATION(' ',' ',' ');
#73=ORGANIZATION(' ',' ',' ');
#74=ORGANIZATION(' ',' ',' ');
#75=ORGANIZATION(' ',' ',' ');
#76=ORGANIZATION(' ',' ',' ');
#77=ORGANIZATION(' ',' ',' ');
#78=ORGANIZATION(' ',' ',' ');
#79=PERSON(' ',' ',' ',(' '),$,$);
#80=SHAPE_DEFINITION_REPRESENTATION(#81,#94);
#81=PRODUCT_DEFINITION_SHAPE('','',#82);
#82=PRODUCT_DEFINITION(' ','',#84,$);
#84=PRODUCT_DEFINITION_FORMATION_WITH_SPECIFIED_SOURCE(' ',' ',#86,.NOT_KNOWN.);
#85=PRODUCT_RELATED_PRODUCT_CATEGORY('detail','',(#86));
#86=PRODUCT('AE10_A12_SS_025_635120833396964947_1_stp','AE10_A12_SS_025_635120833396964947_1_stp',
     ' ',());
#87=PRODUCT_CATEGORY_RELATIONSHIP(' ',' ',#89,#90);
#88=PRODUCT_CATEGORY_RELATIONSHIP('','',#90,#85);
#89=PRODUCT_CATEGORY('part',' ');
#90=PRODUCT_CATEGORY(' ','');
#92=APPLICATION_PROTOCOL_DEFINITION('international standard','config_control_design',
     1994,#93);
#93=APPLICATION_CONTEXT('configuration controlled 3D designs of mechanical parts and assemblies');
#94=SHAPE_REPRESENTATION('AE10_A12_SS_025_635120833396964947_1_stp-None',(#331),
     #521);
#95=PRESENTATION_LAYER_ASSIGNMENT('1','Layer 1',(#104));
#96=STYLED_ITEM('',(#97),#104);
#97=PRESENTATION_STYLE_ASSIGNMENT((#98));
#98=SURFACE_STYLE_USAGE(.BOTH.,#99);
#99=SURFACE_SIDE_STYLE('',(#100));
#100=SURFACE_STYLE_FILL_AREA(#101);
#101=FILL_AREA_STYLE('',(#102));
#102=FILL_AREA_STYLE_COLOUR('',#103);
#103=COLOUR_RGB('TLS_NOCUT',0.499992370489052,0.499992370489052,0.499992370489052);
#104=MANIFOLD_SOLID_BREP('NOCUT',#105);
#105=CLOSED_SHELL('',(#125,#126,#127,#128,#129,#130,#131,#132,#133,#134,#135,#136,
     #137,#138,#139,#140,#141,#142,#143,#144,#145));
#106=VERTEX_LOOP('',#279);
#107=FACE_OUTER_BOUND('',#202,.T.);
#108=PLANE('',#344);
#109=PLANE('',#346);
#110=CONICAL_SURFACE('',#338,4.93465731974115,56.6035954456532);
#111=CONICAL_SURFACE('',#347,5.34725,45.0);
#112=CONICAL_SURFACE('',#349,4.44089209850063E-16,59.0000000000001);
#113=CONICAL_SURFACE('',#355,2.3732361909795,74.9999999999912);
#114=CONICAL_SURFACE('',#359,2.72160459229349,49.9999999999992);
#115=CONICAL_SURFACE('',#361,2.59027234429821,5.99999999999999);
#116=CONICAL_SURFACE('',#363,3.13,74.9999999999999);
#117=CONICAL_SURFACE('',#371,3.54813469186403,2.00000000000002);
#118=CONICAL_SURFACE('',#372,3.59003961525413,45.0);
#119=TOROIDAL_SURFACE('',#336,5.54725,0.800000000000005);
#120=TOROIDAL_SURFACE('',#340,5.375,0.800000000000005);
#121=TOROIDAL_SURFACE('',#353,2.425,0.2);
#122=TOROIDAL_SURFACE('',#357,2.20737450454426,0.799999999999997);
#123=TOROIDAL_SURFACE('',#365,3.44813469186403,0.2);
#124=TOROIDAL_SURFACE('',#369,3.44813469186403,0.2);
#125=ADVANCED_FACE('FP_EH_SU1',(#150,#151),#146,.T.);
#126=ADVANCED_FACE('',(#152,#153),#119,.T.);
#127=ADVANCED_FACE('FP_EH_SU2',(#154,#155),#110,.T.);
#128=ADVANCED_FACE('',(#156,#157),#120,.F.);
#129=ADVANCED_FACE('FP_EH_SU3',(#158,#159),#147,.T.);
#130=ADVANCED_FACE('FP_EH_SU4',(#160,#161),#108,.T.);
#131=ADVANCED_FACE('',(#107),#109,.F.);
#132=ADVANCED_FACE('',(#162,#163),#111,.T.);
#133=ADVANCED_FACE('',(#164,#165),#112,.F.);
#134=ADVANCED_FACE('DCH3',(#166,#167),#148,.F.);
#135=ADVANCED_FACE('',(#168,#169),#121,.T.);
#136=ADVANCED_FACE('',(#170,#171),#113,.F.);
#137=ADVANCED_FACE('',(#172,#173),#122,.F.);
#138=ADVANCED_FACE('',(#174,#175),#114,.F.);
#139=ADVANCED_FACE('TSALN',(#176,#177),#115,.F.);
#140=ADVANCED_FACE('',(#178,#179),#116,.F.);
#141=ADVANCED_FACE('',(#180,#181),#123,.F.);
#142=ADVANCED_FACE('DCH2',(#182,#183),#149,.F.);
#143=ADVANCED_FACE('',(#184,#185),#124,.F.);
#144=ADVANCED_FACE('TSAN',(#186,#187),#117,.F.);
#145=ADVANCED_FACE('DCH4',(#188,#189),#118,.F.);
#146=CYLINDRICAL_SURFACE('',#334,6.34725);
#147=CYLINDRICAL_SURFACE('',#342,4.575);
#148=CYLINDRICAL_SURFACE('',#351,2.225);
#149=CYLINDRICAL_SURFACE('',#367,3.64813469186403);
#150=FACE_BOUND('',#190,.T.);
#151=FACE_BOUND('',#191,.T.);
#152=FACE_BOUND('',#192,.T.);
#153=FACE_BOUND('',#193,.T.);
#154=FACE_BOUND('',#194,.T.);
#155=FACE_BOUND('',#195,.T.);
#156=FACE_BOUND('',#196,.T.);
#157=FACE_BOUND('',#197,.T.);
#158=FACE_BOUND('',#198,.T.);
#159=FACE_BOUND('',#199,.T.);
#160=FACE_BOUND('',#200,.T.);
#161=FACE_BOUND('',#201,.T.);
#162=FACE_BOUND('',#203,.T.);
#163=FACE_BOUND('',#204,.T.);
#164=FACE_BOUND('',#205,.T.);
#165=FACE_BOUND('',#106,.T.);
#166=FACE_BOUND('',#206,.T.);
#167=FACE_BOUND('',#207,.T.);
#168=FACE_BOUND('',#208,.T.);
#169=FACE_BOUND('',#209,.T.);
#170=FACE_BOUND('',#210,.T.);
#171=FACE_BOUND('',#211,.T.);
#172=FACE_BOUND('',#212,.T.);
#173=FACE_BOUND('',#213,.T.);
#174=FACE_BOUND('',#214,.T.);
#175=FACE_BOUND('',#215,.T.);
#176=FACE_BOUND('',#216,.T.);
#177=FACE_BOUND('',#217,.T.);
#178=FACE_BOUND('',#218,.T.);
#179=FACE_BOUND('',#219,.T.);
#180=FACE_BOUND('',#220,.T.);
#181=FACE_BOUND('',#221,.T.);
#182=FACE_BOUND('',#222,.T.);
#183=FACE_BOUND('',#223,.T.);
#184=FACE_BOUND('',#224,.T.);
#185=FACE_BOUND('',#225,.T.);
#186=FACE_BOUND('',#226,.T.);
#187=FACE_BOUND('',#227,.T.);
#188=FACE_BOUND('',#228,.T.);
#189=FACE_BOUND('',#229,.T.);
#190=EDGE_LOOP('',(#230));
#191=EDGE_LOOP('',(#231));
#192=EDGE_LOOP('',(#232));
#193=EDGE_LOOP('',(#233));
#194=EDGE_LOOP('',(#234));
#195=EDGE_LOOP('',(#235));
#196=EDGE_LOOP('',(#236));
#197=EDGE_LOOP('',(#237));
#198=EDGE_LOOP('',(#238));
#199=EDGE_LOOP('',(#239));
#200=EDGE_LOOP('',(#240));
#201=EDGE_LOOP('',(#241));
#202=EDGE_LOOP('',(#242));
#203=EDGE_LOOP('',(#243));
#204=EDGE_LOOP('',(#244));
#205=EDGE_LOOP('',(#245));
#206=EDGE_LOOP('',(#246));
#207=EDGE_LOOP('',(#247));
#208=EDGE_LOOP('',(#248));
#209=EDGE_LOOP('',(#249));
#210=EDGE_LOOP('',(#250));
#211=EDGE_LOOP('',(#251));
#212=EDGE_LOOP('',(#252));
#213=EDGE_LOOP('',(#253));
#214=EDGE_LOOP('',(#254));
#215=EDGE_LOOP('',(#255));
#216=EDGE_LOOP('',(#256));
#217=EDGE_LOOP('',(#257));
#218=EDGE_LOOP('',(#258));
#219=EDGE_LOOP('',(#259));
#220=EDGE_LOOP('',(#260));
#221=EDGE_LOOP('',(#261));
#222=EDGE_LOOP('',(#262));
#223=EDGE_LOOP('',(#263));
#224=EDGE_LOOP('',(#264));
#225=EDGE_LOOP('',(#265));
#226=EDGE_LOOP('',(#266));
#227=EDGE_LOOP('',(#267));
#228=EDGE_LOOP('',(#268));
#229=EDGE_LOOP('',(#269));
#230=ORIENTED_EDGE('',*,*,#291,.F.);
#231=ORIENTED_EDGE('',*,*,#292,.T.);
#232=ORIENTED_EDGE('',*,*,#291,.T.);
#233=ORIENTED_EDGE('',*,*,#293,.F.);
#234=ORIENTED_EDGE('',*,*,#293,.T.);
#235=ORIENTED_EDGE('',*,*,#294,.F.);
#236=ORIENTED_EDGE('',*,*,#294,.T.);
#237=ORIENTED_EDGE('',*,*,#295,.F.);
#238=ORIENTED_EDGE('',*,*,#295,.T.);
#239=ORIENTED_EDGE('',*,*,#296,.F.);
#240=ORIENTED_EDGE('',*,*,#297,.F.);
#241=ORIENTED_EDGE('',*,*,#296,.T.);
#242=ORIENTED_EDGE('',*,*,#298,.F.);
#243=ORIENTED_EDGE('',*,*,#292,.F.);
#244=ORIENTED_EDGE('',*,*,#298,.T.);
#245=ORIENTED_EDGE('',*,*,#299,.T.);
#246=ORIENTED_EDGE('',*,*,#300,.T.);
#247=ORIENTED_EDGE('',*,*,#299,.F.);
#248=ORIENTED_EDGE('',*,*,#301,.T.);
#249=ORIENTED_EDGE('',*,*,#300,.F.);
#250=ORIENTED_EDGE('',*,*,#302,.T.);
#251=ORIENTED_EDGE('',*,*,#301,.F.);
#252=ORIENTED_EDGE('',*,*,#303,.T.);
#253=ORIENTED_EDGE('',*,*,#302,.F.);
#254=ORIENTED_EDGE('',*,*,#304,.T.);
#255=ORIENTED_EDGE('',*,*,#303,.F.);
#256=ORIENTED_EDGE('',*,*,#305,.T.);
#257=ORIENTED_EDGE('',*,*,#304,.F.);
#258=ORIENTED_EDGE('',*,*,#306,.T.);
#259=ORIENTED_EDGE('',*,*,#305,.F.);
#260=ORIENTED_EDGE('',*,*,#307,.T.);
#261=ORIENTED_EDGE('',*,*,#306,.F.);
#262=ORIENTED_EDGE('',*,*,#308,.T.);
#263=ORIENTED_EDGE('',*,*,#307,.F.);
#264=ORIENTED_EDGE('',*,*,#309,.T.);
#265=ORIENTED_EDGE('',*,*,#308,.F.);
#266=ORIENTED_EDGE('',*,*,#310,.T.);
#267=ORIENTED_EDGE('',*,*,#309,.F.);
#268=ORIENTED_EDGE('',*,*,#297,.T.);
#269=ORIENTED_EDGE('',*,*,#310,.F.);
#270=VERTEX_POINT('',#459);
#271=VERTEX_POINT('',#461);
#272=VERTEX_POINT('',#464);
#273=VERTEX_POINT('',#467);
#274=VERTEX_POINT('',#470);
#275=VERTEX_POINT('',#473);
#276=VERTEX_POINT('',#476);
#277=VERTEX_POINT('',#479);
#278=VERTEX_POINT('',#483);
#279=VERTEX_POINT('',#484);
#280=VERTEX_POINT('',#487);
#281=VERTEX_POINT('',#490);
#282=VERTEX_POINT('',#493);
#283=VERTEX_POINT('',#496);
#284=VERTEX_POINT('',#499);
#285=VERTEX_POINT('',#502);
#286=VERTEX_POINT('',#505);
#287=VERTEX_POINT('',#508);
#288=VERTEX_POINT('',#511);
#289=VERTEX_POINT('',#514);
#290=VERTEX_POINT('',#517);
#291=EDGE_CURVE('',#270,#270,#311,.T.);
#292=EDGE_CURVE('',#271,#271,#312,.T.);
#293=EDGE_CURVE('',#272,#272,#313,.T.);
#294=EDGE_CURVE('',#273,#273,#314,.T.);
#295=EDGE_CURVE('',#274,#274,#315,.T.);
#296=EDGE_CURVE('',#275,#275,#316,.T.);
#297=EDGE_CURVE('',#276,#276,#317,.T.);
#298=EDGE_CURVE('',#277,#277,#318,.T.);
#299=EDGE_CURVE('',#278,#278,#319,.T.);
#300=EDGE_CURVE('',#280,#280,#320,.T.);
#301=EDGE_CURVE('',#281,#281,#321,.T.);
#302=EDGE_CURVE('',#282,#282,#322,.T.);
#303=EDGE_CURVE('',#283,#283,#323,.T.);
#304=EDGE_CURVE('',#284,#284,#324,.T.);
#305=EDGE_CURVE('',#285,#285,#325,.T.);
#306=EDGE_CURVE('',#286,#286,#326,.T.);
#307=EDGE_CURVE('',#287,#287,#327,.T.);
#308=EDGE_CURVE('',#288,#288,#328,.T.);
#309=EDGE_CURVE('',#289,#289,#329,.T.);
#310=EDGE_CURVE('',#290,#290,#330,.T.);
#311=CIRCLE('',#332,6.34725000000001);
#312=CIRCLE('',#333,6.34725);
#313=CIRCLE('',#335,5.98759268025886);
#314=CIRCLE('',#337,4.93465731974115);
#315=CIRCLE('',#339,4.575);
#316=CIRCLE('',#341,4.575);
#317=CIRCLE('',#343,4.09003961525413);
#318=CIRCLE('',#345,5.34725);
#319=CIRCLE('',#348,2.225);
#320=CIRCLE('',#350,2.225);
#321=CIRCLE('',#352,2.3732361909795);
#322=CIRCLE('',#354,2.41442974062627);
#323=CIRCLE('',#356,2.72160459229349);
#324=CIRCLE('',#358,2.59027234429821);
#325=CIRCLE('',#360,3.13);
#326=CIRCLE('',#362,3.49989850088453);
#327=CIRCLE('',#364,3.64813469186403);
#328=CIRCLE('',#366,3.64813469186403);
#329=CIRCLE('',#368,3.54813469186403);
#330=CIRCLE('',#370,3.59003961525413);
#331=AXIS2_PLACEMENT_3D('',#457,#373,#374);
#332=AXIS2_PLACEMENT_3D('',#458,#375,#376);
#333=AXIS2_PLACEMENT_3D('',#460,#377,#378);
#334=AXIS2_PLACEMENT_3D('',#462,#379,#380);
#335=AXIS2_PLACEMENT_3D('',#463,#381,#382);
#336=AXIS2_PLACEMENT_3D('',#465,#383,#384);
#337=AXIS2_PLACEMENT_3D('',#466,#385,#386);
#338=AXIS2_PLACEMENT_3D('',#468,#387,#388);
#339=AXIS2_PLACEMENT_3D('',#469,#389,#390);
#340=AXIS2_PLACEMENT_3D('',#471,#391,#392);
#341=AXIS2_PLACEMENT_3D('',#472,#393,#394);
#342=AXIS2_PLACEMENT_3D('',#474,#395,#396);
#343=AXIS2_PLACEMENT_3D('',#475,#397,#398);
#344=AXIS2_PLACEMENT_3D('',#477,#399,#400);
#345=AXIS2_PLACEMENT_3D('',#478,#401,#402);
#346=AXIS2_PLACEMENT_3D('',#480,#403,#404);
#347=AXIS2_PLACEMENT_3D('',#481,#405,#406);
#348=AXIS2_PLACEMENT_3D('',#482,#407,#408);
#349=AXIS2_PLACEMENT_3D('',#485,#409,#410);
#350=AXIS2_PLACEMENT_3D('',#486,#411,#412);
#351=AXIS2_PLACEMENT_3D('',#488,#413,#414);
#352=AXIS2_PLACEMENT_3D('',#489,#415,#416);
#353=AXIS2_PLACEMENT_3D('',#491,#417,#418);
#354=AXIS2_PLACEMENT_3D('',#492,#419,#420);
#355=AXIS2_PLACEMENT_3D('',#494,#421,#422);
#356=AXIS2_PLACEMENT_3D('',#495,#423,#424);
#357=AXIS2_PLACEMENT_3D('',#497,#425,#426);
#358=AXIS2_PLACEMENT_3D('',#498,#427,#428);
#359=AXIS2_PLACEMENT_3D('',#500,#429,#430);
#360=AXIS2_PLACEMENT_3D('',#501,#431,#432);
#361=AXIS2_PLACEMENT_3D('',#503,#433,#434);
#362=AXIS2_PLACEMENT_3D('',#504,#435,#436);
#363=AXIS2_PLACEMENT_3D('',#506,#437,#438);
#364=AXIS2_PLACEMENT_3D('',#507,#439,#440);
#365=AXIS2_PLACEMENT_3D('',#509,#441,#442);
#366=AXIS2_PLACEMENT_3D('',#510,#443,#444);
#367=AXIS2_PLACEMENT_3D('',#512,#445,#446);
#368=AXIS2_PLACEMENT_3D('',#513,#447,#448);
#369=AXIS2_PLACEMENT_3D('',#515,#449,#450);
#370=AXIS2_PLACEMENT_3D('',#516,#451,#452);
#371=AXIS2_PLACEMENT_3D('',#518,#453,#454);
#372=AXIS2_PLACEMENT_3D('',#519,#455,#456);
#373=DIRECTION('',(0.0,0.0,1.0));
#374=DIRECTION('',(1.0,0.0,0.0));
#375=DIRECTION('',(0.0,0.0,-1.0));
#376=DIRECTION('',(1.0,0.0,0.0));
#377=DIRECTION('',(0.0,0.0,-1.0));
#378=DIRECTION('',(1.0,0.0,0.0));
#379=DIRECTION('',(0.0,0.0,-1.0));
#380=DIRECTION('',(-1.0,0.0,0.0));
#381=DIRECTION('',(0.0,0.0,-1.0));
#382=DIRECTION('',(1.0,0.0,0.0));
#383=DIRECTION('',(0.0,0.0,-1.0));
#384=DIRECTION('',(-1.0,0.0,0.0));
#385=DIRECTION('',(0.0,0.0,-1.0));
#386=DIRECTION('',(1.0,0.0,0.0));
#387=DIRECTION('',(0.0,0.0,1.0));
#388=DIRECTION('',(1.0,0.0,-2.73593867883925E-17));
#389=DIRECTION('',(0.0,0.0,-1.0));
#390=DIRECTION('',(1.0,0.0,0.0));
#391=DIRECTION('',(0.0,0.0,-1.0));
#392=DIRECTION('',(-1.0,0.0,0.0));
#393=DIRECTION('',(0.0,0.0,-1.0));
#394=DIRECTION('',(1.0,0.0,0.0));
#395=DIRECTION('',(0.0,0.0,-1.0));
#396=DIRECTION('',(-1.0,0.0,0.0));
#397=DIRECTION('',(0.0,0.0,-1.0));
#398=DIRECTION('',(1.0,0.0,0.0));
#399=DIRECTION('',(0.0,0.0,-1.0));
#400=DIRECTION('',(-1.0,0.0,0.0));
#401=DIRECTION('',(0.0,0.0,-1.0));
#402=DIRECTION('',(1.0,0.0,0.0));
#403=DIRECTION('',(0.0,0.0,-1.0));
#404=DIRECTION('',(-1.0,0.0,0.0));
#405=DIRECTION('',(0.0,0.0,-1.0));
#406=DIRECTION('',(-1.0,0.0,0.0));
#407=DIRECTION('',(0.0,0.0,-1.0));
#408=DIRECTION('',(1.0,0.0,0.0));
#409=DIRECTION('',(0.0,0.0,-1.0));
#410=DIRECTION('',(-1.0,0.0,2.91851566052777E-17));
#411=DIRECTION('',(0.0,0.0,-1.0));
#412=DIRECTION('',(1.0,0.0,0.0));
#413=DIRECTION('',(0.0,0.0,-1.0));
#414=DIRECTION('',(-1.0,0.0,0.0));
#415=DIRECTION('',(0.0,0.0,-1.0));
#416=DIRECTION('',(1.0,0.0,0.0));
#417=DIRECTION('',(0.0,0.0,-1.0));
#418=DIRECTION('',(-1.0,0.0,0.0));
#419=DIRECTION('',(0.0,0.0,-1.0));
#420=DIRECTION('',(1.0,0.0,0.0));
#421=DIRECTION('',(0.0,0.0,-1.0));
#422=DIRECTION('',(-1.0,0.0,1.30066261244605E-17));
#423=DIRECTION('',(0.0,0.0,-1.0));
#424=DIRECTION('',(1.0,0.0,0.0));
#425=DIRECTION('',(0.0,0.0,-1.0));
#426=DIRECTION('',(-1.0,0.0,0.0));
#427=DIRECTION('',(0.0,0.0,-1.0));
#428=DIRECTION('',(1.0,0.0,0.0));
#429=DIRECTION('',(0.0,0.0,1.0));
#430=DIRECTION('',(1.0,0.0,-4.06640987119367E-17));
#431=DIRECTION('',(0.0,0.0,-1.0));
#432=DIRECTION('',(1.0,0.0,0.0));
#433=DIRECTION('',(0.0,0.0,-1.0));
#434=DIRECTION('',(-1.0,0.0,-9.66469050915354E-16));
#435=DIRECTION('',(0.0,0.0,-1.0));
#436=DIRECTION('',(1.0,0.0,0.0));
#437=DIRECTION('',(0.0,0.0,-1.0));
#438=DIRECTION('',(-1.0,0.0,-7.43085195752396E-18));
#439=DIRECTION('',(0.0,0.0,-1.0));
#440=DIRECTION('',(1.0,0.0,0.0));
#441=DIRECTION('',(0.0,0.0,-1.0));
#442=DIRECTION('',(-1.0,0.0,0.0));
#443=DIRECTION('',(0.0,0.0,-1.0));
#444=DIRECTION('',(1.0,0.0,0.0));
#445=DIRECTION('',(0.0,0.0,-1.0));
#446=DIRECTION('',(-1.0,0.0,0.0));
#447=DIRECTION('',(0.0,0.0,-1.0));
#448=DIRECTION('',(1.0,0.0,0.0));
#449=DIRECTION('',(0.0,0.0,-1.0));
#450=DIRECTION('',(-1.0,0.0,0.0));
#451=DIRECTION('',(0.0,0.0,-1.0));
#452=DIRECTION('',(1.0,0.0,0.0));
#453=DIRECTION('',(0.0,0.0,-1.0));
#454=DIRECTION('',(-1.0,0.0,-1.98414367559488E-15));
#455=DIRECTION('',(0.0,0.0,-1.0));
#456=DIRECTION('',(-1.0,0.0,5.53125768890045E-17));
#457=CARTESIAN_POINT('',(0.0,0.0,0.0));
#458=CARTESIAN_POINT('',(0.0,0.0,-55.12));
#459=CARTESIAN_POINT('',(6.34725000000001,0.0,-55.12));
#460=CARTESIAN_POINT('',(0.0,0.0,-1.0));
#461=CARTESIAN_POINT('',(6.34725,0.0,-1.0));
#462=CARTESIAN_POINT('',(0.0,0.0,70.5183697733042));
#463=CARTESIAN_POINT('',(0.0,0.0,-55.7879059244703));
#464=CARTESIAN_POINT('',(5.98759268025886,0.0,-55.7879059244703));
#465=CARTESIAN_POINT('',(0.0,0.0,-55.12));
#466=CARTESIAN_POINT('',(0.0,0.0,-56.4820940755298));
#467=CARTESIAN_POINT('',(4.93465731974115,0.0,-56.4820940755298));
#468=CARTESIAN_POINT('',(0.0,0.0,-56.4820940755298));
#469=CARTESIAN_POINT('',(0.0,0.0,-57.15));
#470=CARTESIAN_POINT('',(4.575,0.0,-57.15));
#471=CARTESIAN_POINT('',(0.0,0.0,-57.15));
#472=CARTESIAN_POINT('',(0.0,0.0,-63.5));
#473=CARTESIAN_POINT('',(4.575,0.0,-63.5));
#474=CARTESIAN_POINT('',(0.0,0.0,70.5183697733042));
#475=CARTESIAN_POINT('',(0.0,0.0,-63.5));
#476=CARTESIAN_POINT('',(4.09003961525413,0.0,-63.5));
#477=CARTESIAN_POINT('',(9.76996261670138E-15,0.0,-63.5));
#478=CARTESIAN_POINT('',(0.0,0.0,0.0));
#479=CARTESIAN_POINT('',(5.34725,0.0,0.0));
#480=CARTESIAN_POINT('',(0.0,0.0,0.0));
#481=CARTESIAN_POINT('',(0.0,0.0,0.0));
#482=CARTESIAN_POINT('',(0.0,0.0,-50.5));
#483=CARTESIAN_POINT('',(2.225,0.0,-50.5));
#484=CARTESIAN_POINT('',(-4.44089209850063E-16,0.0,-49.1630851226637));
#485=CARTESIAN_POINT('',(0.0,0.0,-49.1630851226637));
#486=CARTESIAN_POINT('',(0.0,0.0,-53.8));
#487=CARTESIAN_POINT('',(2.225,0.0,-53.8));
#488=CARTESIAN_POINT('',(0.0,0.0,-63.5));
#489=CARTESIAN_POINT('',(0.0,0.0,-53.9931851652578));
#490=CARTESIAN_POINT('',(2.3732361909795,0.0,-53.9931851652578));
#491=CARTESIAN_POINT('',(0.0,0.0,-53.8));
#492=CARTESIAN_POINT('',(0.0,0.0,-54.004222943619));
#493=CARTESIAN_POINT('',(2.41442974062627,0.0,-54.004222943619));
#494=CARTESIAN_POINT('',(0.0,0.0,-53.9931851652578));
#495=CARTESIAN_POINT('',(0.0,0.0,-55.3897991591455));
#496=CARTESIAN_POINT('',(2.72160459229349,0.0,-55.3897991591455));
#497=CARTESIAN_POINT('',(0.0,0.0,-54.7769636046503));
#498=CARTESIAN_POINT('',(0.0,0.0,-55.5));
#499=CARTESIAN_POINT('',(2.59027234429821,0.0,-55.5));
#500=CARTESIAN_POINT('',(0.0,0.0,-55.3897991591455));
#501=CARTESIAN_POINT('',(0.0,0.0,-60.63516562237));
#502=CARTESIAN_POINT('',(3.13,0.0,-60.63516562237));
#503=CARTESIAN_POINT('',(0.0,0.0,-55.5));
#504=CARTESIAN_POINT('',(0.0,0.0,-60.7342796269635));
#505=CARTESIAN_POINT('',(3.49989850088453,0.0,-60.7342796269635));
#506=CARTESIAN_POINT('',(0.0,0.0,-60.63516562237));
#507=CARTESIAN_POINT('',(0.0,0.0,-60.9274647922213));
#508=CARTESIAN_POINT('',(3.64813469186403,0.0,-60.9274647922213));
#509=CARTESIAN_POINT('',(0.0,0.0,-60.9274647922213));
#510=CARTESIAN_POINT('',(0.0,0.0,-61.6267949192431));
#511=CARTESIAN_POINT('',(3.64813469186403,0.0,-61.6267949192431));
#512=CARTESIAN_POINT('',(0.0,0.0,-63.5));
#513=CARTESIAN_POINT('',(0.0,0.0,-61.8));
#514=CARTESIAN_POINT('',(3.54813469186403,0.0,-61.8));
#515=CARTESIAN_POINT('',(0.0,0.0,-61.6267949192431));
#516=CARTESIAN_POINT('',(0.0,0.0,-63.0));
#517=CARTESIAN_POINT('',(3.59003961525413,0.0,-63.0));
#518=CARTESIAN_POINT('',(0.0,0.0,-61.8));
#519=CARTESIAN_POINT('',(0.0,0.0,-63.0));
#520=MECHANICAL_DESIGN_GEOMETRIC_PRESENTATION_REPRESENTATION('',(#96),#521);
#521=(GEOMETRIC_REPRESENTATION_CONTEXT(3)GLOBAL_UNCERTAINTY_ASSIGNED_CONTEXT((#522))
     GLOBAL_UNIT_ASSIGNED_CONTEXT((#528,#524,#523))REPRESENTATION_CONTEXT('AE10_A12_SS_025_635120833396964947_1_stp',
     'TOP_LEVEL_ASSEMBLY_PART'));
#522=UNCERTAINTY_MEASURE_WITH_UNIT(LENGTH_MEASURE(2.0E-5),#528,'DISTANCE_ACCURACY_VALUE',
     'Maximum Tolerance applied to model');
#523=(NAMED_UNIT(*)SI_UNIT($,.STERADIAN.)SOLID_ANGLE_UNIT());
#524=(CONVERSION_BASED_UNIT('DEGREE',#526)NAMED_UNIT(*)PLANE_ANGLE_UNIT());
#525=DIMENSIONAL_EXPONENTS(0.0,0.0,0.0,0.0,0.0,0.0,0.0);
#526=PLANE_ANGLE_MEASURE_WITH_UNIT(PLANE_ANGLE_MEASURE(0.0174532925),#527);
#527=(NAMED_UNIT(*)PLANE_ANGLE_UNIT()SI_UNIT($,.RADIAN.));
#528=(LENGTH_UNIT()NAMED_UNIT(*)SI_UNIT(.MILLI.,.METRE.));
#529=CARTESIAN_POINT('',(0.0,0.0,0.0));
#530=DIRECTION('',(0.0,0.0,1.0));
#531=DIRECTION('',(1.0,0.0,0.0));
#532=AXIS2_PLACEMENT_3D('PCS',#529,#530,#531);
#533=CARTESIAN_POINT('',(0.0,0.0,-36.0));
#534=DIRECTION('',(0.0,0.0,1.0));
#535=DIRECTION('',(1.0,0.0,0.0));
#536=AXIS2_PLACEMENT_3D('MCS',#533,#534,#535);
#537=CARTESIAN_POINT('',(0.0,0.0,-63.5));
#538=DIRECTION('',(0.0,0.0,1.0));
#539=DIRECTION('',(1.0,0.0,0.0));
#540=AXIS2_PLACEMENT_3D('CSW',#537,#538,#539);
#541=CONSTRUCTIVE_GEOMETRY_REPRESENTATION('supplemental geometry',(#532,#536,#540),
     #521);
#542=CONSTRUCTIVE_GEOMETRY_REPRESENTATION_RELATIONSHIP('supplemental geometry',$,
     #94,#541);
ENDSEC;
END-ISO-10303-21;
