ISO-10303-21;
HEADER;
FILE_DESCRIPTION(
/* description */ ('3-D model version:1'),
/* implementation_level */ '2;1');
FILE_NAME(
/* name */ 'A392.45EH-4020096',
/* time_stamp */ '2016-12-02T13:57:25',
/* author */ ('InteractiveCad'),
/* organization */ ('AB Sandvik Coromant'),
/* preprocessor_version */ 'ST-DEVELOPER v15',
/* originating_system */ 'SIEMENS PLM Software NX 8.5',
/* authorization */ '');
FILE_SCHEMA(('AUTOMOTIVE_DESIGN'));
ENDSEC;
DATA;
#10=SHAPE_REPRESENTATION_RELATIONSHIP('None','relationship between A392_45EH_4020096_SIM-None and A392_45EH_4020096_SIM-None',
     #92,#11);
#11=ADVANCED_BREP_SHAPE_REPRESENTATION('A392_45EH_4020096_SIM-None',(#102),#575);
#15=APPROVAL_PERSON_ORGANIZATION(#69,#24,#18);
#16=APPROVAL_PERSON_ORGANIZATION(#70,#25,#19);
#17=APPROVAL_PERSON_ORGANIZATION(#71,#26,#20);
#18=APPROVAL_ROLE('approver');
#19=APPROVAL_ROLE('approver');
#20=APPROVAL_ROLE('approver');
#21=APPROVAL_DATE_TIME(#39,#24);
#22=APPROVAL_DATE_TIME(#40,#25);
#23=APPROVAL_DATE_TIME(#41,#26);
#24=APPROVAL(#27,' ');
#25=APPROVAL(#28,' ');
#26=APPROVAL(#29,' ');
#27=APPROVAL_STATUS('not_yet_approved');
#28=APPROVAL_STATUS('not_yet_approved');
#29=APPROVAL_STATUS('not_yet_approved');
#31=SECURITY_CLASSIFICATION(' ',' ',#32);
#32=SECURITY_CLASSIFICATION_LEVEL('confidential');
#35=DATE_TIME_ROLE('creation_date');
#36=DATE_TIME_ROLE('classification_date');
#37=DATE_AND_TIME(#52,#42);
#38=DATE_AND_TIME(#53,#43);
#39=DATE_AND_TIME(#54,#44);
#40=DATE_AND_TIME(#55,#45);
#41=DATE_AND_TIME(#56,#46);
#42=LOCAL_TIME(0,0,0.0,#47);
#43=LOCAL_TIME(0,0,0.0,#48);
#44=LOCAL_TIME(0,0,0.0,#49);
#45=LOCAL_TIME(0,0,0.0,#50);
#46=LOCAL_TIME(0,0,0.0,#51);
#47=COORDINATED_UNIVERSAL_TIME_OFFSET(0,0,.BEHIND.);
#48=COORDINATED_UNIVERSAL_TIME_OFFSET(0,0,.BEHIND.);
#49=COORDINATED_UNIVERSAL_TIME_OFFSET(0,0,.BEHIND.);
#50=COORDINATED_UNIVERSAL_TIME_OFFSET(0,0,.BEHIND.);
#51=COORDINATED_UNIVERSAL_TIME_OFFSET(0,0,.BEHIND.);
#52=CALENDAR_DATE(0,1,1);
#53=CALENDAR_DATE(0,1,1);
#54=CALENDAR_DATE(0,1,1);
#55=CALENDAR_DATE(0,1,1);
#56=CALENDAR_DATE(0,1,1);
#61=PERSON_AND_ORGANIZATION_ROLE('creator');
#62=PERSON_AND_ORGANIZATION_ROLE('design_owner');
#63=PERSON_AND_ORGANIZATION_ROLE('design_supplier');
#64=PERSON_AND_ORGANIZATION_ROLE('classification_officer');
#65=PERSON_AND_ORGANIZATION(#79,#72);
#66=PERSON_AND_ORGANIZATION(#79,#73);
#67=PERSON_AND_ORGANIZATION(#79,#74);
#68=PERSON_AND_ORGANIZATION(#79,#75);
#69=PERSON_AND_ORGANIZATION(#79,#76);
#70=PERSON_AND_ORGANIZATION(#79,#77);
#71=PERSON_AND_ORGANIZATION(#79,#78);
#72=ORGANIZATION(' ',' ',' ');
#73=ORGANIZATION(' ',' ',' ');
#74=ORGANIZATION(' ',' ',' ');
#75=ORGANIZATION(' ',' ',' ');
#76=ORGANIZATION(' ',' ',' ');
#77=ORGANIZATION(' ',' ',' ');
#78=ORGANIZATION(' ',' ',' ');
#79=PERSON(' ',' ',' ',(' '),$,$);
#80=SHAPE_DEFINITION_REPRESENTATION(#81,#92);
#81=PRODUCT_DEFINITION_SHAPE('','',#82);
#82=PRODUCT_DEFINITION(' ','',#84,$);
#84=PRODUCT_DEFINITION_FORMATION_WITH_SPECIFIED_SOURCE(' ',' ',#86,.NOT_KNOWN.);
#85=PRODUCT_RELATED_PRODUCT_CATEGORY('detail','',(#86));
#86=PRODUCT('A392_45EH_4020096_SIM','A392_45EH_4020096_SIM',' ',());
#87=PRODUCT_CATEGORY('part',' ');
#88=PRODUCT_CATEGORY(' ','');
#90=APPLICATION_PROTOCOL_DEFINITION('international standard','config_control_design',
     2010,#91);
#91=APPLICATION_CONTEXT('configuration controlled 3D designs of mechanical parts and assemblies');
#92=SHAPE_REPRESENTATION('A392_45EH_4020096_SIM-None',(#359),#575);
#93=PRESENTATION_LAYER_ASSIGNMENT('1','Layer 1',(#102));
#94=STYLED_ITEM('',(#95),#102);
#95=PRESENTATION_STYLE_ASSIGNMENT((#96));
#96=SURFACE_STYLE_USAGE(.BOTH.,#97);
#97=SURFACE_SIDE_STYLE('',(#98));
#98=SURFACE_STYLE_FILL_AREA(#99);
#99=FILL_AREA_STYLE('',(#100));
#100=FILL_AREA_STYLE_COLOUR('',#101);
#101=COLOUR_RGB('TLS_NOCUT',0.499992370489052,0.499992370489052,0.499992370489052);
#102=MANIFOLD_SOLID_BREP('NOCUT',#103);
#103=CLOSED_SHELL('',(#166,#167,#168,#169,#170,#171,#172,#173,#174,#175,#176,#177,
     #178,#179,#180,#181,#182,#183,#184,#185,#186,#187,#188,#189));
#104=CYLINDRICAL_SURFACE('',#371,22.0);
#105=CYLINDRICAL_SURFACE('',#379,31.75);
#106=CYLINDRICAL_SURFACE('',#385,28.0);
#107=CYLINDRICAL_SURFACE('',#391,31.75);
#108=CYLINDRICAL_SURFACE('',#399,22.225);
#109=CYLINDRICAL_SURFACE('',#406,9.2);
#110=CONICAL_SURFACE('',#367,12.3965732577418,8.29722000000019);
#111=CONICAL_SURFACE('',#369,22.327084269495,29.9999999999969);
#112=CONICAL_SURFACE('',#377,30.95,45.0000000000001);
#113=CONICAL_SURFACE('',#381,31.75,60.0);
#114=CONICAL_SURFACE('',#389,28.9741978045701,60.0);
#115=CONICAL_SURFACE('',#393,31.75,45.0000000000001);
#116=CONICAL_SURFACE('',#401,22.225,75.0000000000002);
#117=CONICAL_SURFACE('',#405,14.2635250654426,8.01840444796477);
#118=TOROIDAL_SURFACE('',#365,11.4070404656526,1.0);
#119=TOROIDAL_SURFACE('',#373,22.6,0.6);
#120=TOROIDAL_SURFACE('',#397,23.025,0.8);
#121=TOROIDAL_SURFACE('',#403,19.2146416290372,5.0);
#122=FACE_BOUND('',#200,.T.);
#123=FACE_BOUND('',#201,.T.);
#124=FACE_BOUND('',#202,.T.);
#125=FACE_BOUND('',#203,.T.);
#126=FACE_BOUND('',#204,.T.);
#127=FACE_BOUND('',#205,.T.);
#128=FACE_BOUND('',#206,.T.);
#129=FACE_BOUND('',#207,.T.);
#130=FACE_BOUND('',#208,.T.);
#131=FACE_BOUND('',#209,.T.);
#132=FACE_BOUND('',#210,.T.);
#133=FACE_BOUND('',#211,.T.);
#134=FACE_BOUND('',#212,.T.);
#135=FACE_BOUND('',#213,.T.);
#136=FACE_BOUND('',#214,.T.);
#137=FACE_BOUND('',#215,.T.);
#138=FACE_BOUND('',#216,.T.);
#139=FACE_BOUND('',#217,.T.);
#140=FACE_BOUND('',#218,.T.);
#141=FACE_BOUND('',#219,.T.);
#142=FACE_BOUND('',#220,.T.);
#143=FACE_BOUND('',#221,.T.);
#144=FACE_BOUND('',#222,.T.);
#145=FACE_BOUND('',#223,.T.);
#146=FACE_BOUND('',#224,.T.);
#147=FACE_BOUND('',#225,.T.);
#148=FACE_BOUND('',#226,.T.);
#149=FACE_BOUND('',#227,.T.);
#150=FACE_BOUND('',#228,.T.);
#151=FACE_BOUND('',#229,.T.);
#152=FACE_BOUND('',#230,.T.);
#153=FACE_BOUND('',#231,.T.);
#154=FACE_BOUND('',#232,.T.);
#155=FACE_BOUND('',#233,.T.);
#156=FACE_BOUND('',#234,.T.);
#157=FACE_BOUND('',#235,.T.);
#158=FACE_BOUND('',#236,.T.);
#159=FACE_BOUND('',#237,.T.);
#160=FACE_BOUND('',#238,.T.);
#161=FACE_BOUND('',#239,.T.);
#162=FACE_BOUND('',#240,.T.);
#163=FACE_BOUND('',#241,.T.);
#164=FACE_BOUND('',#242,.T.);
#165=FACE_BOUND('',#243,.T.);
#166=ADVANCED_FACE('',(#196),#190,.T.);
#167=ADVANCED_FACE('',(#197),#191,.T.);
#168=ADVANCED_FACE('',(#122,#123),#118,.T.);
#169=ADVANCED_FACE('',(#124,#125),#110,.T.);
#170=ADVANCED_FACE('',(#126,#127),#111,.T.);
#171=ADVANCED_FACE('',(#128,#129),#104,.T.);
#172=ADVANCED_FACE('',(#130,#131),#119,.F.);
#173=ADVANCED_FACE('',(#132,#133),#192,.T.);
#174=ADVANCED_FACE('',(#134,#135),#112,.T.);
#175=ADVANCED_FACE('',(#136,#137),#105,.T.);
#176=ADVANCED_FACE('',(#138,#139),#113,.T.);
#177=ADVANCED_FACE('',(#140,#141),#193,.T.);
#178=ADVANCED_FACE('',(#142,#143),#106,.T.);
#179=ADVANCED_FACE('',(#144,#145),#194,.T.);
#180=ADVANCED_FACE('',(#146,#147),#114,.T.);
#181=ADVANCED_FACE('',(#148,#149),#107,.T.);
#182=ADVANCED_FACE('',(#150,#151),#115,.T.);
#183=ADVANCED_FACE('',(#152,#153),#195,.T.);
#184=ADVANCED_FACE('',(#154,#155),#120,.F.);
#185=ADVANCED_FACE('',(#156,#157),#108,.T.);
#186=ADVANCED_FACE('',(#158,#159),#116,.T.);
#187=ADVANCED_FACE('',(#160,#161),#121,.F.);
#188=ADVANCED_FACE('',(#162,#163),#117,.T.);
#189=ADVANCED_FACE('',(#164,#165),#109,.T.);
#190=PLANE('',#361);
#191=PLANE('',#363);
#192=PLANE('',#375);
#193=PLANE('',#383);
#194=PLANE('',#387);
#195=PLANE('',#395);
#196=FACE_OUTER_BOUND('',#198,.T.);
#197=FACE_OUTER_BOUND('',#199,.T.);
#198=EDGE_LOOP('',(#244));
#199=EDGE_LOOP('',(#245));
#200=EDGE_LOOP('',(#246));
#201=EDGE_LOOP('',(#247));
#202=EDGE_LOOP('',(#248));
#203=EDGE_LOOP('',(#249));
#204=EDGE_LOOP('',(#250));
#205=EDGE_LOOP('',(#251));
#206=EDGE_LOOP('',(#252));
#207=EDGE_LOOP('',(#253));
#208=EDGE_LOOP('',(#254));
#209=EDGE_LOOP('',(#255));
#210=EDGE_LOOP('',(#256));
#211=EDGE_LOOP('',(#257));
#212=EDGE_LOOP('',(#258));
#213=EDGE_LOOP('',(#259));
#214=EDGE_LOOP('',(#260));
#215=EDGE_LOOP('',(#261));
#216=EDGE_LOOP('',(#262));
#217=EDGE_LOOP('',(#263));
#218=EDGE_LOOP('',(#264));
#219=EDGE_LOOP('',(#265));
#220=EDGE_LOOP('',(#266));
#221=EDGE_LOOP('',(#267));
#222=EDGE_LOOP('',(#268));
#223=EDGE_LOOP('',(#269));
#224=EDGE_LOOP('',(#270));
#225=EDGE_LOOP('',(#271));
#226=EDGE_LOOP('',(#272));
#227=EDGE_LOOP('',(#273));
#228=EDGE_LOOP('',(#274));
#229=EDGE_LOOP('',(#275));
#230=EDGE_LOOP('',(#276));
#231=EDGE_LOOP('',(#277));
#232=EDGE_LOOP('',(#278));
#233=EDGE_LOOP('',(#279));
#234=EDGE_LOOP('',(#280));
#235=EDGE_LOOP('',(#281));
#236=EDGE_LOOP('',(#282));
#237=EDGE_LOOP('',(#283));
#238=EDGE_LOOP('',(#284));
#239=EDGE_LOOP('',(#285));
#240=EDGE_LOOP('',(#286));
#241=EDGE_LOOP('',(#287));
#242=EDGE_LOOP('',(#288));
#243=EDGE_LOOP('',(#289));
#244=ORIENTED_EDGE('',*,*,#313,.F.);
#245=ORIENTED_EDGE('',*,*,#314,.T.);
#246=ORIENTED_EDGE('',*,*,#315,.T.);
#247=ORIENTED_EDGE('',*,*,#314,.F.);
#248=ORIENTED_EDGE('',*,*,#316,.T.);
#249=ORIENTED_EDGE('',*,*,#315,.F.);
#250=ORIENTED_EDGE('',*,*,#317,.T.);
#251=ORIENTED_EDGE('',*,*,#316,.F.);
#252=ORIENTED_EDGE('',*,*,#318,.T.);
#253=ORIENTED_EDGE('',*,*,#317,.F.);
#254=ORIENTED_EDGE('',*,*,#319,.T.);
#255=ORIENTED_EDGE('',*,*,#318,.F.);
#256=ORIENTED_EDGE('',*,*,#320,.T.);
#257=ORIENTED_EDGE('',*,*,#319,.F.);
#258=ORIENTED_EDGE('',*,*,#321,.T.);
#259=ORIENTED_EDGE('',*,*,#320,.F.);
#260=ORIENTED_EDGE('',*,*,#322,.T.);
#261=ORIENTED_EDGE('',*,*,#321,.F.);
#262=ORIENTED_EDGE('',*,*,#323,.T.);
#263=ORIENTED_EDGE('',*,*,#322,.F.);
#264=ORIENTED_EDGE('',*,*,#324,.T.);
#265=ORIENTED_EDGE('',*,*,#323,.F.);
#266=ORIENTED_EDGE('',*,*,#325,.T.);
#267=ORIENTED_EDGE('',*,*,#324,.F.);
#268=ORIENTED_EDGE('',*,*,#326,.T.);
#269=ORIENTED_EDGE('',*,*,#325,.F.);
#270=ORIENTED_EDGE('',*,*,#327,.T.);
#271=ORIENTED_EDGE('',*,*,#326,.F.);
#272=ORIENTED_EDGE('',*,*,#328,.T.);
#273=ORIENTED_EDGE('',*,*,#327,.F.);
#274=ORIENTED_EDGE('',*,*,#329,.T.);
#275=ORIENTED_EDGE('',*,*,#328,.F.);
#276=ORIENTED_EDGE('',*,*,#330,.T.);
#277=ORIENTED_EDGE('',*,*,#329,.F.);
#278=ORIENTED_EDGE('',*,*,#331,.T.);
#279=ORIENTED_EDGE('',*,*,#330,.F.);
#280=ORIENTED_EDGE('',*,*,#332,.T.);
#281=ORIENTED_EDGE('',*,*,#331,.F.);
#282=ORIENTED_EDGE('',*,*,#333,.T.);
#283=ORIENTED_EDGE('',*,*,#332,.F.);
#284=ORIENTED_EDGE('',*,*,#334,.T.);
#285=ORIENTED_EDGE('',*,*,#333,.F.);
#286=ORIENTED_EDGE('',*,*,#335,.T.);
#287=ORIENTED_EDGE('',*,*,#334,.F.);
#288=ORIENTED_EDGE('',*,*,#313,.T.);
#289=ORIENTED_EDGE('',*,*,#335,.F.);
#290=VERTEX_POINT('',#505);
#291=VERTEX_POINT('',#508);
#292=VERTEX_POINT('',#511);
#293=VERTEX_POINT('',#514);
#294=VERTEX_POINT('',#517);
#295=VERTEX_POINT('',#520);
#296=VERTEX_POINT('',#523);
#297=VERTEX_POINT('',#526);
#298=VERTEX_POINT('',#529);
#299=VERTEX_POINT('',#532);
#300=VERTEX_POINT('',#535);
#301=VERTEX_POINT('',#538);
#302=VERTEX_POINT('',#541);
#303=VERTEX_POINT('',#544);
#304=VERTEX_POINT('',#547);
#305=VERTEX_POINT('',#550);
#306=VERTEX_POINT('',#553);
#307=VERTEX_POINT('',#556);
#308=VERTEX_POINT('',#559);
#309=VERTEX_POINT('',#562);
#310=VERTEX_POINT('',#565);
#311=VERTEX_POINT('',#568);
#312=VERTEX_POINT('',#571);
#313=EDGE_CURVE('',#290,#290,#336,.T.);
#314=EDGE_CURVE('',#291,#291,#337,.T.);
#315=EDGE_CURVE('',#292,#292,#338,.T.);
#316=EDGE_CURVE('',#293,#293,#339,.T.);
#317=EDGE_CURVE('',#294,#294,#340,.T.);
#318=EDGE_CURVE('',#295,#295,#341,.T.);
#319=EDGE_CURVE('',#296,#296,#342,.T.);
#320=EDGE_CURVE('',#297,#297,#343,.T.);
#321=EDGE_CURVE('',#298,#298,#344,.T.);
#322=EDGE_CURVE('',#299,#299,#345,.T.);
#323=EDGE_CURVE('',#300,#300,#346,.T.);
#324=EDGE_CURVE('',#301,#301,#347,.T.);
#325=EDGE_CURVE('',#302,#302,#348,.T.);
#326=EDGE_CURVE('',#303,#303,#349,.T.);
#327=EDGE_CURVE('',#304,#304,#350,.T.);
#328=EDGE_CURVE('',#305,#305,#351,.T.);
#329=EDGE_CURVE('',#306,#306,#352,.T.);
#330=EDGE_CURVE('',#307,#307,#353,.T.);
#331=EDGE_CURVE('',#308,#308,#354,.T.);
#332=EDGE_CURVE('',#309,#309,#355,.T.);
#333=EDGE_CURVE('',#310,#310,#356,.T.);
#334=EDGE_CURVE('',#311,#311,#357,.T.);
#335=EDGE_CURVE('',#312,#312,#358,.T.);
#336=CIRCLE('',#360,9.2);
#337=CIRCLE('',#362,11.4070404656526);
#338=CIRCLE('',#364,12.3965732577418);
#339=CIRCLE('',#366,22.327084269495);
#340=CIRCLE('',#368,22.0);
#341=CIRCLE('',#370,22.0);
#342=CIRCLE('',#372,22.6);
#343=CIRCLE('',#374,30.95);
#344=CIRCLE('',#376,31.75);
#345=CIRCLE('',#378,31.75);
#346=CIRCLE('',#380,28.9741978045701);
#347=CIRCLE('',#382,28.0);
#348=CIRCLE('',#384,28.0);
#349=CIRCLE('',#386,28.9741978045701);
#350=CIRCLE('',#388,31.75);
#351=CIRCLE('',#390,31.75);
#352=CIRCLE('',#392,30.95);
#353=CIRCLE('',#394,23.025);
#354=CIRCLE('',#396,22.225);
#355=CIRCLE('',#398,22.225);
#356=CIRCLE('',#400,17.9205464035247);
#357=CIRCLE('',#402,14.2635250654426);
#358=CIRCLE('',#404,9.2);
#359=AXIS2_PLACEMENT_3D('',#503,#407,#408);
#360=AXIS2_PLACEMENT_3D('',#504,#409,#410);
#361=AXIS2_PLACEMENT_3D('',#506,#411,#412);
#362=AXIS2_PLACEMENT_3D('',#507,#413,#414);
#363=AXIS2_PLACEMENT_3D('',#509,#415,#416);
#364=AXIS2_PLACEMENT_3D('',#510,#417,#418);
#365=AXIS2_PLACEMENT_3D('',#512,#419,#420);
#366=AXIS2_PLACEMENT_3D('',#513,#421,#422);
#367=AXIS2_PLACEMENT_3D('',#515,#423,#424);
#368=AXIS2_PLACEMENT_3D('',#516,#425,#426);
#369=AXIS2_PLACEMENT_3D('',#518,#427,#428);
#370=AXIS2_PLACEMENT_3D('',#519,#429,#430);
#371=AXIS2_PLACEMENT_3D('',#521,#431,#432);
#372=AXIS2_PLACEMENT_3D('',#522,#433,#434);
#373=AXIS2_PLACEMENT_3D('',#524,#435,#436);
#374=AXIS2_PLACEMENT_3D('',#525,#437,#438);
#375=AXIS2_PLACEMENT_3D('',#527,#439,#440);
#376=AXIS2_PLACEMENT_3D('',#528,#441,#442);
#377=AXIS2_PLACEMENT_3D('',#530,#443,#444);
#378=AXIS2_PLACEMENT_3D('',#531,#445,#446);
#379=AXIS2_PLACEMENT_3D('',#533,#447,#448);
#380=AXIS2_PLACEMENT_3D('',#534,#449,#450);
#381=AXIS2_PLACEMENT_3D('',#536,#451,#452);
#382=AXIS2_PLACEMENT_3D('',#537,#453,#454);
#383=AXIS2_PLACEMENT_3D('',#539,#455,#456);
#384=AXIS2_PLACEMENT_3D('',#540,#457,#458);
#385=AXIS2_PLACEMENT_3D('',#542,#459,#460);
#386=AXIS2_PLACEMENT_3D('',#543,#461,#462);
#387=AXIS2_PLACEMENT_3D('',#545,#463,#464);
#388=AXIS2_PLACEMENT_3D('',#546,#465,#466);
#389=AXIS2_PLACEMENT_3D('',#548,#467,#468);
#390=AXIS2_PLACEMENT_3D('',#549,#469,#470);
#391=AXIS2_PLACEMENT_3D('',#551,#471,#472);
#392=AXIS2_PLACEMENT_3D('',#552,#473,#474);
#393=AXIS2_PLACEMENT_3D('',#554,#475,#476);
#394=AXIS2_PLACEMENT_3D('',#555,#477,#478);
#395=AXIS2_PLACEMENT_3D('',#557,#479,#480);
#396=AXIS2_PLACEMENT_3D('',#558,#481,#482);
#397=AXIS2_PLACEMENT_3D('',#560,#483,#484);
#398=AXIS2_PLACEMENT_3D('',#561,#485,#486);
#399=AXIS2_PLACEMENT_3D('',#563,#487,#488);
#400=AXIS2_PLACEMENT_3D('',#564,#489,#490);
#401=AXIS2_PLACEMENT_3D('',#566,#491,#492);
#402=AXIS2_PLACEMENT_3D('',#567,#493,#494);
#403=AXIS2_PLACEMENT_3D('',#569,#495,#496);
#404=AXIS2_PLACEMENT_3D('',#570,#497,#498);
#405=AXIS2_PLACEMENT_3D('',#572,#499,#500);
#406=AXIS2_PLACEMENT_3D('',#573,#501,#502);
#407=DIRECTION('',(0.0,0.0,1.0));
#408=DIRECTION('',(1.0,0.0,0.0));
#409=DIRECTION('',(0.0,0.0,1.0));
#410=DIRECTION('',(1.0,0.0,0.0));
#411=DIRECTION('',(0.0,0.0,-1.0));
#412=DIRECTION('',(-1.0,0.0,0.0));
#413=DIRECTION('',(0.0,0.0,1.0));
#414=DIRECTION('',(1.0,0.0,0.0));
#415=DIRECTION('',(0.0,0.0,1.0));
#416=DIRECTION('',(1.0,0.0,0.0));
#417=DIRECTION('',(0.0,0.0,1.0));
#418=DIRECTION('',(1.0,0.0,0.0));
#419=DIRECTION('',(0.0,0.0,1.0));
#420=DIRECTION('',(1.0,0.0,0.0));
#421=DIRECTION('',(0.0,0.0,1.0));
#422=DIRECTION('',(1.0,0.0,0.0));
#423=DIRECTION('',(0.0,0.0,-1.0));
#424=DIRECTION('',(-1.0,0.0,-3.50822946469395E-16));
#425=DIRECTION('',(0.0,0.0,1.0));
#426=DIRECTION('',(1.0,0.0,0.0));
#427=DIRECTION('',(0.0,0.0,1.0));
#428=DIRECTION('',(1.0,0.0,-5.27928948024526E-17));
#429=DIRECTION('',(0.0,0.0,1.0));
#430=DIRECTION('',(1.0,0.0,0.0));
#431=DIRECTION('',(0.0,0.0,1.0));
#432=DIRECTION('',(1.0,0.0,0.0));
#433=DIRECTION('',(0.0,0.0,1.0));
#434=DIRECTION('',(1.0,0.0,0.0));
#435=DIRECTION('',(0.0,0.0,1.0));
#436=DIRECTION('',(1.0,0.0,0.0));
#437=DIRECTION('',(0.0,0.0,1.0));
#438=DIRECTION('',(1.0,0.0,0.0));
#439=DIRECTION('',(0.0,0.0,1.0));
#440=DIRECTION('',(1.0,0.0,0.0));
#441=DIRECTION('',(0.0,0.0,1.0));
#442=DIRECTION('',(1.0,0.0,0.0));
#443=DIRECTION('',(0.0,0.0,-1.0));
#444=DIRECTION('',(-1.0,0.0,3.74388644846829E-17));
#445=DIRECTION('',(0.0,0.0,1.0));
#446=DIRECTION('',(1.0,0.0,0.0));
#447=DIRECTION('',(0.0,0.0,1.0));
#448=DIRECTION('',(1.0,0.0,0.0));
#449=DIRECTION('',(0.0,0.0,1.0));
#450=DIRECTION('',(1.0,0.0,0.0));
#451=DIRECTION('',(0.0,0.0,1.0));
#452=DIRECTION('',(1.0,0.0,2.99971889060531E-17));
#453=DIRECTION('',(0.0,0.0,1.0));
#454=DIRECTION('',(1.0,0.0,0.0));
#455=DIRECTION('',(0.0,0.0,-1.0));
#456=DIRECTION('',(-1.0,0.0,0.0));
#457=DIRECTION('',(0.0,0.0,1.0));
#458=DIRECTION('',(1.0,0.0,0.0));
#459=DIRECTION('',(0.0,0.0,1.0));
#460=DIRECTION('',(1.0,0.0,0.0));
#461=DIRECTION('',(0.0,0.0,1.0));
#462=DIRECTION('',(1.0,0.0,0.0));
#463=DIRECTION('',(0.0,0.0,1.0));
#464=DIRECTION('',(1.0,0.0,0.0));
#465=DIRECTION('',(0.0,0.0,1.0));
#466=DIRECTION('',(1.0,0.0,0.0));
#467=DIRECTION('',(0.0,0.0,-1.0));
#468=DIRECTION('',(-1.0,0.0,-3.74324566011143E-17));
#469=DIRECTION('',(0.0,0.0,1.0));
#470=DIRECTION('',(1.0,0.0,0.0));
#471=DIRECTION('',(0.0,0.0,1.0));
#472=DIRECTION('',(1.0,0.0,0.0));
#473=DIRECTION('',(0.0,0.0,1.0));
#474=DIRECTION('',(1.0,0.0,0.0));
#475=DIRECTION('',(0.0,0.0,1.0));
#476=DIRECTION('',(1.0,0.0,1.00880454139673E-17));
#477=DIRECTION('',(0.0,0.0,1.0));
#478=DIRECTION('',(1.0,0.0,0.0));
#479=DIRECTION('',(0.0,0.0,-1.0));
#480=DIRECTION('',(-1.0,0.0,0.0));
#481=DIRECTION('',(0.0,0.0,1.0));
#482=DIRECTION('',(1.0,0.0,0.0));
#483=DIRECTION('',(0.0,0.0,1.0));
#484=DIRECTION('',(1.0,0.0,0.0));
#485=DIRECTION('',(0.0,0.0,1.0));
#486=DIRECTION('',(1.0,0.0,0.0));
#487=DIRECTION('',(0.0,0.0,1.0));
#488=DIRECTION('',(1.0,0.0,0.0));
#489=DIRECTION('',(0.0,0.0,1.0));
#490=DIRECTION('',(1.0,0.0,0.0));
#491=DIRECTION('',(0.0,0.0,1.0));
#492=DIRECTION('',(1.0,0.0,-9.24132144196472E-18));
#493=DIRECTION('',(0.0,0.0,1.0));
#494=DIRECTION('',(1.0,0.0,0.0));
#495=DIRECTION('',(0.0,0.0,1.0));
#496=DIRECTION('',(1.0,0.0,0.0));
#497=DIRECTION('',(0.0,0.0,1.0));
#498=DIRECTION('',(1.0,0.0,0.0));
#499=DIRECTION('',(0.0,0.0,1.0));
#500=DIRECTION('',(1.0,0.0,-8.94579674617702E-17));
#501=DIRECTION('',(0.0,0.0,1.0));
#502=DIRECTION('',(1.0,0.0,0.0));
#503=CARTESIAN_POINT('',(0.0,0.0,0.0));
#504=CARTESIAN_POINT('',(0.0,0.0,-96.0));
#505=CARTESIAN_POINT('',(9.2,0.0,-96.0));
#506=CARTESIAN_POINT('',(0.0,9.2,-96.0));
#507=CARTESIAN_POINT('',(0.0,0.0,68.25));
#508=CARTESIAN_POINT('',(11.4070404656526,0.0,68.25));
#509=CARTESIAN_POINT('',(0.0,9.74,68.25));
#510=CARTESIAN_POINT('',(0.0,0.0,67.3943081888882));
#511=CARTESIAN_POINT('',(12.3965732577418,0.0,67.3943081888882));
#512=CARTESIAN_POINT('',(0.0,0.0,67.25));
#513=CARTESIAN_POINT('',(0.0,0.0,-0.700000000000002));
#514=CARTESIAN_POINT('',(22.327084269495,0.0,-0.700000000000002));
#515=CARTESIAN_POINT('',(0.0,0.0,67.3943081888882));
#516=CARTESIAN_POINT('',(0.0,0.0,-1.26652657312185));
#517=CARTESIAN_POINT('',(22.0,0.0,-1.26652657312185));
#518=CARTESIAN_POINT('',(0.0,0.0,-0.700000000000002));
#519=CARTESIAN_POINT('',(0.0,0.0,-2.58));
#520=CARTESIAN_POINT('',(22.0,0.0,-2.58));
#521=CARTESIAN_POINT('',(0.0,0.0,6.50521303491303E-16));
#522=CARTESIAN_POINT('',(0.0,0.0,-3.18));
#523=CARTESIAN_POINT('',(22.6,0.0,-3.18));
#524=CARTESIAN_POINT('',(0.0,0.0,-2.58));
#525=CARTESIAN_POINT('',(0.0,0.0,-3.18));
#526=CARTESIAN_POINT('',(30.95,0.0,-3.18));
#527=CARTESIAN_POINT('',(0.0,22.6,-3.18));
#528=CARTESIAN_POINT('',(0.0,0.0,-3.98));
#529=CARTESIAN_POINT('',(31.75,0.0,-3.98));
#530=CARTESIAN_POINT('',(0.0,0.0,-3.18));
#531=CARTESIAN_POINT('',(0.0,0.0,-7.57238985525138));
#532=CARTESIAN_POINT('',(31.75,0.0,-7.57238985525138));
#533=CARTESIAN_POINT('',(0.0,0.0,6.50521303491303E-16));
#534=CARTESIAN_POINT('',(0.0,0.0,-9.17499999999999));
#535=CARTESIAN_POINT('',(28.9741978045701,0.0,-9.17499999999999));
#536=CARTESIAN_POINT('',(0.0,0.0,-7.57238985525138));
#537=CARTESIAN_POINT('',(0.0,0.0,-9.175));
#538=CARTESIAN_POINT('',(28.0,0.0,-9.175));
#539=CARTESIAN_POINT('',(0.0,28.9741978045701,-9.175));
#540=CARTESIAN_POINT('',(0.0,0.0,-13.025));
#541=CARTESIAN_POINT('',(28.0,0.0,-13.025));
#542=CARTESIAN_POINT('',(0.0,0.0,6.50521303491303E-16));
#543=CARTESIAN_POINT('',(0.0,0.0,-13.025));
#544=CARTESIAN_POINT('',(28.9741978045701,0.0,-13.025));
#545=CARTESIAN_POINT('',(0.0,28.0,-13.025));
#546=CARTESIAN_POINT('',(0.0,0.0,-14.6276101447486));
#547=CARTESIAN_POINT('',(31.75,0.0,-14.6276101447486));
#548=CARTESIAN_POINT('',(0.0,0.0,-13.025));
#549=CARTESIAN_POINT('',(0.0,0.0,-18.25));
#550=CARTESIAN_POINT('',(31.75,0.0,-18.25));
#551=CARTESIAN_POINT('',(0.0,0.0,6.50521303491303E-16));
#552=CARTESIAN_POINT('',(0.0,0.0,-19.05));
#553=CARTESIAN_POINT('',(30.95,0.0,-19.05));
#554=CARTESIAN_POINT('',(0.0,0.0,-18.25));
#555=CARTESIAN_POINT('',(0.0,0.0,-19.05));
#556=CARTESIAN_POINT('',(23.025,0.0,-19.05));
#557=CARTESIAN_POINT('',(0.0,30.95,-19.05));
#558=CARTESIAN_POINT('',(0.0,0.0,-19.85));
#559=CARTESIAN_POINT('',(22.225,0.0,-19.85));
#560=CARTESIAN_POINT('',(0.0,0.0,-19.85));
#561=CARTESIAN_POINT('',(0.0,0.0,-35.7693810567666));
#562=CARTESIAN_POINT('',(22.225,0.0,-35.7693810567666));
#563=CARTESIAN_POINT('',(0.0,0.0,6.50521303491303E-16));
#564=CARTESIAN_POINT('',(0.0,0.0,-36.9227559217994));
#565=CARTESIAN_POINT('',(17.9205464035247,0.0,-36.9227559217994));
#566=CARTESIAN_POINT('',(0.0,0.0,-35.7693810567666));
#567=CARTESIAN_POINT('',(0.0,0.0,-41.0549291236698));
#568=CARTESIAN_POINT('',(14.2635250654426,0.0,-41.0549291236698));
#569=CARTESIAN_POINT('',(0.0,0.0,-41.7523850532448));
#570=CARTESIAN_POINT('',(0.0,0.0,-77.0));
#571=CARTESIAN_POINT('',(9.2,0.0,-77.0));
#572=CARTESIAN_POINT('',(0.0,0.0,-41.0549291236698));
#573=CARTESIAN_POINT('',(0.0,0.0,6.50521303491303E-16));
#574=MECHANICAL_DESIGN_GEOMETRIC_PRESENTATION_REPRESENTATION('',(#94),#575);
#575=(GEOMETRIC_REPRESENTATION_CONTEXT(3)GLOBAL_UNCERTAINTY_ASSIGNED_CONTEXT((#576))
     GLOBAL_UNIT_ASSIGNED_CONTEXT((#582,#578,#577))REPRESENTATION_CONTEXT('A392_45EH_4020096_SIM',
     'TOP_LEVEL_ASSEMBLY_PART'));
#576=UNCERTAINTY_MEASURE_WITH_UNIT(LENGTH_MEASURE(2.0E-5),#582,'DISTANCE_ACCURACY_VALUE',
     'Maximum Tolerance applied to model');
#577=(NAMED_UNIT(*)SI_UNIT($,.STERADIAN.)SOLID_ANGLE_UNIT());
#578=(CONVERSION_BASED_UNIT('DEGREE',#580)NAMED_UNIT(*)PLANE_ANGLE_UNIT());
#579=DIMENSIONAL_EXPONENTS(0.0,0.0,0.0,0.0,0.0,0.0,0.0);
#580=PLANE_ANGLE_MEASURE_WITH_UNIT(PLANE_ANGLE_MEASURE(0.0174532925),#581);
#581=(NAMED_UNIT(*)PLANE_ANGLE_UNIT()SI_UNIT($,.RADIAN.));
#582=(LENGTH_UNIT()NAMED_UNIT(*)SI_UNIT(.MILLI.,.METRE.));
#583=CARTESIAN_POINT('',(0.0,0.0,0.0));
#584=DIRECTION('',(0.0,0.0,1.0));
#585=DIRECTION('',(1.0,0.0,0.0));
#586=AXIS2_PLACEMENT_3D('PCS',#583,#584,#585);
#587=CARTESIAN_POINT('',(0.0,0.0,0.0));
#588=DIRECTION('',(0.0,0.0,1.0));
#589=DIRECTION('',(1.0,0.0,0.0));
#590=AXIS2_PLACEMENT_3D('MCS',#587,#588,#589);
#591=CARTESIAN_POINT('',(0.0,0.0,-96.0));
#592=DIRECTION('',(0.0,0.0,1.0));
#593=DIRECTION('',(1.0,0.0,0.0));
#594=AXIS2_PLACEMENT_3D('CSW',#591,#592,#593);
#595=CONSTRUCTIVE_GEOMETRY_REPRESENTATION('supplemental geometry',(#586,#590,#594),
     #575);
#596=CONSTRUCTIVE_GEOMETRY_REPRESENTATION_RELATIONSHIP('supplemental geometry',$,
     #92,#595);
ENDSEC;
END-ISO-10303-21;
