ISO-10303-21;
HEADER;
FILE_DESCRIPTION(
/* description */ ('3-D model version:1'),
/* implementation_level */ '2;1');
FILE_NAME(
/* name */ 'A392.45EH-4012060',
/* time_stamp */ '2016-12-02T13:56:26',
/* author */ ('InteractiveCad'),
/* organization */ ('AB Sandvik Coromant'),
/* preprocessor_version */ 'ST-DEVELOPER v15',
/* originating_system */ 'SIEMENS PLM Software NX 8.5',
/* authorization */ '');
FILE_SCHEMA(('AUTOMOTIVE_DESIGN'));
ENDSEC;
DATA;
#10=SHAPE_REPRESENTATION_RELATIONSHIP('None','relationship between A392_45EH_4012060_SIM-None and A392_45EH_4012060_SIM-None',
     #92,#11);
#11=ADVANCED_BREP_SHAPE_REPRESENTATION('A392_45EH_4012060_SIM-None',(#102),#575);
#15=APPROVAL_PERSON_ORGANIZATION(#69,#24,#18);
#16=APPROVAL_PERSON_ORGANIZATION(#70,#25,#19);
#17=APPROVAL_PERSON_ORGANIZATION(#71,#26,#20);
#18=APPROVAL_ROLE('approver');
#19=APPROVAL_ROLE('approver');
#20=APPROVAL_ROLE('approver');
#21=APPROVAL_DATE_TIME(#39,#24);
#22=APPROVAL_DATE_TIME(#40,#25);
#23=APPROVAL_DATE_TIME(#41,#26);
#24=APPROVAL(#27,' ');
#25=APPROVAL(#28,' ');
#26=APPROVAL(#29,' ');
#27=APPROVAL_STATUS('not_yet_approved');
#28=APPROVAL_STATUS('not_yet_approved');
#29=APPROVAL_STATUS('not_yet_approved');
#31=SECURITY_CLASSIFICATION(' ',' ',#32);
#32=SECURITY_CLASSIFICATION_LEVEL('confidential');
#35=DATE_TIME_ROLE('creation_date');
#36=DATE_TIME_ROLE('classification_date');
#37=DATE_AND_TIME(#52,#42);
#38=DATE_AND_TIME(#53,#43);
#39=DATE_AND_TIME(#54,#44);
#40=DATE_AND_TIME(#55,#45);
#41=DATE_AND_TIME(#56,#46);
#42=LOCAL_TIME(0,0,0.0,#47);
#43=LOCAL_TIME(0,0,0.0,#48);
#44=LOCAL_TIME(0,0,0.0,#49);
#45=LOCAL_TIME(0,0,0.0,#50);
#46=LOCAL_TIME(0,0,0.0,#51);
#47=COORDINATED_UNIVERSAL_TIME_OFFSET(0,0,.BEHIND.);
#48=COORDINATED_UNIVERSAL_TIME_OFFSET(0,0,.BEHIND.);
#49=COORDINATED_UNIVERSAL_TIME_OFFSET(0,0,.BEHIND.);
#50=COORDINATED_UNIVERSAL_TIME_OFFSET(0,0,.BEHIND.);
#51=COORDINATED_UNIVERSAL_TIME_OFFSET(0,0,.BEHIND.);
#52=CALENDAR_DATE(0,1,1);
#53=CALENDAR_DATE(0,1,1);
#54=CALENDAR_DATE(0,1,1);
#55=CALENDAR_DATE(0,1,1);
#56=CALENDAR_DATE(0,1,1);
#61=PERSON_AND_ORGANIZATION_ROLE('creator');
#62=PERSON_AND_ORGANIZATION_ROLE('design_owner');
#63=PERSON_AND_ORGANIZATION_ROLE('design_supplier');
#64=PERSON_AND_ORGANIZATION_ROLE('classification_officer');
#65=PERSON_AND_ORGANIZATION(#79,#72);
#66=PERSON_AND_ORGANIZATION(#79,#73);
#67=PERSON_AND_ORGANIZATION(#79,#74);
#68=PERSON_AND_ORGANIZATION(#79,#75);
#69=PERSON_AND_ORGANIZATION(#79,#76);
#70=PERSON_AND_ORGANIZATION(#79,#77);
#71=PERSON_AND_ORGANIZATION(#79,#78);
#72=ORGANIZATION(' ',' ',' ');
#73=ORGANIZATION(' ',' ',' ');
#74=ORGANIZATION(' ',' ',' ');
#75=ORGANIZATION(' ',' ',' ');
#76=ORGANIZATION(' ',' ',' ');
#77=ORGANIZATION(' ',' ',' ');
#78=ORGANIZATION(' ',' ',' ');
#79=PERSON(' ',' ',' ',(' '),$,$);
#80=SHAPE_DEFINITION_REPRESENTATION(#81,#92);
#81=PRODUCT_DEFINITION_SHAPE('','',#82);
#82=PRODUCT_DEFINITION(' ','',#84,$);
#84=PRODUCT_DEFINITION_FORMATION_WITH_SPECIFIED_SOURCE(' ',' ',#86,.NOT_KNOWN.);
#85=PRODUCT_RELATED_PRODUCT_CATEGORY('detail','',(#86));
#86=PRODUCT('A392_45EH_4012060_SIM','A392_45EH_4012060_SIM',' ',());
#87=PRODUCT_CATEGORY('part',' ');
#88=PRODUCT_CATEGORY(' ','');
#90=APPLICATION_PROTOCOL_DEFINITION('international standard','config_control_design',
     2010,#91);
#91=APPLICATION_CONTEXT('configuration controlled 3D designs of mechanical parts and assemblies');
#92=SHAPE_REPRESENTATION('A392_45EH_4012060_SIM-None',(#359),#575);
#93=PRESENTATION_LAYER_ASSIGNMENT('1','Layer 1',(#102));
#94=STYLED_ITEM('',(#95),#102);
#95=PRESENTATION_STYLE_ASSIGNMENT((#96));
#96=SURFACE_STYLE_USAGE(.BOTH.,#97);
#97=SURFACE_SIDE_STYLE('',(#98));
#98=SURFACE_STYLE_FILL_AREA(#99);
#99=FILL_AREA_STYLE('',(#100));
#100=FILL_AREA_STYLE_COLOUR('',#101);
#101=COLOUR_RGB('TLS_NOCUT',0.499992370489052,0.499992370489052,0.499992370489052);
#102=MANIFOLD_SOLID_BREP('NOCUT',#103);
#103=CLOSED_SHELL('',(#125,#126,#127,#128,#129,#130,#131,#132,#133,#134,#135,#136,
     #137,#138,#139,#140,#141,#142,#143,#144,#145,#146,#147,#148));
#104=CONICAL_SURFACE('',#371,12.3957346175025,8.29791666666664);
#105=CONICAL_SURFACE('',#373,22.3270929619175,29.9999999999981);
#106=CONICAL_SURFACE('',#381,30.95,44.9999999999999);
#107=CONICAL_SURFACE('',#385,31.75,59.9999999999998);
#108=CONICAL_SURFACE('',#393,28.9741978045701,59.9999999999994);
#109=CONICAL_SURFACE('',#397,31.75,45.0000000000002);
#110=CONICAL_SURFACE('',#406,22.0756270853806,74.5448356530387);
#111=PLANE('',#365);
#112=PLANE('',#367);
#113=PLANE('',#379);
#114=PLANE('',#387);
#115=PLANE('',#391);
#116=PLANE('',#399);
#117=FACE_OUTER_BOUND('',#202,.T.);
#118=FACE_OUTER_BOUND('',#203,.T.);
#119=CYLINDRICAL_SURFACE('',#364,6.1);
#120=CYLINDRICAL_SURFACE('',#375,22.0);
#121=CYLINDRICAL_SURFACE('',#383,31.75);
#122=CYLINDRICAL_SURFACE('',#389,28.0);
#123=CYLINDRICAL_SURFACE('',#395,31.75);
#124=CYLINDRICAL_SURFACE('',#403,22.225);
#125=ADVANCED_FACE('',(#154,#155),#149,.F.);
#126=ADVANCED_FACE('',(#156,#157),#119,.T.);
#127=ADVANCED_FACE('',(#117),#111,.T.);
#128=ADVANCED_FACE('',(#118),#112,.T.);
#129=ADVANCED_FACE('',(#158,#159),#150,.T.);
#130=ADVANCED_FACE('',(#160,#161),#104,.T.);
#131=ADVANCED_FACE('',(#162,#163),#105,.T.);
#132=ADVANCED_FACE('',(#164,#165),#120,.T.);
#133=ADVANCED_FACE('',(#166,#167),#151,.F.);
#134=ADVANCED_FACE('',(#168,#169),#113,.T.);
#135=ADVANCED_FACE('',(#170,#171),#106,.T.);
#136=ADVANCED_FACE('',(#172,#173),#121,.T.);
#137=ADVANCED_FACE('',(#174,#175),#107,.T.);
#138=ADVANCED_FACE('',(#176,#177),#114,.T.);
#139=ADVANCED_FACE('',(#178,#179),#122,.T.);
#140=ADVANCED_FACE('',(#180,#181),#115,.T.);
#141=ADVANCED_FACE('',(#182,#183),#108,.T.);
#142=ADVANCED_FACE('',(#184,#185),#123,.T.);
#143=ADVANCED_FACE('',(#186,#187),#109,.T.);
#144=ADVANCED_FACE('',(#188,#189),#116,.T.);
#145=ADVANCED_FACE('',(#190,#191),#152,.F.);
#146=ADVANCED_FACE('',(#192,#193),#124,.T.);
#147=ADVANCED_FACE('',(#194,#195),#153,.T.);
#148=ADVANCED_FACE('',(#196,#197),#110,.T.);
#149=TOROIDAL_SURFACE('',#362,11.1,5.0);
#150=TOROIDAL_SURFACE('',#369,11.4062035801481,1.0);
#151=TOROIDAL_SURFACE('',#377,22.6,0.6);
#152=TOROIDAL_SURFACE('',#401,23.025,0.8);
#153=TOROIDAL_SURFACE('',#405,21.625,0.6);
#154=FACE_BOUND('',#198,.T.);
#155=FACE_BOUND('',#199,.T.);
#156=FACE_BOUND('',#200,.T.);
#157=FACE_BOUND('',#201,.T.);
#158=FACE_BOUND('',#204,.T.);
#159=FACE_BOUND('',#205,.T.);
#160=FACE_BOUND('',#206,.T.);
#161=FACE_BOUND('',#207,.T.);
#162=FACE_BOUND('',#208,.T.);
#163=FACE_BOUND('',#209,.T.);
#164=FACE_BOUND('',#210,.T.);
#165=FACE_BOUND('',#211,.T.);
#166=FACE_BOUND('',#212,.T.);
#167=FACE_BOUND('',#213,.T.);
#168=FACE_BOUND('',#214,.T.);
#169=FACE_BOUND('',#215,.T.);
#170=FACE_BOUND('',#216,.T.);
#171=FACE_BOUND('',#217,.T.);
#172=FACE_BOUND('',#218,.T.);
#173=FACE_BOUND('',#219,.T.);
#174=FACE_BOUND('',#220,.T.);
#175=FACE_BOUND('',#221,.T.);
#176=FACE_BOUND('',#222,.T.);
#177=FACE_BOUND('',#223,.T.);
#178=FACE_BOUND('',#224,.T.);
#179=FACE_BOUND('',#225,.T.);
#180=FACE_BOUND('',#226,.T.);
#181=FACE_BOUND('',#227,.T.);
#182=FACE_BOUND('',#228,.T.);
#183=FACE_BOUND('',#229,.T.);
#184=FACE_BOUND('',#230,.T.);
#185=FACE_BOUND('',#231,.T.);
#186=FACE_BOUND('',#232,.T.);
#187=FACE_BOUND('',#233,.T.);
#188=FACE_BOUND('',#234,.T.);
#189=FACE_BOUND('',#235,.T.);
#190=FACE_BOUND('',#236,.T.);
#191=FACE_BOUND('',#237,.T.);
#192=FACE_BOUND('',#238,.T.);
#193=FACE_BOUND('',#239,.T.);
#194=FACE_BOUND('',#240,.T.);
#195=FACE_BOUND('',#241,.T.);
#196=FACE_BOUND('',#242,.T.);
#197=FACE_BOUND('',#243,.T.);
#198=EDGE_LOOP('',(#244));
#199=EDGE_LOOP('',(#245));
#200=EDGE_LOOP('',(#246));
#201=EDGE_LOOP('',(#247));
#202=EDGE_LOOP('',(#248));
#203=EDGE_LOOP('',(#249));
#204=EDGE_LOOP('',(#250));
#205=EDGE_LOOP('',(#251));
#206=EDGE_LOOP('',(#252));
#207=EDGE_LOOP('',(#253));
#208=EDGE_LOOP('',(#254));
#209=EDGE_LOOP('',(#255));
#210=EDGE_LOOP('',(#256));
#211=EDGE_LOOP('',(#257));
#212=EDGE_LOOP('',(#258));
#213=EDGE_LOOP('',(#259));
#214=EDGE_LOOP('',(#260));
#215=EDGE_LOOP('',(#261));
#216=EDGE_LOOP('',(#262));
#217=EDGE_LOOP('',(#263));
#218=EDGE_LOOP('',(#264));
#219=EDGE_LOOP('',(#265));
#220=EDGE_LOOP('',(#266));
#221=EDGE_LOOP('',(#267));
#222=EDGE_LOOP('',(#268));
#223=EDGE_LOOP('',(#269));
#224=EDGE_LOOP('',(#270));
#225=EDGE_LOOP('',(#271));
#226=EDGE_LOOP('',(#272));
#227=EDGE_LOOP('',(#273));
#228=EDGE_LOOP('',(#274));
#229=EDGE_LOOP('',(#275));
#230=EDGE_LOOP('',(#276));
#231=EDGE_LOOP('',(#277));
#232=EDGE_LOOP('',(#278));
#233=EDGE_LOOP('',(#279));
#234=EDGE_LOOP('',(#280));
#235=EDGE_LOOP('',(#281));
#236=EDGE_LOOP('',(#282));
#237=EDGE_LOOP('',(#283));
#238=EDGE_LOOP('',(#284));
#239=EDGE_LOOP('',(#285));
#240=EDGE_LOOP('',(#286));
#241=EDGE_LOOP('',(#287));
#242=EDGE_LOOP('',(#288));
#243=EDGE_LOOP('',(#289));
#244=ORIENTED_EDGE('',*,*,#313,.T.);
#245=ORIENTED_EDGE('',*,*,#314,.F.);
#246=ORIENTED_EDGE('',*,*,#315,.T.);
#247=ORIENTED_EDGE('',*,*,#313,.F.);
#248=ORIENTED_EDGE('',*,*,#315,.F.);
#249=ORIENTED_EDGE('',*,*,#316,.T.);
#250=ORIENTED_EDGE('',*,*,#317,.T.);
#251=ORIENTED_EDGE('',*,*,#316,.F.);
#252=ORIENTED_EDGE('',*,*,#318,.T.);
#253=ORIENTED_EDGE('',*,*,#317,.F.);
#254=ORIENTED_EDGE('',*,*,#319,.T.);
#255=ORIENTED_EDGE('',*,*,#318,.F.);
#256=ORIENTED_EDGE('',*,*,#320,.T.);
#257=ORIENTED_EDGE('',*,*,#319,.F.);
#258=ORIENTED_EDGE('',*,*,#321,.T.);
#259=ORIENTED_EDGE('',*,*,#320,.F.);
#260=ORIENTED_EDGE('',*,*,#322,.T.);
#261=ORIENTED_EDGE('',*,*,#321,.F.);
#262=ORIENTED_EDGE('',*,*,#323,.T.);
#263=ORIENTED_EDGE('',*,*,#322,.F.);
#264=ORIENTED_EDGE('',*,*,#324,.T.);
#265=ORIENTED_EDGE('',*,*,#323,.F.);
#266=ORIENTED_EDGE('',*,*,#325,.T.);
#267=ORIENTED_EDGE('',*,*,#324,.F.);
#268=ORIENTED_EDGE('',*,*,#326,.T.);
#269=ORIENTED_EDGE('',*,*,#325,.F.);
#270=ORIENTED_EDGE('',*,*,#327,.T.);
#271=ORIENTED_EDGE('',*,*,#326,.F.);
#272=ORIENTED_EDGE('',*,*,#328,.T.);
#273=ORIENTED_EDGE('',*,*,#327,.F.);
#274=ORIENTED_EDGE('',*,*,#329,.T.);
#275=ORIENTED_EDGE('',*,*,#328,.F.);
#276=ORIENTED_EDGE('',*,*,#330,.T.);
#277=ORIENTED_EDGE('',*,*,#329,.F.);
#278=ORIENTED_EDGE('',*,*,#331,.T.);
#279=ORIENTED_EDGE('',*,*,#330,.F.);
#280=ORIENTED_EDGE('',*,*,#332,.T.);
#281=ORIENTED_EDGE('',*,*,#331,.F.);
#282=ORIENTED_EDGE('',*,*,#333,.T.);
#283=ORIENTED_EDGE('',*,*,#332,.F.);
#284=ORIENTED_EDGE('',*,*,#334,.T.);
#285=ORIENTED_EDGE('',*,*,#333,.F.);
#286=ORIENTED_EDGE('',*,*,#335,.T.);
#287=ORIENTED_EDGE('',*,*,#334,.F.);
#288=ORIENTED_EDGE('',*,*,#314,.T.);
#289=ORIENTED_EDGE('',*,*,#335,.F.);
#290=VERTEX_POINT('',#505);
#291=VERTEX_POINT('',#507);
#292=VERTEX_POINT('',#510);
#293=VERTEX_POINT('',#514);
#294=VERTEX_POINT('',#517);
#295=VERTEX_POINT('',#520);
#296=VERTEX_POINT('',#523);
#297=VERTEX_POINT('',#526);
#298=VERTEX_POINT('',#529);
#299=VERTEX_POINT('',#532);
#300=VERTEX_POINT('',#535);
#301=VERTEX_POINT('',#538);
#302=VERTEX_POINT('',#541);
#303=VERTEX_POINT('',#544);
#304=VERTEX_POINT('',#547);
#305=VERTEX_POINT('',#550);
#306=VERTEX_POINT('',#553);
#307=VERTEX_POINT('',#556);
#308=VERTEX_POINT('',#559);
#309=VERTEX_POINT('',#562);
#310=VERTEX_POINT('',#565);
#311=VERTEX_POINT('',#568);
#312=VERTEX_POINT('',#571);
#313=EDGE_CURVE('',#290,#290,#336,.T.);
#314=EDGE_CURVE('',#291,#291,#337,.T.);
#315=EDGE_CURVE('',#292,#292,#338,.T.);
#316=EDGE_CURVE('',#293,#293,#339,.T.);
#317=EDGE_CURVE('',#294,#294,#340,.T.);
#318=EDGE_CURVE('',#295,#295,#341,.T.);
#319=EDGE_CURVE('',#296,#296,#342,.T.);
#320=EDGE_CURVE('',#297,#297,#343,.T.);
#321=EDGE_CURVE('',#298,#298,#344,.T.);
#322=EDGE_CURVE('',#299,#299,#345,.T.);
#323=EDGE_CURVE('',#300,#300,#346,.T.);
#324=EDGE_CURVE('',#301,#301,#347,.T.);
#325=EDGE_CURVE('',#302,#302,#348,.T.);
#326=EDGE_CURVE('',#303,#303,#349,.T.);
#327=EDGE_CURVE('',#304,#304,#350,.T.);
#328=EDGE_CURVE('',#305,#305,#351,.T.);
#329=EDGE_CURVE('',#306,#306,#352,.T.);
#330=EDGE_CURVE('',#307,#307,#353,.T.);
#331=EDGE_CURVE('',#308,#308,#354,.T.);
#332=EDGE_CURVE('',#309,#309,#355,.T.);
#333=EDGE_CURVE('',#310,#310,#356,.T.);
#334=EDGE_CURVE('',#311,#311,#357,.T.);
#335=EDGE_CURVE('',#312,#312,#358,.T.);
#336=CIRCLE('',#360,6.1);
#337=CIRCLE('',#361,9.76757887590838);
#338=CIRCLE('',#363,6.1);
#339=CIRCLE('',#366,11.4062035801481);
#340=CIRCLE('',#368,12.3957346175025);
#341=CIRCLE('',#370,22.3270929619175);
#342=CIRCLE('',#372,22.0);
#343=CIRCLE('',#374,22.0);
#344=CIRCLE('',#376,22.6);
#345=CIRCLE('',#378,30.95);
#346=CIRCLE('',#380,31.75);
#347=CIRCLE('',#382,31.75);
#348=CIRCLE('',#384,28.9741978045701);
#349=CIRCLE('',#386,28.0);
#350=CIRCLE('',#388,28.0);
#351=CIRCLE('',#390,28.9741978045701);
#352=CIRCLE('',#392,31.7499999999999);
#353=CIRCLE('',#394,31.75);
#354=CIRCLE('',#396,30.95);
#355=CIRCLE('',#398,23.025);
#356=CIRCLE('',#400,22.225);
#357=CIRCLE('',#402,22.225);
#358=CIRCLE('',#404,22.0756270853806);
#359=AXIS2_PLACEMENT_3D('',#503,#407,#408);
#360=AXIS2_PLACEMENT_3D('',#504,#409,#410);
#361=AXIS2_PLACEMENT_3D('',#506,#411,#412);
#362=AXIS2_PLACEMENT_3D('',#508,#413,#414);
#363=AXIS2_PLACEMENT_3D('',#509,#415,#416);
#364=AXIS2_PLACEMENT_3D('',#511,#417,#418);
#365=AXIS2_PLACEMENT_3D('',#512,#419,#420);
#366=AXIS2_PLACEMENT_3D('',#513,#421,#422);
#367=AXIS2_PLACEMENT_3D('',#515,#423,#424);
#368=AXIS2_PLACEMENT_3D('',#516,#425,#426);
#369=AXIS2_PLACEMENT_3D('',#518,#427,#428);
#370=AXIS2_PLACEMENT_3D('',#519,#429,#430);
#371=AXIS2_PLACEMENT_3D('',#521,#431,#432);
#372=AXIS2_PLACEMENT_3D('',#522,#433,#434);
#373=AXIS2_PLACEMENT_3D('',#524,#435,#436);
#374=AXIS2_PLACEMENT_3D('',#525,#437,#438);
#375=AXIS2_PLACEMENT_3D('',#527,#439,#440);
#376=AXIS2_PLACEMENT_3D('',#528,#441,#442);
#377=AXIS2_PLACEMENT_3D('',#530,#443,#444);
#378=AXIS2_PLACEMENT_3D('',#531,#445,#446);
#379=AXIS2_PLACEMENT_3D('',#533,#447,#448);
#380=AXIS2_PLACEMENT_3D('',#534,#449,#450);
#381=AXIS2_PLACEMENT_3D('',#536,#451,#452);
#382=AXIS2_PLACEMENT_3D('',#537,#453,#454);
#383=AXIS2_PLACEMENT_3D('',#539,#455,#456);
#384=AXIS2_PLACEMENT_3D('',#540,#457,#458);
#385=AXIS2_PLACEMENT_3D('',#542,#459,#460);
#386=AXIS2_PLACEMENT_3D('',#543,#461,#462);
#387=AXIS2_PLACEMENT_3D('',#545,#463,#464);
#388=AXIS2_PLACEMENT_3D('',#546,#465,#466);
#389=AXIS2_PLACEMENT_3D('',#548,#467,#468);
#390=AXIS2_PLACEMENT_3D('',#549,#469,#470);
#391=AXIS2_PLACEMENT_3D('',#551,#471,#472);
#392=AXIS2_PLACEMENT_3D('',#552,#473,#474);
#393=AXIS2_PLACEMENT_3D('',#554,#475,#476);
#394=AXIS2_PLACEMENT_3D('',#555,#477,#478);
#395=AXIS2_PLACEMENT_3D('',#557,#479,#480);
#396=AXIS2_PLACEMENT_3D('',#558,#481,#482);
#397=AXIS2_PLACEMENT_3D('',#560,#483,#484);
#398=AXIS2_PLACEMENT_3D('',#561,#485,#486);
#399=AXIS2_PLACEMENT_3D('',#563,#487,#488);
#400=AXIS2_PLACEMENT_3D('',#564,#489,#490);
#401=AXIS2_PLACEMENT_3D('',#566,#491,#492);
#402=AXIS2_PLACEMENT_3D('',#567,#493,#494);
#403=AXIS2_PLACEMENT_3D('',#569,#495,#496);
#404=AXIS2_PLACEMENT_3D('',#570,#497,#498);
#405=AXIS2_PLACEMENT_3D('',#572,#499,#500);
#406=AXIS2_PLACEMENT_3D('',#573,#501,#502);
#407=DIRECTION('',(0.0,0.0,1.0));
#408=DIRECTION('',(1.0,0.0,0.0));
#409=DIRECTION('',(0.0,0.0,1.0));
#410=DIRECTION('',(1.0,0.0,0.0));
#411=DIRECTION('',(0.0,0.0,1.0));
#412=DIRECTION('',(1.0,0.0,0.0));
#413=DIRECTION('',(0.0,0.0,1.0));
#414=DIRECTION('',(1.0,0.0,0.0));
#415=DIRECTION('',(0.0,0.0,1.0));
#416=DIRECTION('',(1.0,0.0,0.0));
#417=DIRECTION('',(0.0,0.0,1.0));
#418=DIRECTION('',(1.0,0.0,0.0));
#419=DIRECTION('',(0.0,0.0,-1.0));
#420=DIRECTION('',(-1.0,0.0,0.0));
#421=DIRECTION('',(0.0,0.0,1.0));
#422=DIRECTION('',(1.0,0.0,0.0));
#423=DIRECTION('',(0.0,0.0,1.0));
#424=DIRECTION('',(1.0,0.0,0.0));
#425=DIRECTION('',(0.0,0.0,1.0));
#426=DIRECTION('',(1.0,0.0,0.0));
#427=DIRECTION('',(0.0,0.0,1.0));
#428=DIRECTION('',(1.0,0.0,0.0));
#429=DIRECTION('',(0.0,0.0,1.0));
#430=DIRECTION('',(1.0,0.0,0.0));
#431=DIRECTION('',(0.0,0.0,-1.0));
#432=DIRECTION('',(-1.0,0.0,3.50797275692851E-16));
#433=DIRECTION('',(0.0,0.0,1.0));
#434=DIRECTION('',(1.0,0.0,0.0));
#435=DIRECTION('',(0.0,0.0,1.0));
#436=DIRECTION('',(1.0,0.0,-4.95385375554627E-17));
#437=DIRECTION('',(0.0,0.0,1.0));
#438=DIRECTION('',(1.0,0.0,0.0));
#439=DIRECTION('',(0.0,0.0,1.0));
#440=DIRECTION('',(1.0,0.0,0.0));
#441=DIRECTION('',(0.0,0.0,1.0));
#442=DIRECTION('',(1.0,0.0,0.0));
#443=DIRECTION('',(0.0,0.0,1.0));
#444=DIRECTION('',(1.0,0.0,0.0));
#445=DIRECTION('',(0.0,0.0,1.0));
#446=DIRECTION('',(1.0,0.0,0.0));
#447=DIRECTION('',(0.0,0.0,1.0));
#448=DIRECTION('',(1.0,0.0,0.0));
#449=DIRECTION('',(0.0,0.0,1.0));
#450=DIRECTION('',(1.0,0.0,0.0));
#451=DIRECTION('',(0.0,0.0,-1.0));
#452=DIRECTION('',(-1.0,0.0,6.77264851913931E-17));
#453=DIRECTION('',(0.0,0.0,1.0));
#454=DIRECTION('',(1.0,0.0,0.0));
#455=DIRECTION('',(0.0,0.0,1.0));
#456=DIRECTION('',(1.0,0.0,0.0));
#457=DIRECTION('',(0.0,0.0,1.0));
#458=DIRECTION('',(1.0,0.0,0.0));
#459=DIRECTION('',(0.0,0.0,1.0));
#460=DIRECTION('',(1.0,0.0,-1.57362302457985E-17));
#461=DIRECTION('',(0.0,0.0,1.0));
#462=DIRECTION('',(1.0,0.0,0.0));
#463=DIRECTION('',(0.0,0.0,-1.0));
#464=DIRECTION('',(-1.0,0.0,0.0));
#465=DIRECTION('',(0.0,0.0,1.0));
#466=DIRECTION('',(1.0,0.0,0.0));
#467=DIRECTION('',(0.0,0.0,1.0));
#468=DIRECTION('',(1.0,0.0,0.0));
#469=DIRECTION('',(0.0,0.0,1.0));
#470=DIRECTION('',(1.0,0.0,0.0));
#471=DIRECTION('',(0.0,0.0,1.0));
#472=DIRECTION('',(1.0,0.0,0.0));
#473=DIRECTION('',(0.0,0.0,1.0));
#474=DIRECTION('',(1.0,0.0,0.0));
#475=DIRECTION('',(0.0,0.0,-1.0));
#476=DIRECTION('',(-1.0,0.0,-3.64473919537174E-17));
#477=DIRECTION('',(0.0,0.0,1.0));
#478=DIRECTION('',(1.0,0.0,0.0));
#479=DIRECTION('',(0.0,0.0,1.0));
#480=DIRECTION('',(1.0,0.0,0.0));
#481=DIRECTION('',(0.0,0.0,1.0));
#482=DIRECTION('',(1.0,0.0,0.0));
#483=DIRECTION('',(0.0,0.0,1.0));
#484=DIRECTION('',(1.0,0.0,1.00880454139673E-17));
#485=DIRECTION('',(0.0,0.0,1.0));
#486=DIRECTION('',(1.0,0.0,0.0));
#487=DIRECTION('',(0.0,0.0,-1.0));
#488=DIRECTION('',(-1.0,0.0,0.0));
#489=DIRECTION('',(0.0,0.0,1.0));
#490=DIRECTION('',(1.0,0.0,0.0));
#491=DIRECTION('',(0.0,0.0,1.0));
#492=DIRECTION('',(1.0,0.0,0.0));
#493=DIRECTION('',(0.0,0.0,1.0));
#494=DIRECTION('',(1.0,0.0,0.0));
#495=DIRECTION('',(0.0,0.0,1.0));
#496=DIRECTION('',(1.0,0.0,0.0));
#497=DIRECTION('',(0.0,0.0,1.0));
#498=DIRECTION('',(1.0,0.0,0.0));
#499=DIRECTION('',(0.0,0.0,1.0));
#500=DIRECTION('',(1.0,0.0,0.0));
#501=DIRECTION('',(0.0,0.0,1.0));
#502=DIRECTION('',(1.0,0.0,-1.14410455664644E-17));
#503=CARTESIAN_POINT('',(0.0,0.0,0.0));
#504=CARTESIAN_POINT('',(0.0,0.0,-43.6183008655454));
#505=CARTESIAN_POINT('',(6.1,0.0,-43.6183008655454));
#506=CARTESIAN_POINT('',(0.0,0.0,-38.7991044648916));
#507=CARTESIAN_POINT('',(9.76757887590838,0.0,-38.7991044648916));
#508=CARTESIAN_POINT('',(0.0,0.0,-43.6183008655454));
#509=CARTESIAN_POINT('',(0.0,0.0,-60.0));
#510=CARTESIAN_POINT('',(6.1,0.0,-60.0));
#511=CARTESIAN_POINT('',(0.0,0.0,-3.02492406123456E-14));
#512=CARTESIAN_POINT('',(0.0,6.1,-60.0));
#513=CARTESIAN_POINT('',(0.0,0.0,68.25));
#514=CARTESIAN_POINT('',(11.4062035801481,0.0,68.25));
#515=CARTESIAN_POINT('',(0.0,9.7375,68.25));
#516=CARTESIAN_POINT('',(0.0,0.0,67.3943202207325));
#517=CARTESIAN_POINT('',(12.3957346175025,0.0,67.3943202207325));
#518=CARTESIAN_POINT('',(0.0,0.0,67.25));
#519=CARTESIAN_POINT('',(0.0,0.0,-0.700000000000004));
#520=CARTESIAN_POINT('',(22.3270929619175,0.0,-0.700000000000004));
#521=CARTESIAN_POINT('',(0.0,0.0,67.3943202207325));
#522=CARTESIAN_POINT('',(0.0,0.0,-1.26654162883929));
#523=CARTESIAN_POINT('',(22.0,0.0,-1.26654162883929));
#524=CARTESIAN_POINT('',(0.0,0.0,-0.700000000000004));
#525=CARTESIAN_POINT('',(0.0,0.0,-2.58000000000003));
#526=CARTESIAN_POINT('',(22.0,0.0,-2.58000000000003));
#527=CARTESIAN_POINT('',(0.0,0.0,-3.02492406123456E-14));
#528=CARTESIAN_POINT('',(0.0,0.0,-3.18000000000003));
#529=CARTESIAN_POINT('',(22.6,0.0,-3.18000000000003));
#530=CARTESIAN_POINT('',(0.0,0.0,-2.58000000000003));
#531=CARTESIAN_POINT('',(0.0,0.0,-3.18000000000003));
#532=CARTESIAN_POINT('',(30.95,0.0,-3.18000000000003));
#533=CARTESIAN_POINT('',(0.0,22.6,-3.18000000000003));
#534=CARTESIAN_POINT('',(0.0,0.0,-3.98000000000003));
#535=CARTESIAN_POINT('',(31.75,0.0,-3.98000000000003));
#536=CARTESIAN_POINT('',(0.0,0.0,-3.18000000000003));
#537=CARTESIAN_POINT('',(0.0,0.0,-7.57238985525141));
#538=CARTESIAN_POINT('',(31.75,0.0,-7.57238985525141));
#539=CARTESIAN_POINT('',(0.0,0.0,-3.02492406123456E-14));
#540=CARTESIAN_POINT('',(0.0,0.0,-9.17500000000003));
#541=CARTESIAN_POINT('',(28.9741978045701,0.0,-9.17500000000003));
#542=CARTESIAN_POINT('',(0.0,0.0,-7.57238985525141));
#543=CARTESIAN_POINT('',(0.0,0.0,-9.17500000000003));
#544=CARTESIAN_POINT('',(28.0,0.0,-9.17500000000003));
#545=CARTESIAN_POINT('',(0.0,28.9741978045701,-9.17500000000003));
#546=CARTESIAN_POINT('',(0.0,0.0,-13.025));
#547=CARTESIAN_POINT('',(28.0,0.0,-13.025));
#548=CARTESIAN_POINT('',(0.0,0.0,-3.02492406123456E-14));
#549=CARTESIAN_POINT('',(0.0,0.0,-13.025));
#550=CARTESIAN_POINT('',(28.9741978045701,0.0,-13.025));
#551=CARTESIAN_POINT('',(0.0,28.0,-13.025));
#552=CARTESIAN_POINT('',(0.0,0.0,-14.6276101447486));
#553=CARTESIAN_POINT('',(31.7499999999999,0.0,-14.6276101447486));
#554=CARTESIAN_POINT('',(0.0,0.0,-13.025));
#555=CARTESIAN_POINT('',(0.0,0.0,-18.25));
#556=CARTESIAN_POINT('',(31.75,0.0,-18.25));
#557=CARTESIAN_POINT('',(0.0,0.0,-3.02492406123456E-14));
#558=CARTESIAN_POINT('',(0.0,0.0,-19.05));
#559=CARTESIAN_POINT('',(30.95,0.0,-19.05));
#560=CARTESIAN_POINT('',(0.0,0.0,-18.25));
#561=CARTESIAN_POINT('',(0.0,0.0,-19.05));
#562=CARTESIAN_POINT('',(23.025,0.0,-19.05));
#563=CARTESIAN_POINT('',(0.0,30.95,-19.05));
#564=CARTESIAN_POINT('',(0.0,0.0,-19.85));
#565=CARTESIAN_POINT('',(22.225,0.0,-19.85));
#566=CARTESIAN_POINT('',(0.0,0.0,-19.85));
#567=CARTESIAN_POINT('',(0.0,0.0,-35.0));
#568=CARTESIAN_POINT('',(22.225,0.0,-35.0));
#569=CARTESIAN_POINT('',(0.0,0.0,-3.02492406123456E-14));
#570=CARTESIAN_POINT('',(0.0,0.0,-35.3961505142258));
#571=CARTESIAN_POINT('',(22.0756270853806,0.0,-35.3961505142258));
#572=CARTESIAN_POINT('',(0.0,0.0,-35.0));
#573=CARTESIAN_POINT('',(0.0,0.0,-35.3961505142258));
#574=MECHANICAL_DESIGN_GEOMETRIC_PRESENTATION_REPRESENTATION('',(#94),#575);
#575=(GEOMETRIC_REPRESENTATION_CONTEXT(3)GLOBAL_UNCERTAINTY_ASSIGNED_CONTEXT((#576))
     GLOBAL_UNIT_ASSIGNED_CONTEXT((#582,#578,#577))REPRESENTATION_CONTEXT('A392_45EH_4012060_SIM',
     'TOP_LEVEL_ASSEMBLY_PART'));
#576=UNCERTAINTY_MEASURE_WITH_UNIT(LENGTH_MEASURE(2.0E-5),#582,'DISTANCE_ACCURACY_VALUE',
     'Maximum Tolerance applied to model');
#577=(NAMED_UNIT(*)SI_UNIT($,.STERADIAN.)SOLID_ANGLE_UNIT());
#578=(CONVERSION_BASED_UNIT('DEGREE',#580)NAMED_UNIT(*)PLANE_ANGLE_UNIT());
#579=DIMENSIONAL_EXPONENTS(0.0,0.0,0.0,0.0,0.0,0.0,0.0);
#580=PLANE_ANGLE_MEASURE_WITH_UNIT(PLANE_ANGLE_MEASURE(0.0174532925),#581);
#581=(NAMED_UNIT(*)PLANE_ANGLE_UNIT()SI_UNIT($,.RADIAN.));
#582=(LENGTH_UNIT()NAMED_UNIT(*)SI_UNIT(.MILLI.,.METRE.));
#583=CARTESIAN_POINT('',(0.0,0.0,0.0));
#584=DIRECTION('',(0.0,0.0,1.0));
#585=DIRECTION('',(1.0,0.0,0.0));
#586=AXIS2_PLACEMENT_3D('PCS',#583,#584,#585);
#587=CARTESIAN_POINT('',(0.0,0.0,0.0));
#588=DIRECTION('',(0.0,0.0,1.0));
#589=DIRECTION('',(1.0,0.0,0.0));
#590=AXIS2_PLACEMENT_3D('MCS',#587,#588,#589);
#591=CARTESIAN_POINT('',(0.0,0.0,-60.0));
#592=DIRECTION('',(0.0,0.0,1.0));
#593=DIRECTION('',(1.0,0.0,0.0));
#594=AXIS2_PLACEMENT_3D('CSW',#591,#592,#593);
#595=CONSTRUCTIVE_GEOMETRY_REPRESENTATION('supplemental geometry',(#586,#590,#594),
     #575);
#596=CONSTRUCTIVE_GEOMETRY_REPRESENTATION_RELATIONSHIP('supplemental geometry',$,
     #92,#595);
ENDSEC;
END-ISO-10303-21;
