ISO-10303-21;
HEADER;
/* Generated by software containing ST-Developer
 * from STEP Tools, Inc. (www.steptools.com) 
 */
/* OPTION: using custom schema-name function */

FILE_DESCRIPTION(
/* description */ ('3-D model version:1'),
/* implementation_level */ '2;1');

FILE_NAME(
/* name */ 'A316-16BM210-06280G',
/* time_stamp */ '2014-08-22T14:05:02+02:00',
/* author */ ('InteractiveCad'),
/* organization */ ('AB Sandvik Coromant'),
/* preprocessor_version */ 'ST-DEVELOPER v11',
/* originating_system */ 'SIEMENS UGS NX 6.0',
/* authorisation */ '');

FILE_SCHEMA (('AP203_CONFIGURATION_CONTROLLED_3D_DESIGN_OF_MECHANICAL_PARTS_AND_ASSEMBLIES_MIM_LF'));
ENDSEC;

DATA;
#10=SHAPE_REPRESENTATION_RELATIONSHIP('None',
'relationship between A316_16BM210_06280G_SIM-None and A316_16BM210_062
80G_SIM-None',#94,#11);
#11=ADVANCED_BREP_SHAPE_REPRESENTATION('A316_16BM210_06280G_SIM-None',(#113,
#114),#313);
#12=CC_DESIGN_APPROVAL(#24,(#82));
#13=CC_DESIGN_APPROVAL(#25,(#84));
#14=CC_DESIGN_APPROVAL(#26,(#31));
#15=APPROVAL_PERSON_ORGANIZATION(#69,#24,#18);
#16=APPROVAL_PERSON_ORGANIZATION(#70,#25,#19);
#17=APPROVAL_PERSON_ORGANIZATION(#71,#26,#20);
#18=APPROVAL_ROLE('approver');
#19=APPROVAL_ROLE('approver');
#20=APPROVAL_ROLE('approver');
#21=APPROVAL_DATE_TIME(#39,#24);
#22=APPROVAL_DATE_TIME(#40,#25);
#23=APPROVAL_DATE_TIME(#41,#26);
#24=APPROVAL(#27,' ');
#25=APPROVAL(#28,' ');
#26=APPROVAL(#29,' ');
#27=APPROVAL_STATUS('not_yet_approved');
#28=APPROVAL_STATUS('not_yet_approved');
#29=APPROVAL_STATUS('not_yet_approved');
#30=CC_DESIGN_SECURITY_CLASSIFICATION(#31,(#84));
#31=SECURITY_CLASSIFICATION(' ',' ',#32);
#32=SECURITY_CLASSIFICATION_LEVEL('confidential');
#33=CC_DESIGN_DATE_AND_TIME_ASSIGNMENT(#37,#35,(#82));
#34=CC_DESIGN_DATE_AND_TIME_ASSIGNMENT(#38,#36,(#31));
#35=DATE_TIME_ROLE('creation_date');
#36=DATE_TIME_ROLE('classification_date');
#37=DATE_AND_TIME(#52,#42);
#38=DATE_AND_TIME(#53,#43);
#39=DATE_AND_TIME(#54,#44);
#40=DATE_AND_TIME(#55,#45);
#41=DATE_AND_TIME(#56,#46);
#42=LOCAL_TIME(0,0,0.,#47);
#43=LOCAL_TIME(0,0,0.,#48);
#44=LOCAL_TIME(0,0,0.,#49);
#45=LOCAL_TIME(0,0,0.,#50);
#46=LOCAL_TIME(0,0,0.,#51);
#47=COORDINATED_UNIVERSAL_TIME_OFFSET(0,0,.BEHIND.);
#48=COORDINATED_UNIVERSAL_TIME_OFFSET(0,0,.BEHIND.);
#49=COORDINATED_UNIVERSAL_TIME_OFFSET(0,0,.BEHIND.);
#50=COORDINATED_UNIVERSAL_TIME_OFFSET(0,0,.BEHIND.);
#51=COORDINATED_UNIVERSAL_TIME_OFFSET(0,0,.BEHIND.);
#52=CALENDAR_DATE(0,1,1);
#53=CALENDAR_DATE(0,1,1);
#54=CALENDAR_DATE(0,1,1);
#55=CALENDAR_DATE(0,1,1);
#56=CALENDAR_DATE(0,1,1);
#57=CC_DESIGN_PERSON_AND_ORGANIZATION_ASSIGNMENT(#65,#61,(#82,#84));
#58=CC_DESIGN_PERSON_AND_ORGANIZATION_ASSIGNMENT(#66,#62,(#86));
#59=CC_DESIGN_PERSON_AND_ORGANIZATION_ASSIGNMENT(#67,#63,(#84));
#60=CC_DESIGN_PERSON_AND_ORGANIZATION_ASSIGNMENT(#68,#64,(#31));
#61=PERSON_AND_ORGANIZATION_ROLE('creator');
#62=PERSON_AND_ORGANIZATION_ROLE('design_owner');
#63=PERSON_AND_ORGANIZATION_ROLE('design_supplier');
#64=PERSON_AND_ORGANIZATION_ROLE('classification_officer');
#65=PERSON_AND_ORGANIZATION(#79,#72);
#66=PERSON_AND_ORGANIZATION(#79,#73);
#67=PERSON_AND_ORGANIZATION(#79,#74);
#68=PERSON_AND_ORGANIZATION(#79,#75);
#69=PERSON_AND_ORGANIZATION(#79,#76);
#70=PERSON_AND_ORGANIZATION(#79,#77);
#71=PERSON_AND_ORGANIZATION(#79,#78);
#72=ORGANIZATION(' ',' ',' ');
#73=ORGANIZATION(' ',' ',' ');
#74=ORGANIZATION(' ',' ',' ');
#75=ORGANIZATION(' ',' ',' ');
#76=ORGANIZATION(' ',' ',' ');
#77=ORGANIZATION(' ',' ',' ');
#78=ORGANIZATION(' ',' ',' ');
#79=PERSON(' ',' ',' ',(' '),$,$);
#80=SHAPE_DEFINITION_REPRESENTATION(#81,#94);
#81=PRODUCT_DEFINITION_SHAPE('','',#82);
#82=PRODUCT_DEFINITION(' ','',#84,#83);
#83=DESIGN_CONTEXT('',#93,'design');
#84=PRODUCT_DEFINITION_FORMATION_WITH_SPECIFIED_SOURCE(' ',' ',#86,.NOT_KNOWN.);
#85=PRODUCT_RELATED_PRODUCT_CATEGORY('detail','',(#86));
#86=PRODUCT('A316_16BM210_06280G_SIM','A316_16BM210_06280G_SIM',' ',(#91));
#87=PRODUCT_CATEGORY_RELATIONSHIP(' ',' ',#89,#90);
#88=PRODUCT_CATEGORY_RELATIONSHIP('','',#90,#85);
#89=PRODUCT_CATEGORY('part',' ');
#90=PRODUCT_CATEGORY(' ','');
#91=MECHANICAL_CONTEXT(' ',#93,'mechanical');
#92=APPLICATION_PROTOCOL_DEFINITION('international standard',
'config_control_design',1994,#93);
#93=APPLICATION_CONTEXT(
'configuration controlled 3D designs of mechanical parts and assemblies');
#94=SHAPE_REPRESENTATION('A316_16BM210_06280G_SIM-None',(#219),#313);
#95=CONICAL_SURFACE('',#232,5.712,6.00000000000001);
#96=PRESENTATION_LAYER_ASSIGNMENT('1','Layer 1',(#113,#114));
#97=STYLED_ITEM('',(#99),#113);
#98=STYLED_ITEM('',(#100),#114);
#99=PRESENTATION_STYLE_ASSIGNMENT((#101));
#100=PRESENTATION_STYLE_ASSIGNMENT((#102));
#101=SURFACE_STYLE_USAGE(.BOTH.,#103);
#102=SURFACE_STYLE_USAGE(.BOTH.,#104);
#103=SURFACE_SIDE_STYLE('',(#105));
#104=SURFACE_SIDE_STYLE('',(#106));
#105=SURFACE_STYLE_FILL_AREA(#107);
#106=SURFACE_STYLE_FILL_AREA(#108);
#107=FILL_AREA_STYLE('',(#109));
#108=FILL_AREA_STYLE('',(#110));
#109=FILL_AREA_STYLE_COLOUR('',#111);
#110=FILL_AREA_STYLE_COLOUR('',#112);
#111=COLOUR_RGB('TLS_CUT',0.8,0.8,0.8);
#112=COLOUR_RGB('TLS_NOCUT',0.499992370489052,0.499992370489052,0.499992370489052);
#113=MANIFOLD_SOLID_BREP('',#115);
#114=MANIFOLD_SOLID_BREP('',#116);
#115=CLOSED_SHELL('',(#140,#141,#142));
#116=CLOSED_SHELL('',(#143,#144,#145,#146,#147,#148,#149,#150));
#117=PLANE('',#224);
#118=PLANE('',#226);
#119=PLANE('',#230);
#120=PLANE('',#236);
#121=PLANE('',#239);
#122=CYLINDRICAL_SURFACE('',#223,7.95);
#123=CYLINDRICAL_SURFACE('',#228,3.512);
#124=CYLINDRICAL_SURFACE('',#234,5.712);
#125=CYLINDRICAL_SURFACE('',#238,7.762);
#126=FACE_BOUND('',#157,.T.);
#127=FACE_BOUND('',#158,.T.);
#128=FACE_BOUND('',#161,.T.);
#129=FACE_BOUND('',#162,.T.);
#130=FACE_BOUND('',#163,.T.);
#131=FACE_BOUND('',#164,.T.);
#132=FACE_BOUND('',#165,.T.);
#133=FACE_BOUND('',#166,.T.);
#134=FACE_BOUND('',#167,.T.);
#135=FACE_BOUND('',#168,.T.);
#136=FACE_BOUND('',#169,.T.);
#137=FACE_BOUND('',#170,.T.);
#138=FACE_BOUND('',#171,.T.);
#139=FACE_BOUND('',#172,.T.);
#140=ADVANCED_FACE('',(#152),#151,.T.);
#141=ADVANCED_FACE('',(#126,#127),#122,.T.);
#142=ADVANCED_FACE('',(#153),#117,.T.);
#143=ADVANCED_FACE('',(#154),#118,.T.);
#144=ADVANCED_FACE('',(#128,#129),#123,.T.);
#145=ADVANCED_FACE('',(#130,#131),#119,.T.);
#146=ADVANCED_FACE('',(#132,#133),#95,.T.);
#147=ADVANCED_FACE('',(#134,#135),#124,.T.);
#148=ADVANCED_FACE('',(#136,#137),#120,.T.);
#149=ADVANCED_FACE('',(#138,#139),#125,.T.);
#150=ADVANCED_FACE('',(#155),#121,.F.);
#151=SPHERICAL_SURFACE('',#221,7.95);
#152=FACE_OUTER_BOUND('',#156,.T.);
#153=FACE_OUTER_BOUND('',#159,.T.);
#154=FACE_OUTER_BOUND('',#160,.T.);
#155=FACE_OUTER_BOUND('',#173,.T.);
#156=EDGE_LOOP('',(#174));
#157=EDGE_LOOP('',(#175));
#158=EDGE_LOOP('',(#176));
#159=EDGE_LOOP('',(#177));
#160=EDGE_LOOP('',(#178));
#161=EDGE_LOOP('',(#179));
#162=EDGE_LOOP('',(#180));
#163=EDGE_LOOP('',(#181));
#164=EDGE_LOOP('',(#182));
#165=EDGE_LOOP('',(#183));
#166=EDGE_LOOP('',(#184));
#167=EDGE_LOOP('',(#185));
#168=EDGE_LOOP('',(#186));
#169=EDGE_LOOP('',(#187));
#170=EDGE_LOOP('',(#188));
#171=EDGE_LOOP('',(#189));
#172=EDGE_LOOP('',(#190));
#173=EDGE_LOOP('',(#191));
#174=ORIENTED_EDGE('',*,*,#201,.T.);
#175=ORIENTED_EDGE('',*,*,#202,.T.);
#176=ORIENTED_EDGE('',*,*,#201,.F.);
#177=ORIENTED_EDGE('',*,*,#202,.F.);
#178=ORIENTED_EDGE('',*,*,#203,.F.);
#179=ORIENTED_EDGE('',*,*,#203,.T.);
#180=ORIENTED_EDGE('',*,*,#204,.F.);
#181=ORIENTED_EDGE('',*,*,#204,.T.);
#182=ORIENTED_EDGE('',*,*,#205,.F.);
#183=ORIENTED_EDGE('',*,*,#205,.T.);
#184=ORIENTED_EDGE('',*,*,#206,.F.);
#185=ORIENTED_EDGE('',*,*,#206,.T.);
#186=ORIENTED_EDGE('',*,*,#207,.F.);
#187=ORIENTED_EDGE('',*,*,#207,.T.);
#188=ORIENTED_EDGE('',*,*,#208,.F.);
#189=ORIENTED_EDGE('',*,*,#208,.T.);
#190=ORIENTED_EDGE('',*,*,#209,.F.);
#191=ORIENTED_EDGE('',*,*,#209,.T.);
#192=VERTEX_POINT('',#284);
#193=VERTEX_POINT('',#287);
#194=VERTEX_POINT('',#291);
#195=VERTEX_POINT('',#294);
#196=VERTEX_POINT('',#297);
#197=VERTEX_POINT('',#300);
#198=VERTEX_POINT('',#303);
#199=VERTEX_POINT('',#306);
#200=VERTEX_POINT('',#309);
#201=EDGE_CURVE('',#192,#192,#210,.T.);
#202=EDGE_CURVE('',#193,#193,#211,.T.);
#203=EDGE_CURVE('',#194,#194,#212,.T.);
#204=EDGE_CURVE('',#195,#195,#213,.T.);
#205=EDGE_CURVE('',#196,#196,#214,.T.);
#206=EDGE_CURVE('',#197,#197,#215,.T.);
#207=EDGE_CURVE('',#198,#198,#216,.T.);
#208=EDGE_CURVE('',#199,#199,#217,.T.);
#209=EDGE_CURVE('',#200,#200,#218,.T.);
#210=CIRCLE('',#220,7.95);
#211=CIRCLE('',#222,7.95);
#212=CIRCLE('',#225,3.512);
#213=CIRCLE('',#227,3.512);
#214=CIRCLE('',#229,4.6399368002901);
#215=CIRCLE('',#231,5.712);
#216=CIRCLE('',#233,5.712);
#217=CIRCLE('',#235,7.762);
#218=CIRCLE('',#237,7.762);
#219=AXIS2_PLACEMENT_3D('',#282,#240,#241);
#220=AXIS2_PLACEMENT_3D('',#283,#242,#243);
#221=AXIS2_PLACEMENT_3D('',#285,#244,#245);
#222=AXIS2_PLACEMENT_3D('',#286,#246,#247);
#223=AXIS2_PLACEMENT_3D('',#288,#248,#249);
#224=AXIS2_PLACEMENT_3D('',#289,#250,#251);
#225=AXIS2_PLACEMENT_3D('',#290,#252,#253);
#226=AXIS2_PLACEMENT_3D('',#292,#254,#255);
#227=AXIS2_PLACEMENT_3D('',#293,#256,#257);
#228=AXIS2_PLACEMENT_3D('',#295,#258,#259);
#229=AXIS2_PLACEMENT_3D('',#296,#260,#261);
#230=AXIS2_PLACEMENT_3D('',#298,#262,#263);
#231=AXIS2_PLACEMENT_3D('',#299,#264,#265);
#232=AXIS2_PLACEMENT_3D('',#301,#266,#267);
#233=AXIS2_PLACEMENT_3D('',#302,#268,#269);
#234=AXIS2_PLACEMENT_3D('',#304,#270,#271);
#235=AXIS2_PLACEMENT_3D('',#305,#272,#273);
#236=AXIS2_PLACEMENT_3D('',#307,#274,#275);
#237=AXIS2_PLACEMENT_3D('',#308,#276,#277);
#238=AXIS2_PLACEMENT_3D('',#310,#278,#279);
#239=AXIS2_PLACEMENT_3D('',#311,#280,#281);
#240=DIRECTION('',(0.,0.,1.));
#241=DIRECTION('',(1.,0.,0.));
#242=DIRECTION('',(0.,0.,-1.));
#243=DIRECTION('',(-1.,0.,0.));
#244=DIRECTION('',(0.,-6.11568442420086E-017,-1.));
#245=DIRECTION('',(0.,-1.,0.));
#246=DIRECTION('',(0.,0.,-1.));
#247=DIRECTION('',(-1.,0.,0.));
#248=DIRECTION('',(0.,0.,-1.));
#249=DIRECTION('',(-1.,0.,0.));
#250=DIRECTION('',(0.,0.,1.));
#251=DIRECTION('',(1.,0.,0.));
#252=DIRECTION('',(0.,0.,-1.));
#253=DIRECTION('',(-1.,0.,0.));
#254=DIRECTION('',(0.,0.,1.));
#255=DIRECTION('',(1.,0.,0.));
#256=DIRECTION('',(0.,0.,-1.));
#257=DIRECTION('',(-1.,0.,0.));
#258=DIRECTION('',(0.,0.,-1.));
#259=DIRECTION('',(-1.,0.,0.));
#260=DIRECTION('',(0.,0.,-1.));
#261=DIRECTION('',(-1.,0.,0.));
#262=DIRECTION('',(0.,0.,1.));
#263=DIRECTION('',(1.,0.,0.));
#264=DIRECTION('',(0.,0.,-1.));
#265=DIRECTION('',(-1.,0.,0.));
#266=DIRECTION('',(0.,0.,-1.));
#267=DIRECTION('',(-1.,0.,2.23070288152318E-016));
#268=DIRECTION('',(0.,0.,-1.));
#269=DIRECTION('',(-1.,0.,0.));
#270=DIRECTION('',(0.,0.,-1.));
#271=DIRECTION('',(-1.,0.,0.));
#272=DIRECTION('',(0.,0.,-1.));
#273=DIRECTION('',(-1.,0.,0.));
#274=DIRECTION('',(0.,0.,1.));
#275=DIRECTION('',(1.,0.,0.));
#276=DIRECTION('',(0.,0.,-1.));
#277=DIRECTION('',(-1.,0.,0.));
#278=DIRECTION('',(0.,0.,-1.));
#279=DIRECTION('',(-1.,0.,0.));
#280=DIRECTION('',(0.,0.,1.));
#281=DIRECTION('',(1.,0.,0.));
#282=CARTESIAN_POINT('',(0.,0.,0.));
#283=CARTESIAN_POINT('',(0.,0.0119999999999985,-9.95));
#284=CARTESIAN_POINT('',(-7.95,0.0119999999999985,-9.95));
#285=CARTESIAN_POINT('',(0.,0.0120000000000005,-9.95));
#286=CARTESIAN_POINT('',(0.,0.0119999999999985,-4.1));
#287=CARTESIAN_POINT('',(-7.95,0.0119999999999985,-4.1));
#288=CARTESIAN_POINT('',(0.,0.0119999999999985,-17.9));
#289=CARTESIAN_POINT('',(0.,-7.938,-4.1));
#290=CARTESIAN_POINT('',(0.,0.0119999999999985,17.));
#291=CARTESIAN_POINT('',(-3.512,0.0119999999999985,17.));
#292=CARTESIAN_POINT('',(0.,-3.5,17.));
#293=CARTESIAN_POINT('',(0.,0.0119999999999985,13.));
#294=CARTESIAN_POINT('',(-3.512,0.0119999999999985,13.));
#295=CARTESIAN_POINT('',(0.,0.0119999999999985,-17.9));
#296=CARTESIAN_POINT('',(0.,0.0119999999999985,13.));
#297=CARTESIAN_POINT('',(-4.6399368002901,0.0119999999999985,13.));
#298=CARTESIAN_POINT('',(0.,-4.6279368002901,13.));
#299=CARTESIAN_POINT('',(0.,0.0119999999999985,2.8));
#300=CARTESIAN_POINT('',(-5.712,0.0119999999999985,2.8));
#301=CARTESIAN_POINT('',(0.,0.0119999999999985,2.8));
#302=CARTESIAN_POINT('',(0.,0.0119999999999985,0.));
#303=CARTESIAN_POINT('',(-5.712,0.0119999999999985,0.));
#304=CARTESIAN_POINT('',(0.,0.0119999999999985,-17.9));
#305=CARTESIAN_POINT('',(0.,0.0119999999999985,0.));
#306=CARTESIAN_POINT('',(-7.762,0.0119999999999985,0.));
#307=CARTESIAN_POINT('',(0.,-7.75,-6.24500451351651E-017));
#308=CARTESIAN_POINT('',(0.,0.0119999999999985,-4.1));
#309=CARTESIAN_POINT('',(-7.762,0.0119999999999985,-4.1));
#310=CARTESIAN_POINT('',(0.,0.0119999999999985,-17.9));
#311=CARTESIAN_POINT('',(0.,0.0119999999999982,-4.1));
#312=MECHANICAL_DESIGN_GEOMETRIC_PRESENTATION_REPRESENTATION('',(#97,#98),
#313);
#313=(
GEOMETRIC_REPRESENTATION_CONTEXT(3)
GLOBAL_UNCERTAINTY_ASSIGNED_CONTEXT((#314))
GLOBAL_UNIT_ASSIGNED_CONTEXT((#320,#316,#315))
REPRESENTATION_CONTEXT('A316_16BM210_06280G_SIM',
'TOP_LEVEL_ASSEMBLY_PART')
);
#314=UNCERTAINTY_MEASURE_WITH_UNIT(LENGTH_MEASURE(2.E-005),#320,
'DISTANCE_ACCURACY_VALUE','Maximum Tolerance applied to model');
#315=(
NAMED_UNIT(*)
SI_UNIT($,.STERADIAN.)
SOLID_ANGLE_UNIT()
);
#316=(
CONVERSION_BASED_UNIT('DEGREE',#318)
NAMED_UNIT(#317)
PLANE_ANGLE_UNIT()
);
#317=DIMENSIONAL_EXPONENTS(0.,0.,0.,0.,0.,0.,0.);
#318=PLANE_ANGLE_MEASURE_WITH_UNIT(PLANE_ANGLE_MEASURE(0.0174532925),#319);
#319=(
NAMED_UNIT(*)
PLANE_ANGLE_UNIT()
SI_UNIT($,.RADIAN.)
);
#320=(
LENGTH_UNIT()
NAMED_UNIT(*)
SI_UNIT(.MILLI.,.METRE.)
);
ENDSEC;
END-ISO-10303-21;
