ISO-10303-21;
HEADER;
/* Generated by software containing ST-Developer
 * from STEP Tools, Inc. (www.steptools.com) 
 */
/* OPTION: using custom schema-name function */

FILE_DESCRIPTION(
/* description */ ('3-D model version:1'),
/* implementation_level */ '2;1');

FILE_NAME(
/* name */ 'A316-12CM600-05060G',
/* time_stamp */ '2014-08-22T13:39:02+02:00',
/* author */ ('InteractiveCad'),
/* organization */ ('AB Sandvik Coromant'),
/* preprocessor_version */ 'ST-DEVELOPER v11',
/* originating_system */ 'SIEMENS UGS NX 6.0',
/* authorisation */ '');

FILE_SCHEMA (('AP203_CONFIGURATION_CONTROLLED_3D_DESIGN_OF_MECHANICAL_PARTS_AND_ASSEMBLIES_MIM_LF'));
ENDSEC;

DATA;
#10=SHAPE_REPRESENTATION_RELATIONSHIP('None',
'relationship between A316_12CM600_05060G_SIM-None and A316_12CM600_050
60G_SIM-None',#94,#11);
#11=ADVANCED_BREP_SHAPE_REPRESENTATION('A316_12CM600_05060G_SIM-None',(#112,
#113),#373);
#12=CC_DESIGN_APPROVAL(#24,(#82));
#13=CC_DESIGN_APPROVAL(#25,(#84));
#14=CC_DESIGN_APPROVAL(#26,(#31));
#15=APPROVAL_PERSON_ORGANIZATION(#69,#24,#18);
#16=APPROVAL_PERSON_ORGANIZATION(#70,#25,#19);
#17=APPROVAL_PERSON_ORGANIZATION(#71,#26,#20);
#18=APPROVAL_ROLE('approver');
#19=APPROVAL_ROLE('approver');
#20=APPROVAL_ROLE('approver');
#21=APPROVAL_DATE_TIME(#39,#24);
#22=APPROVAL_DATE_TIME(#40,#25);
#23=APPROVAL_DATE_TIME(#41,#26);
#24=APPROVAL(#27,' ');
#25=APPROVAL(#28,' ');
#26=APPROVAL(#29,' ');
#27=APPROVAL_STATUS('not_yet_approved');
#28=APPROVAL_STATUS('not_yet_approved');
#29=APPROVAL_STATUS('not_yet_approved');
#30=CC_DESIGN_SECURITY_CLASSIFICATION(#31,(#84));
#31=SECURITY_CLASSIFICATION(' ',' ',#32);
#32=SECURITY_CLASSIFICATION_LEVEL('confidential');
#33=CC_DESIGN_DATE_AND_TIME_ASSIGNMENT(#37,#35,(#82));
#34=CC_DESIGN_DATE_AND_TIME_ASSIGNMENT(#38,#36,(#31));
#35=DATE_TIME_ROLE('creation_date');
#36=DATE_TIME_ROLE('classification_date');
#37=DATE_AND_TIME(#52,#42);
#38=DATE_AND_TIME(#53,#43);
#39=DATE_AND_TIME(#54,#44);
#40=DATE_AND_TIME(#55,#45);
#41=DATE_AND_TIME(#56,#46);
#42=LOCAL_TIME(0,0,0.,#47);
#43=LOCAL_TIME(0,0,0.,#48);
#44=LOCAL_TIME(0,0,0.,#49);
#45=LOCAL_TIME(0,0,0.,#50);
#46=LOCAL_TIME(0,0,0.,#51);
#47=COORDINATED_UNIVERSAL_TIME_OFFSET(0,0,.BEHIND.);
#48=COORDINATED_UNIVERSAL_TIME_OFFSET(0,0,.BEHIND.);
#49=COORDINATED_UNIVERSAL_TIME_OFFSET(0,0,.BEHIND.);
#50=COORDINATED_UNIVERSAL_TIME_OFFSET(0,0,.BEHIND.);
#51=COORDINATED_UNIVERSAL_TIME_OFFSET(0,0,.BEHIND.);
#52=CALENDAR_DATE(0,1,1);
#53=CALENDAR_DATE(0,1,1);
#54=CALENDAR_DATE(0,1,1);
#55=CALENDAR_DATE(0,1,1);
#56=CALENDAR_DATE(0,1,1);
#57=CC_DESIGN_PERSON_AND_ORGANIZATION_ASSIGNMENT(#65,#61,(#82,#84));
#58=CC_DESIGN_PERSON_AND_ORGANIZATION_ASSIGNMENT(#66,#62,(#86));
#59=CC_DESIGN_PERSON_AND_ORGANIZATION_ASSIGNMENT(#67,#63,(#84));
#60=CC_DESIGN_PERSON_AND_ORGANIZATION_ASSIGNMENT(#68,#64,(#31));
#61=PERSON_AND_ORGANIZATION_ROLE('creator');
#62=PERSON_AND_ORGANIZATION_ROLE('design_owner');
#63=PERSON_AND_ORGANIZATION_ROLE('design_supplier');
#64=PERSON_AND_ORGANIZATION_ROLE('classification_officer');
#65=PERSON_AND_ORGANIZATION(#79,#72);
#66=PERSON_AND_ORGANIZATION(#79,#73);
#67=PERSON_AND_ORGANIZATION(#79,#74);
#68=PERSON_AND_ORGANIZATION(#79,#75);
#69=PERSON_AND_ORGANIZATION(#79,#76);
#70=PERSON_AND_ORGANIZATION(#79,#77);
#71=PERSON_AND_ORGANIZATION(#79,#78);
#72=ORGANIZATION(' ',' ',' ');
#73=ORGANIZATION(' ',' ',' ');
#74=ORGANIZATION(' ',' ',' ');
#75=ORGANIZATION(' ',' ',' ');
#76=ORGANIZATION(' ',' ',' ');
#77=ORGANIZATION(' ',' ',' ');
#78=ORGANIZATION(' ',' ',' ');
#79=PERSON(' ',' ',' ',(' '),$,$);
#80=SHAPE_DEFINITION_REPRESENTATION(#81,#94);
#81=PRODUCT_DEFINITION_SHAPE('','',#82);
#82=PRODUCT_DEFINITION(' ','',#84,#83);
#83=DESIGN_CONTEXT('',#93,'design');
#84=PRODUCT_DEFINITION_FORMATION_WITH_SPECIFIED_SOURCE(' ',' ',#86,.NOT_KNOWN.);
#85=PRODUCT_RELATED_PRODUCT_CATEGORY('detail','',(#86));
#86=PRODUCT('A316_12CM600_05060G_SIM','A316_12CM600_05060G_SIM',' ',(#91));
#87=PRODUCT_CATEGORY_RELATIONSHIP(' ',' ',#89,#90);
#88=PRODUCT_CATEGORY_RELATIONSHIP('','',#90,#85);
#89=PRODUCT_CATEGORY('part',' ');
#90=PRODUCT_CATEGORY(' ','');
#91=MECHANICAL_CONTEXT(' ',#93,'mechanical');
#92=APPLICATION_PROTOCOL_DEFINITION('international standard',
'config_control_design',1994,#93);
#93=APPLICATION_CONTEXT(
'configuration controlled 3D designs of mechanical parts and assemblies');
#94=SHAPE_REPRESENTATION('A316_12CM600_05060G_SIM-None',(#252),#373);
#95=PRESENTATION_LAYER_ASSIGNMENT('1','Layer 1',(#112,#113));
#96=STYLED_ITEM('',(#98),#112);
#97=STYLED_ITEM('',(#99),#113);
#98=PRESENTATION_STYLE_ASSIGNMENT((#100));
#99=PRESENTATION_STYLE_ASSIGNMENT((#101));
#100=SURFACE_STYLE_USAGE(.BOTH.,#102);
#101=SURFACE_STYLE_USAGE(.BOTH.,#103);
#102=SURFACE_SIDE_STYLE('',(#104));
#103=SURFACE_SIDE_STYLE('',(#105));
#104=SURFACE_STYLE_FILL_AREA(#106);
#105=SURFACE_STYLE_FILL_AREA(#107);
#106=FILL_AREA_STYLE('',(#108));
#107=FILL_AREA_STYLE('',(#109));
#108=FILL_AREA_STYLE_COLOUR('',#110);
#109=FILL_AREA_STYLE_COLOUR('',#111);
#110=COLOUR_RGB('TLS_NOCUT',0.499992370489052,0.499992370489052,0.499992370489052);
#111=COLOUR_RGB('TLS_CUT',0.8,0.8,0.8);
#112=MANIFOLD_SOLID_BREP('',#114);
#113=MANIFOLD_SOLID_BREP('',#115);
#114=CLOSED_SHELL('',(#144,#145,#146,#147,#148,#149,#150,#151,#152,#153,
#154));
#115=CLOSED_SHELL('',(#155,#156,#157));
#116=CONICAL_SURFACE('',#262,4.60391757576668,2.20000000000003);
#117=CONICAL_SURFACE('',#264,4.51895968754297,5.99999999999998);
#118=CONICAL_SURFACE('',#272,2.75,44.9999999999996);
#119=CONICAL_SURFACE('',#278,8.02350269189622,30.);
#120=TOROIDAL_SURFACE('',#260,4.90369645068986,0.3);
#121=TOROIDAL_SURFACE('',#268,3.25,0.5);
#122=CYLINDRICAL_SURFACE('',#256,6.15);
#123=CYLINDRICAL_SURFACE('',#270,2.75);
#124=FACE_BOUND('',#169,.T.);
#125=FACE_BOUND('',#170,.T.);
#126=FACE_BOUND('',#171,.T.);
#127=FACE_BOUND('',#172,.T.);
#128=FACE_BOUND('',#173,.T.);
#129=FACE_BOUND('',#174,.T.);
#130=FACE_BOUND('',#175,.T.);
#131=FACE_BOUND('',#176,.T.);
#132=FACE_BOUND('',#177,.T.);
#133=FACE_BOUND('',#178,.T.);
#134=FACE_BOUND('',#179,.T.);
#135=FACE_BOUND('',#180,.T.);
#136=FACE_BOUND('',#181,.T.);
#137=FACE_BOUND('',#182,.T.);
#138=FACE_BOUND('',#183,.T.);
#139=FACE_BOUND('',#184,.T.);
#140=FACE_BOUND('',#185,.T.);
#141=FACE_BOUND('',#186,.T.);
#142=FACE_BOUND('',#190,.T.);
#143=FACE_BOUND('',#191,.T.);
#144=ADVANCED_FACE('',(#164),#158,.F.);
#145=ADVANCED_FACE('',(#124,#125),#122,.T.);
#146=ADVANCED_FACE('',(#126,#127),#159,.F.);
#147=ADVANCED_FACE('',(#128,#129),#120,.F.);
#148=ADVANCED_FACE('',(#130,#131),#116,.T.);
#149=ADVANCED_FACE('',(#132,#133),#117,.T.);
#150=ADVANCED_FACE('',(#134,#135),#160,.F.);
#151=ADVANCED_FACE('',(#136,#137),#121,.F.);
#152=ADVANCED_FACE('',(#138,#139),#123,.T.);
#153=ADVANCED_FACE('',(#140,#141),#118,.T.);
#154=ADVANCED_FACE('',(#165),#161,.F.);
#155=ADVANCED_FACE('',(#166),#162,.T.);
#156=ADVANCED_FACE('',(#167),#163,.T.);
#157=ADVANCED_FACE('',(#142,#143),#119,.T.);
#158=PLANE('',#254);
#159=PLANE('',#258);
#160=PLANE('',#266);
#161=PLANE('',#273);
#162=PLANE('',#275);
#163=PLANE('',#277);
#164=FACE_OUTER_BOUND('',#168,.T.);
#165=FACE_OUTER_BOUND('',#187,.T.);
#166=FACE_OUTER_BOUND('',#188,.T.);
#167=FACE_OUTER_BOUND('',#189,.T.);
#168=EDGE_LOOP('',(#192));
#169=EDGE_LOOP('',(#193));
#170=EDGE_LOOP('',(#194));
#171=EDGE_LOOP('',(#195));
#172=EDGE_LOOP('',(#196));
#173=EDGE_LOOP('',(#197));
#174=EDGE_LOOP('',(#198));
#175=EDGE_LOOP('',(#199));
#176=EDGE_LOOP('',(#200));
#177=EDGE_LOOP('',(#201));
#178=EDGE_LOOP('',(#202));
#179=EDGE_LOOP('',(#203));
#180=EDGE_LOOP('',(#204));
#181=EDGE_LOOP('',(#205));
#182=EDGE_LOOP('',(#206));
#183=EDGE_LOOP('',(#207));
#184=EDGE_LOOP('',(#208));
#185=EDGE_LOOP('',(#209));
#186=EDGE_LOOP('',(#210));
#187=EDGE_LOOP('',(#211));
#188=EDGE_LOOP('',(#212));
#189=EDGE_LOOP('',(#213));
#190=EDGE_LOOP('',(#214));
#191=EDGE_LOOP('',(#215));
#192=ORIENTED_EDGE('',*,*,#228,.F.);
#193=ORIENTED_EDGE('',*,*,#229,.F.);
#194=ORIENTED_EDGE('',*,*,#228,.T.);
#195=ORIENTED_EDGE('',*,*,#230,.F.);
#196=ORIENTED_EDGE('',*,*,#229,.T.);
#197=ORIENTED_EDGE('',*,*,#231,.F.);
#198=ORIENTED_EDGE('',*,*,#230,.T.);
#199=ORIENTED_EDGE('',*,*,#232,.F.);
#200=ORIENTED_EDGE('',*,*,#231,.T.);
#201=ORIENTED_EDGE('',*,*,#233,.F.);
#202=ORIENTED_EDGE('',*,*,#232,.T.);
#203=ORIENTED_EDGE('',*,*,#234,.F.);
#204=ORIENTED_EDGE('',*,*,#233,.T.);
#205=ORIENTED_EDGE('',*,*,#235,.F.);
#206=ORIENTED_EDGE('',*,*,#234,.T.);
#207=ORIENTED_EDGE('',*,*,#236,.F.);
#208=ORIENTED_EDGE('',*,*,#235,.T.);
#209=ORIENTED_EDGE('',*,*,#237,.F.);
#210=ORIENTED_EDGE('',*,*,#236,.T.);
#211=ORIENTED_EDGE('',*,*,#237,.T.);
#212=ORIENTED_EDGE('',*,*,#238,.F.);
#213=ORIENTED_EDGE('',*,*,#239,.T.);
#214=ORIENTED_EDGE('',*,*,#238,.T.);
#215=ORIENTED_EDGE('',*,*,#239,.F.);
#216=VERTEX_POINT('',#335);
#217=VERTEX_POINT('',#338);
#218=VERTEX_POINT('',#341);
#219=VERTEX_POINT('',#344);
#220=VERTEX_POINT('',#347);
#221=VERTEX_POINT('',#350);
#222=VERTEX_POINT('',#353);
#223=VERTEX_POINT('',#356);
#224=VERTEX_POINT('',#359);
#225=VERTEX_POINT('',#362);
#226=VERTEX_POINT('',#366);
#227=VERTEX_POINT('',#369);
#228=EDGE_CURVE('',#216,#216,#240,.T.);
#229=EDGE_CURVE('',#217,#217,#241,.T.);
#230=EDGE_CURVE('',#218,#218,#242,.T.);
#231=EDGE_CURVE('',#219,#219,#243,.T.);
#232=EDGE_CURVE('',#220,#220,#244,.T.);
#233=EDGE_CURVE('',#221,#221,#245,.T.);
#234=EDGE_CURVE('',#222,#222,#246,.T.);
#235=EDGE_CURVE('',#223,#223,#247,.T.);
#236=EDGE_CURVE('',#224,#224,#248,.T.);
#237=EDGE_CURVE('',#225,#225,#249,.T.);
#238=EDGE_CURVE('',#226,#226,#250,.T.);
#239=EDGE_CURVE('',#227,#227,#251,.T.);
#240=CIRCLE('',#253,6.15);
#241=CIRCLE('',#255,6.15);
#242=CIRCLE('',#257,4.90369645068986);
#243=CIRCLE('',#259,4.60391757576668);
#244=CIRCLE('',#261,4.51895968754297);
#245=CIRCLE('',#263,3.75169877010353);
#246=CIRCLE('',#265,3.25);
#247=CIRCLE('',#267,2.75);
#248=CIRCLE('',#269,2.75);
#249=CIRCLE('',#271,2.55);
#250=CIRCLE('',#274,6.29145188432738);
#251=CIRCLE('',#276,2.24999999999997);
#252=AXIS2_PLACEMENT_3D('',#333,#279,#280);
#253=AXIS2_PLACEMENT_3D('',#334,#281,#282);
#254=AXIS2_PLACEMENT_3D('',#336,#283,#284);
#255=AXIS2_PLACEMENT_3D('',#337,#285,#286);
#256=AXIS2_PLACEMENT_3D('',#339,#287,#288);
#257=AXIS2_PLACEMENT_3D('',#340,#289,#290);
#258=AXIS2_PLACEMENT_3D('',#342,#291,#292);
#259=AXIS2_PLACEMENT_3D('',#343,#293,#294);
#260=AXIS2_PLACEMENT_3D('',#345,#295,#296);
#261=AXIS2_PLACEMENT_3D('',#346,#297,#298);
#262=AXIS2_PLACEMENT_3D('',#348,#299,#300);
#263=AXIS2_PLACEMENT_3D('',#349,#301,#302);
#264=AXIS2_PLACEMENT_3D('',#351,#303,#304);
#265=AXIS2_PLACEMENT_3D('',#352,#305,#306);
#266=AXIS2_PLACEMENT_3D('',#354,#307,#308);
#267=AXIS2_PLACEMENT_3D('',#355,#309,#310);
#268=AXIS2_PLACEMENT_3D('',#357,#311,#312);
#269=AXIS2_PLACEMENT_3D('',#358,#313,#314);
#270=AXIS2_PLACEMENT_3D('',#360,#315,#316);
#271=AXIS2_PLACEMENT_3D('',#361,#317,#318);
#272=AXIS2_PLACEMENT_3D('',#363,#319,#320);
#273=AXIS2_PLACEMENT_3D('',#364,#321,#322);
#274=AXIS2_PLACEMENT_3D('',#365,#323,#324);
#275=AXIS2_PLACEMENT_3D('',#367,#325,#326);
#276=AXIS2_PLACEMENT_3D('',#368,#327,#328);
#277=AXIS2_PLACEMENT_3D('',#370,#329,#330);
#278=AXIS2_PLACEMENT_3D('',#371,#331,#332);
#279=DIRECTION('',(0.,0.,1.));
#280=DIRECTION('',(1.,0.,0.));
#281=DIRECTION('',(0.,0.,1.));
#282=DIRECTION('',(1.,0.,0.));
#283=DIRECTION('',(0.,0.,1.));
#284=DIRECTION('',(1.,0.,0.));
#285=DIRECTION('',(0.,0.,1.));
#286=DIRECTION('',(1.,0.,0.));
#287=DIRECTION('',(0.,0.,1.));
#288=DIRECTION('',(1.,0.,0.));
#289=DIRECTION('',(0.,0.,1.));
#290=DIRECTION('',(1.,0.,0.));
#291=DIRECTION('',(0.,0.,-1.));
#292=DIRECTION('',(-1.,0.,0.));
#293=DIRECTION('',(0.,0.,1.));
#294=DIRECTION('',(1.,0.,0.));
#295=DIRECTION('',(0.,0.,1.));
#296=DIRECTION('',(1.,0.,0.));
#297=DIRECTION('',(0.,0.,1.));
#298=DIRECTION('',(1.,0.,0.));
#299=DIRECTION('',(0.,0.,-1.));
#300=DIRECTION('',(-1.,0.,-3.52831599227926E-017));
#301=DIRECTION('',(0.,0.,1.));
#302=DIRECTION('',(1.,0.,0.));
#303=DIRECTION('',(0.,0.,-1.));
#304=DIRECTION('',(-1.,0.,-4.86600914241284E-016));
#305=DIRECTION('',(0.,0.,1.));
#306=DIRECTION('',(1.,0.,0.));
#307=DIRECTION('',(0.,0.,-1.));
#308=DIRECTION('',(-1.,0.,0.));
#309=DIRECTION('',(0.,0.,1.));
#310=DIRECTION('',(1.,0.,0.));
#311=DIRECTION('',(0.,0.,1.));
#312=DIRECTION('',(1.,0.,0.));
#313=DIRECTION('',(0.,0.,1.));
#314=DIRECTION('',(1.,0.,0.));
#315=DIRECTION('',(0.,0.,1.));
#316=DIRECTION('',(1.,0.,0.));
#317=DIRECTION('',(0.,0.,1.));
#318=DIRECTION('',(1.,0.,0.));
#319=DIRECTION('',(0.,0.,-1.));
#320=DIRECTION('',(-1.,0.,-5.36289481478752E-017));
#321=DIRECTION('',(0.,0.,-1.));
#322=DIRECTION('',(-1.,0.,0.));
#323=DIRECTION('',(0.,0.,-1.));
#324=DIRECTION('',(-1.,0.,0.));
#325=DIRECTION('',(0.,0.,1.));
#326=DIRECTION('',(1.,0.,0.));
#327=DIRECTION('',(0.,0.,-1.));
#328=DIRECTION('',(1.,0.,0.));
#329=DIRECTION('',(0.,0.,-1.));
#330=DIRECTION('',(1.,0.,0.));
#331=DIRECTION('',(0.,0.,1.));
#332=DIRECTION('',(-1.,0.,-8.29764838476253E-017));
#333=CARTESIAN_POINT('',(0.,0.,0.));
#334=CARTESIAN_POINT('',(-1.99493199737333E-014,4.33680868994202E-016,-7.6));
#335=CARTESIAN_POINT('',(6.14999999999998,4.33680868994202E-016,-7.6));
#336=CARTESIAN_POINT('',(0.,8.88178419700125E-016,-7.6));
#337=CARTESIAN_POINT('',(-1.99493199737333E-014,4.33680868994202E-016,-1.7347234759768E-015));
#338=CARTESIAN_POINT('',(6.14999999999998,4.33680868994202E-016,-1.7347234759768E-015));
#339=CARTESIAN_POINT('',(-1.99493199737333E-014,4.33680868994202E-016,-7.6));
#340=CARTESIAN_POINT('',(-1.99493199737333E-014,4.33680868994202E-016,-8.67361737988404E-016));
#341=CARTESIAN_POINT('',(4.90369645068984,4.33680868994202E-016,-8.67361737988404E-016));
#342=CARTESIAN_POINT('',(0.,-6.15,-1.29475423438219E-015));
#343=CARTESIAN_POINT('',(-1.99493199737333E-014,4.33680868994202E-016,0.288483657273743));
#344=CARTESIAN_POINT('',(4.60391757576666,4.33680868994202E-016,0.288483657273743));
#345=CARTESIAN_POINT('',(-1.99493199737333E-014,8.67361737988404E-016,0.3));
#346=CARTESIAN_POINT('',(-1.99493199737333E-014,4.33680868994202E-016,2.5));
#347=CARTESIAN_POINT('',(4.51895968754295,4.33680868994202E-016,2.5));
#348=CARTESIAN_POINT('',(-1.99493199737333E-014,4.33680868994202E-016,0.288483657273743));
#349=CARTESIAN_POINT('',(-1.99493199737333E-014,4.33680868994202E-016,9.8));
#350=CARTESIAN_POINT('',(3.75169877010351,4.33680868994202E-016,9.8));
#351=CARTESIAN_POINT('',(-1.99493199737333E-014,4.33680868994202E-016,2.5));
#352=CARTESIAN_POINT('',(-1.99493199737333E-014,4.33680868994202E-016,9.8));
#353=CARTESIAN_POINT('',(3.24999999999998,4.33680868994202E-016,9.8));
#354=CARTESIAN_POINT('',(0.,-3.75169877010353,9.8));
#355=CARTESIAN_POINT('',(-1.99493199737333E-014,4.33680868994202E-016,10.3));
#356=CARTESIAN_POINT('',(2.74999999999998,4.33680868994202E-016,10.3));
#357=CARTESIAN_POINT('',(-1.99493199737333E-014,4.33680868994202E-016,10.3));
#358=CARTESIAN_POINT('',(-1.99493199737333E-014,4.33680868994202E-016,13.6));
#359=CARTESIAN_POINT('',(2.74999999999998,4.33680868994202E-016,13.6));
#360=CARTESIAN_POINT('',(-1.99493199737333E-014,4.33680868994202E-016,-7.6));
#361=CARTESIAN_POINT('',(-1.99493199737333E-014,4.33680868994202E-016,13.8));
#362=CARTESIAN_POINT('',(2.54999999999998,4.33680868994202E-016,13.8));
#363=CARTESIAN_POINT('',(-1.99493199737333E-014,4.33680868994202E-016,13.6));
#364=CARTESIAN_POINT('',(0.,-2.55,13.8));
#365=CARTESIAN_POINT('',(-1.04083408558608E-014,1.73472347597681E-015,-7.6));
#366=CARTESIAN_POINT('',(-6.29145188432739,1.73472347597681E-015,-7.6));
#367=CARTESIAN_POINT('',(-1.06581410364015E-014,1.77635683940025E-015,-7.6));
#368=CARTESIAN_POINT('',(-1.04083408558608E-014,1.73472347597681E-015,-14.6));
#369=CARTESIAN_POINT('',(2.24999999999996,1.73472347597681E-015,-14.6));
#370=CARTESIAN_POINT('',(-1.04083408558608E-014,0.,-14.6));
#371=CARTESIAN_POINT('',(-1.04083408558608E-014,1.73472347597681E-015,-4.6));
#372=MECHANICAL_DESIGN_GEOMETRIC_PRESENTATION_REPRESENTATION('',(#96,#97),
#373);
#373=(
GEOMETRIC_REPRESENTATION_CONTEXT(3)
GLOBAL_UNCERTAINTY_ASSIGNED_CONTEXT((#374))
GLOBAL_UNIT_ASSIGNED_CONTEXT((#380,#376,#375))
REPRESENTATION_CONTEXT('A316_12CM600_05060G_SIM',
'TOP_LEVEL_ASSEMBLY_PART')
);
#374=UNCERTAINTY_MEASURE_WITH_UNIT(LENGTH_MEASURE(2.E-005),#380,
'DISTANCE_ACCURACY_VALUE','Maximum Tolerance applied to model');
#375=(
NAMED_UNIT(*)
SI_UNIT($,.STERADIAN.)
SOLID_ANGLE_UNIT()
);
#376=(
CONVERSION_BASED_UNIT('DEGREE',#378)
NAMED_UNIT(#377)
PLANE_ANGLE_UNIT()
);
#377=DIMENSIONAL_EXPONENTS(0.,0.,0.,0.,0.,0.,0.);
#378=PLANE_ANGLE_MEASURE_WITH_UNIT(PLANE_ANGLE_MEASURE(0.0174532925),#379);
#379=(
NAMED_UNIT(*)
PLANE_ANGLE_UNIT()
SI_UNIT($,.RADIAN.)
);
#380=(
LENGTH_UNIT()
NAMED_UNIT(*)
SI_UNIT(.MILLI.,.METRE.)
);
ENDSEC;
END-ISO-10303-21;
