ISO-10303-21;
HEADER;
/* Generated by software containing ST-Developer
 * from STEP Tools, Inc. (www.steptools.com) 
 */
/* OPTION: using custom schema-name function */

FILE_DESCRIPTION(
/* description */ ('3-D model version:1'),
/* implementation_level */ '2;1');

FILE_NAME(
/* name */ 'A316-12CM600-05049G',
/* time_stamp */ '2014-09-10T10:56:19+02:00',
/* author */ ('InteractiveCad'),
/* organization */ ('AB Sandvik Coromant'),
/* preprocessor_version */ 'ST-DEVELOPER v11',
/* originating_system */ 'SIEMENS UGS NX 6.0',
/* authorisation */ '');

FILE_SCHEMA (('AP203_CONFIGURATION_CONTROLLED_3D_DESIGN_OF_MECHANICAL_PARTS_AND_ASSEMBLIES_MIM_LF'));
ENDSEC;

DATA;
#10=SHAPE_REPRESENTATION_RELATIONSHIP('None',
'relationship between A316_12CM600_05049G_SIM-None and A316_12CM600_050
49G_SIM-None',#94,#11);
#11=ADVANCED_BREP_SHAPE_REPRESENTATION('A316_12CM600_05049G_SIM-None',(#117,
#118),#413);
#12=CC_DESIGN_APPROVAL(#24,(#82));
#13=CC_DESIGN_APPROVAL(#25,(#84));
#14=CC_DESIGN_APPROVAL(#26,(#31));
#15=APPROVAL_PERSON_ORGANIZATION(#69,#24,#18);
#16=APPROVAL_PERSON_ORGANIZATION(#70,#25,#19);
#17=APPROVAL_PERSON_ORGANIZATION(#71,#26,#20);
#18=APPROVAL_ROLE('approver');
#19=APPROVAL_ROLE('approver');
#20=APPROVAL_ROLE('approver');
#21=APPROVAL_DATE_TIME(#39,#24);
#22=APPROVAL_DATE_TIME(#40,#25);
#23=APPROVAL_DATE_TIME(#41,#26);
#24=APPROVAL(#27,' ');
#25=APPROVAL(#28,' ');
#26=APPROVAL(#29,' ');
#27=APPROVAL_STATUS('not_yet_approved');
#28=APPROVAL_STATUS('not_yet_approved');
#29=APPROVAL_STATUS('not_yet_approved');
#30=CC_DESIGN_SECURITY_CLASSIFICATION(#31,(#84));
#31=SECURITY_CLASSIFICATION(' ',' ',#32);
#32=SECURITY_CLASSIFICATION_LEVEL('confidential');
#33=CC_DESIGN_DATE_AND_TIME_ASSIGNMENT(#37,#35,(#82));
#34=CC_DESIGN_DATE_AND_TIME_ASSIGNMENT(#38,#36,(#31));
#35=DATE_TIME_ROLE('creation_date');
#36=DATE_TIME_ROLE('classification_date');
#37=DATE_AND_TIME(#52,#42);
#38=DATE_AND_TIME(#53,#43);
#39=DATE_AND_TIME(#54,#44);
#40=DATE_AND_TIME(#55,#45);
#41=DATE_AND_TIME(#56,#46);
#42=LOCAL_TIME(0,0,0.,#47);
#43=LOCAL_TIME(0,0,0.,#48);
#44=LOCAL_TIME(0,0,0.,#49);
#45=LOCAL_TIME(0,0,0.,#50);
#46=LOCAL_TIME(0,0,0.,#51);
#47=COORDINATED_UNIVERSAL_TIME_OFFSET(0,0,.BEHIND.);
#48=COORDINATED_UNIVERSAL_TIME_OFFSET(0,0,.BEHIND.);
#49=COORDINATED_UNIVERSAL_TIME_OFFSET(0,0,.BEHIND.);
#50=COORDINATED_UNIVERSAL_TIME_OFFSET(0,0,.BEHIND.);
#51=COORDINATED_UNIVERSAL_TIME_OFFSET(0,0,.BEHIND.);
#52=CALENDAR_DATE(0,1,1);
#53=CALENDAR_DATE(0,1,1);
#54=CALENDAR_DATE(0,1,1);
#55=CALENDAR_DATE(0,1,1);
#56=CALENDAR_DATE(0,1,1);
#57=CC_DESIGN_PERSON_AND_ORGANIZATION_ASSIGNMENT(#65,#61,(#82,#84));
#58=CC_DESIGN_PERSON_AND_ORGANIZATION_ASSIGNMENT(#66,#62,(#86));
#59=CC_DESIGN_PERSON_AND_ORGANIZATION_ASSIGNMENT(#67,#63,(#84));
#60=CC_DESIGN_PERSON_AND_ORGANIZATION_ASSIGNMENT(#68,#64,(#31));
#61=PERSON_AND_ORGANIZATION_ROLE('creator');
#62=PERSON_AND_ORGANIZATION_ROLE('design_owner');
#63=PERSON_AND_ORGANIZATION_ROLE('design_supplier');
#64=PERSON_AND_ORGANIZATION_ROLE('classification_officer');
#65=PERSON_AND_ORGANIZATION(#79,#72);
#66=PERSON_AND_ORGANIZATION(#79,#73);
#67=PERSON_AND_ORGANIZATION(#79,#74);
#68=PERSON_AND_ORGANIZATION(#79,#75);
#69=PERSON_AND_ORGANIZATION(#79,#76);
#70=PERSON_AND_ORGANIZATION(#79,#77);
#71=PERSON_AND_ORGANIZATION(#79,#78);
#72=ORGANIZATION(' ',' ',' ');
#73=ORGANIZATION(' ',' ',' ');
#74=ORGANIZATION(' ',' ',' ');
#75=ORGANIZATION(' ',' ',' ');
#76=ORGANIZATION(' ',' ',' ');
#77=ORGANIZATION(' ',' ',' ');
#78=ORGANIZATION(' ',' ',' ');
#79=PERSON(' ',' ',' ',(' '),$,$);
#80=SHAPE_DEFINITION_REPRESENTATION(#81,#94);
#81=PRODUCT_DEFINITION_SHAPE('','',#82);
#82=PRODUCT_DEFINITION(' ','',#84,#83);
#83=DESIGN_CONTEXT('',#93,'design');
#84=PRODUCT_DEFINITION_FORMATION_WITH_SPECIFIED_SOURCE(' ',' ',#86,.NOT_KNOWN.);
#85=PRODUCT_RELATED_PRODUCT_CATEGORY('detail','',(#86));
#86=PRODUCT('A316_12CM600_05049G_SIM','A316_12CM600_05049G_SIM',' ',(#91));
#87=PRODUCT_CATEGORY_RELATIONSHIP(' ',' ',#89,#90);
#88=PRODUCT_CATEGORY_RELATIONSHIP('','',#90,#85);
#89=PRODUCT_CATEGORY('part',' ');
#90=PRODUCT_CATEGORY(' ','');
#91=MECHANICAL_CONTEXT(' ',#93,'mechanical');
#92=APPLICATION_PROTOCOL_DEFINITION('international standard',
'config_control_design',1994,#93);
#93=APPLICATION_CONTEXT(
'configuration controlled 3D designs of mechanical parts and assemblies');
#94=SHAPE_REPRESENTATION('A316_12CM600_05049G_SIM-None',(#274),#413);
#95=TOROIDAL_SURFACE('',#301,3.25,0.5);
#96=TOROIDAL_SURFACE('',#302,4.90369645068986,0.3);
#97=CYLINDRICAL_SURFACE('',#287,6.15);
#98=CYLINDRICAL_SURFACE('',#290,6.35);
#99=CYLINDRICAL_SURFACE('',#300,2.75);
#100=PRESENTATION_LAYER_ASSIGNMENT('1','Layer 1',(#117,#118));
#101=STYLED_ITEM('',(#103),#117);
#102=STYLED_ITEM('',(#104),#118);
#103=PRESENTATION_STYLE_ASSIGNMENT((#105));
#104=PRESENTATION_STYLE_ASSIGNMENT((#106));
#105=SURFACE_STYLE_USAGE(.BOTH.,#107);
#106=SURFACE_STYLE_USAGE(.BOTH.,#108);
#107=SURFACE_SIDE_STYLE('',(#109));
#108=SURFACE_SIDE_STYLE('',(#110));
#109=SURFACE_STYLE_FILL_AREA(#111);
#110=SURFACE_STYLE_FILL_AREA(#112);
#111=FILL_AREA_STYLE('',(#113));
#112=FILL_AREA_STYLE('',(#114));
#113=FILL_AREA_STYLE_COLOUR('',#115);
#114=FILL_AREA_STYLE_COLOUR('',#116);
#115=COLOUR_RGB('TLS_CUT',0.8,0.8,0.8);
#116=COLOUR_RGB('TLS_NOCUT',0.499992370489052,0.499992370489052,0.499992370489052);
#117=MANIFOLD_SOLID_BREP('',#119);
#118=MANIFOLD_SOLID_BREP('',#120);
#119=CLOSED_SHELL('',(#149,#150,#151));
#120=CLOSED_SHELL('',(#152,#153,#154,#155,#156,#157,#158,#159,#160,#161,
#162,#163,#164));
#121=CONICAL_SURFACE('',#279,10.1928673781623,41.);
#122=CONICAL_SURFACE('',#282,2.75,45.);
#123=CONICAL_SURFACE('',#294,4.615,2.20000000000001);
#124=CONICAL_SURFACE('',#296,4.51895968754297,5.99999999999998);
#125=FACE_BOUND('',#178,.T.);
#126=FACE_BOUND('',#179,.T.);
#127=FACE_BOUND('',#180,.T.);
#128=FACE_BOUND('',#181,.T.);
#129=FACE_BOUND('',#182,.T.);
#130=FACE_BOUND('',#183,.T.);
#131=FACE_BOUND('',#184,.T.);
#132=FACE_BOUND('',#185,.T.);
#133=FACE_BOUND('',#186,.T.);
#134=FACE_BOUND('',#187,.T.);
#135=FACE_BOUND('',#188,.T.);
#136=FACE_BOUND('',#189,.T.);
#137=FACE_BOUND('',#190,.T.);
#138=FACE_BOUND('',#191,.T.);
#139=FACE_BOUND('',#192,.T.);
#140=FACE_BOUND('',#193,.T.);
#141=FACE_BOUND('',#194,.T.);
#142=FACE_BOUND('',#195,.T.);
#143=FACE_BOUND('',#196,.T.);
#144=FACE_BOUND('',#197,.T.);
#145=FACE_BOUND('',#198,.T.);
#146=FACE_BOUND('',#199,.T.);
#147=FACE_BOUND('',#200,.T.);
#148=FACE_BOUND('',#201,.T.);
#149=ADVANCED_FACE('',(#172),#165,.T.);
#150=ADVANCED_FACE('',(#173),#166,.T.);
#151=ADVANCED_FACE('',(#125,#126),#121,.T.);
#152=ADVANCED_FACE('',(#127,#128),#122,.T.);
#153=ADVANCED_FACE('',(#129,#130),#167,.T.);
#154=ADVANCED_FACE('',(#131,#132),#97,.T.);
#155=ADVANCED_FACE('',(#133,#134),#98,.T.);
#156=ADVANCED_FACE('',(#135,#136),#168,.T.);
#157=ADVANCED_FACE('',(#137,#138),#123,.T.);
#158=ADVANCED_FACE('',(#139,#140),#124,.T.);
#159=ADVANCED_FACE('',(#141,#142),#169,.F.);
#160=ADVANCED_FACE('',(#143,#144),#99,.T.);
#161=ADVANCED_FACE('',(#145,#146),#95,.F.);
#162=ADVANCED_FACE('',(#147,#148),#96,.F.);
#163=ADVANCED_FACE('',(#174),#170,.T.);
#164=ADVANCED_FACE('',(#175),#171,.F.);
#165=PLANE('',#276);
#166=PLANE('',#278);
#167=PLANE('',#285);
#168=PLANE('',#291);
#169=PLANE('',#298);
#170=PLANE('',#303);
#171=PLANE('',#304);
#172=FACE_OUTER_BOUND('',#176,.T.);
#173=FACE_OUTER_BOUND('',#177,.T.);
#174=FACE_OUTER_BOUND('',#202,.T.);
#175=FACE_OUTER_BOUND('',#203,.T.);
#176=EDGE_LOOP('',(#204));
#177=EDGE_LOOP('',(#205));
#178=EDGE_LOOP('',(#206));
#179=EDGE_LOOP('',(#207));
#180=EDGE_LOOP('',(#208));
#181=EDGE_LOOP('',(#209));
#182=EDGE_LOOP('',(#210));
#183=EDGE_LOOP('',(#211));
#184=EDGE_LOOP('',(#212));
#185=EDGE_LOOP('',(#213));
#186=EDGE_LOOP('',(#214));
#187=EDGE_LOOP('',(#215));
#188=EDGE_LOOP('',(#216));
#189=EDGE_LOOP('',(#217));
#190=EDGE_LOOP('',(#218));
#191=EDGE_LOOP('',(#219));
#192=EDGE_LOOP('',(#220));
#193=EDGE_LOOP('',(#221));
#194=EDGE_LOOP('',(#222));
#195=EDGE_LOOP('',(#223));
#196=EDGE_LOOP('',(#224));
#197=EDGE_LOOP('',(#225));
#198=EDGE_LOOP('',(#226));
#199=EDGE_LOOP('',(#227));
#200=EDGE_LOOP('',(#228));
#201=EDGE_LOOP('',(#229));
#202=EDGE_LOOP('',(#230));
#203=EDGE_LOOP('',(#231));
#204=ORIENTED_EDGE('',*,*,#246,.F.);
#205=ORIENTED_EDGE('',*,*,#247,.T.);
#206=ORIENTED_EDGE('',*,*,#246,.T.);
#207=ORIENTED_EDGE('',*,*,#247,.F.);
#208=ORIENTED_EDGE('',*,*,#248,.F.);
#209=ORIENTED_EDGE('',*,*,#249,.T.);
#210=ORIENTED_EDGE('',*,*,#250,.T.);
#211=ORIENTED_EDGE('',*,*,#251,.T.);
#212=ORIENTED_EDGE('',*,*,#250,.F.);
#213=ORIENTED_EDGE('',*,*,#252,.T.);
#214=ORIENTED_EDGE('',*,*,#253,.F.);
#215=ORIENTED_EDGE('',*,*,#254,.T.);
#216=ORIENTED_EDGE('',*,*,#254,.F.);
#217=ORIENTED_EDGE('',*,*,#252,.F.);
#218=ORIENTED_EDGE('',*,*,#255,.T.);
#219=ORIENTED_EDGE('',*,*,#256,.F.);
#220=ORIENTED_EDGE('',*,*,#257,.F.);
#221=ORIENTED_EDGE('',*,*,#256,.T.);
#222=ORIENTED_EDGE('',*,*,#258,.T.);
#223=ORIENTED_EDGE('',*,*,#257,.T.);
#224=ORIENTED_EDGE('',*,*,#259,.T.);
#225=ORIENTED_EDGE('',*,*,#248,.T.);
#226=ORIENTED_EDGE('',*,*,#258,.F.);
#227=ORIENTED_EDGE('',*,*,#259,.F.);
#228=ORIENTED_EDGE('',*,*,#251,.F.);
#229=ORIENTED_EDGE('',*,*,#255,.F.);
#230=ORIENTED_EDGE('',*,*,#249,.F.);
#231=ORIENTED_EDGE('',*,*,#253,.T.);
#232=VERTEX_POINT('',#369);
#233=VERTEX_POINT('',#372);
#234=VERTEX_POINT('',#376);
#235=VERTEX_POINT('',#378);
#236=VERTEX_POINT('',#381);
#237=VERTEX_POINT('',#383);
#238=VERTEX_POINT('',#386);
#239=VERTEX_POINT('',#389);
#240=VERTEX_POINT('',#391);
#241=VERTEX_POINT('',#395);
#242=VERTEX_POINT('',#397);
#243=VERTEX_POINT('',#400);
#244=VERTEX_POINT('',#403);
#245=VERTEX_POINT('',#406);
#246=EDGE_CURVE('',#232,#232,#260,.T.);
#247=EDGE_CURVE('',#233,#233,#261,.T.);
#248=EDGE_CURVE('',#234,#234,#262,.T.);
#249=EDGE_CURVE('',#235,#235,#263,.T.);
#250=EDGE_CURVE('',#236,#236,#264,.T.);
#251=EDGE_CURVE('',#237,#237,#265,.T.);
#252=EDGE_CURVE('',#238,#238,#266,.T.);
#253=EDGE_CURVE('',#239,#239,#267,.T.);
#254=EDGE_CURVE('',#240,#240,#268,.T.);
#255=EDGE_CURVE('',#241,#241,#269,.T.);
#256=EDGE_CURVE('',#242,#242,#270,.T.);
#257=EDGE_CURVE('',#243,#243,#271,.T.);
#258=EDGE_CURVE('',#244,#244,#272,.T.);
#259=EDGE_CURVE('',#245,#245,#273,.T.);
#260=CIRCLE('',#275,6.35);
#261=CIRCLE('',#277,1.5);
#262=CIRCLE('',#280,2.75);
#263=CIRCLE('',#281,2.65);
#264=CIRCLE('',#283,6.15);
#265=CIRCLE('',#284,4.90369645068986);
#266=CIRCLE('',#286,6.15);
#267=CIRCLE('',#288,6.35);
#268=CIRCLE('',#289,6.35);
#269=CIRCLE('',#292,4.60391757576667);
#270=CIRCLE('',#293,4.51895968754297);
#271=CIRCLE('',#295,3.75169877010353);
#272=CIRCLE('',#297,3.25);
#273=CIRCLE('',#299,2.75);
#274=AXIS2_PLACEMENT_3D('',#367,#305,#306);
#275=AXIS2_PLACEMENT_3D('',#368,#307,#308);
#276=AXIS2_PLACEMENT_3D('',#370,#309,#310);
#277=AXIS2_PLACEMENT_3D('',#371,#311,#312);
#278=AXIS2_PLACEMENT_3D('',#373,#313,#314);
#279=AXIS2_PLACEMENT_3D('',#374,#315,#316);
#280=AXIS2_PLACEMENT_3D('',#375,#317,#318);
#281=AXIS2_PLACEMENT_3D('',#377,#319,#320);
#282=AXIS2_PLACEMENT_3D('',#379,#321,#322);
#283=AXIS2_PLACEMENT_3D('',#380,#323,#324);
#284=AXIS2_PLACEMENT_3D('',#382,#325,#326);
#285=AXIS2_PLACEMENT_3D('',#384,#327,#328);
#286=AXIS2_PLACEMENT_3D('',#385,#329,#330);
#287=AXIS2_PLACEMENT_3D('',#387,#331,#332);
#288=AXIS2_PLACEMENT_3D('',#388,#333,#334);
#289=AXIS2_PLACEMENT_3D('',#390,#335,#336);
#290=AXIS2_PLACEMENT_3D('',#392,#337,#338);
#291=AXIS2_PLACEMENT_3D('',#393,#339,#340);
#292=AXIS2_PLACEMENT_3D('',#394,#341,#342);
#293=AXIS2_PLACEMENT_3D('',#396,#343,#344);
#294=AXIS2_PLACEMENT_3D('',#398,#345,#346);
#295=AXIS2_PLACEMENT_3D('',#399,#347,#348);
#296=AXIS2_PLACEMENT_3D('',#401,#349,#350);
#297=AXIS2_PLACEMENT_3D('',#402,#351,#352);
#298=AXIS2_PLACEMENT_3D('',#404,#353,#354);
#299=AXIS2_PLACEMENT_3D('',#405,#355,#356);
#300=AXIS2_PLACEMENT_3D('',#407,#357,#358);
#301=AXIS2_PLACEMENT_3D('',#408,#359,#360);
#302=AXIS2_PLACEMENT_3D('',#409,#361,#362);
#303=AXIS2_PLACEMENT_3D('',#410,#363,#364);
#304=AXIS2_PLACEMENT_3D('',#411,#365,#366);
#305=DIRECTION('',(0.,0.,1.));
#306=DIRECTION('',(1.,0.,0.));
#307=DIRECTION('',(0.,0.,-1.));
#308=DIRECTION('',(1.,0.,0.));
#309=DIRECTION('',(0.,0.,1.));
#310=DIRECTION('',(1.,0.,0.));
#311=DIRECTION('',(0.,0.,-1.));
#312=DIRECTION('',(1.,0.,0.));
#313=DIRECTION('',(0.,0.,-1.));
#314=DIRECTION('',(1.,0.,0.));
#315=DIRECTION('',(0.,0.,1.));
#316=DIRECTION('',(-1.,0.,-5.52284067083225E-017));
#317=DIRECTION('',(0.,0.,-1.));
#318=DIRECTION('',(1.,0.,0.));
#319=DIRECTION('',(0.,0.,-1.));
#320=DIRECTION('',(1.,0.,0.));
#321=DIRECTION('',(0.,0.,-1.));
#322=DIRECTION('',(1.,0.,-5.36289481478744E-017));
#323=DIRECTION('',(0.,0.,1.));
#324=DIRECTION('',(-1.,0.,0.));
#325=DIRECTION('',(0.,0.,-1.));
#326=DIRECTION('',(1.,0.,0.));
#327=DIRECTION('',(0.,0.,1.));
#328=DIRECTION('',(1.,0.,0.));
#329=DIRECTION('',(0.,0.,1.));
#330=DIRECTION('',(0.875401499124328,-0.483396540462257,0.));
#331=DIRECTION('',(0.,0.,1.));
#332=DIRECTION('',(1.,0.,0.));
#333=DIRECTION('',(0.,0.,-1.));
#334=DIRECTION('',(1.,0.,0.));
#335=DIRECTION('',(0.,0.,-1.));
#336=DIRECTION('',(-1.,0.,0.));
#337=DIRECTION('',(0.,0.,1.));
#338=DIRECTION('',(-1.,0.,0.));
#339=DIRECTION('',(0.,0.,1.));
#340=DIRECTION('',(-1.,0.,0.));
#341=DIRECTION('',(0.,0.,1.));
#342=DIRECTION('',(1.,0.,0.));
#343=DIRECTION('',(0.,0.,1.));
#344=DIRECTION('',(-1.,0.,0.));
#345=DIRECTION('',(0.,0.,-1.));
#346=DIRECTION('',(1.,0.,0.));
#347=DIRECTION('',(0.,0.,1.));
#348=DIRECTION('',(-1.,0.,0.));
#349=DIRECTION('',(0.,0.,-1.));
#350=DIRECTION('',(1.,0.,-4.86600914241284E-016));
#351=DIRECTION('',(0.,0.,-1.));
#352=DIRECTION('',(1.,0.,0.));
#353=DIRECTION('',(0.,0.,-1.));
#354=DIRECTION('',(1.,0.,0.));
#355=DIRECTION('',(0.,0.,1.));
#356=DIRECTION('',(1.,0.,0.));
#357=DIRECTION('',(0.,0.,1.));
#358=DIRECTION('',(-1.,0.,0.));
#359=DIRECTION('',(0.,0.,-1.));
#360=DIRECTION('',(1.,0.,0.));
#361=DIRECTION('',(0.,0.,-1.));
#362=DIRECTION('',(1.,0.,0.));
#363=DIRECTION('',(0.,0.,1.));
#364=DIRECTION('',(1.,0.,0.));
#365=DIRECTION('',(0.,0.,1.));
#366=DIRECTION('',(1.,0.,0.));
#367=CARTESIAN_POINT('',(0.,0.,0.));
#368=CARTESIAN_POINT('',(-6.07153216591882E-015,1.73472347597681E-015,-9.020713225));
#369=CARTESIAN_POINT('',(6.34999999999999,1.73472347597681E-015,-9.020713225));
#370=CARTESIAN_POINT('',(0.,0.,-9.020713225));
#371=CARTESIAN_POINT('',(-6.93889390390723E-015,1.73472347597681E-015,-14.6));
#372=CARTESIAN_POINT('',(1.5,1.73472347597681E-015,-14.6));
#373=CARTESIAN_POINT('',(-7.80625564189563E-015,0.,-14.6));
#374=CARTESIAN_POINT('',(-6.93889390390723E-015,1.73472347597681E-015,-4.6));
#375=CARTESIAN_POINT('',(0.,0.,13.6));
#376=CARTESIAN_POINT('',(2.75,0.,13.6));
#377=CARTESIAN_POINT('',(0.,0.,13.7));
#378=CARTESIAN_POINT('',(2.65,0.,13.7));
#379=CARTESIAN_POINT('',(0.,0.,13.6));
#380=CARTESIAN_POINT('',(0.,0.,0.));
#381=CARTESIAN_POINT('',(-6.15,0.,0.));
#382=CARTESIAN_POINT('',(0.,0.,0.));
#383=CARTESIAN_POINT('',(4.90369645068986,0.,0.));
#384=CARTESIAN_POINT('',(0.,0.,0.));
#385=CARTESIAN_POINT('',(-1.56125112837913E-014,4.33680868994202E-016,-7.6));
#386=CARTESIAN_POINT('',(5.3837192196146,-2.97288872384288,-7.6));
#387=CARTESIAN_POINT('',(0.,0.,-0.1));
#388=CARTESIAN_POINT('',(-6.07153216591882E-015,1.73472347597681E-015,-9.020713225));
#389=CARTESIAN_POINT('',(6.34999999999999,1.73472347597681E-015,-9.020713225));
#390=CARTESIAN_POINT('',(-6.07153216591882E-015,1.73472347597681E-015,-7.6));
#391=CARTESIAN_POINT('',(-6.35,1.73472347597681E-015,-7.6));
#392=CARTESIAN_POINT('',(-6.07153216591882E-015,1.73472347597681E-015,-16.2));
#393=CARTESIAN_POINT('',(-1.47451495458029E-014,2.16840434497101E-016,-7.6));
#394=CARTESIAN_POINT('',(0.,0.,0.288483657273744));
#395=CARTESIAN_POINT('',(4.60391757576667,0.,0.288483657273744));
#396=CARTESIAN_POINT('',(0.,0.,2.5));
#397=CARTESIAN_POINT('',(-4.51895968754297,0.,2.5));
#398=CARTESIAN_POINT('',(0.,0.,0.));
#399=CARTESIAN_POINT('',(0.,0.,9.8));
#400=CARTESIAN_POINT('',(-3.75169877010353,0.,9.8));
#401=CARTESIAN_POINT('',(0.,0.,2.5));
#402=CARTESIAN_POINT('',(0.,0.,9.8));
#403=CARTESIAN_POINT('',(3.25,0.,9.8));
#404=CARTESIAN_POINT('',(3.75169877010353,0.,9.8));
#405=CARTESIAN_POINT('',(0.,0.,10.3));
#406=CARTESIAN_POINT('',(2.75,0.,10.3));
#407=CARTESIAN_POINT('',(0.,0.,14.835));
#408=CARTESIAN_POINT('',(0.,0.,10.3));
#409=CARTESIAN_POINT('',(0.,0.,0.3));
#410=CARTESIAN_POINT('',(0.,0.,13.7));
#411=CARTESIAN_POINT('',(0.,0.,-9.020713225));
#412=MECHANICAL_DESIGN_GEOMETRIC_PRESENTATION_REPRESENTATION('',(#101,#102),
#413);
#413=(
GEOMETRIC_REPRESENTATION_CONTEXT(3)
GLOBAL_UNCERTAINTY_ASSIGNED_CONTEXT((#414))
GLOBAL_UNIT_ASSIGNED_CONTEXT((#420,#416,#415))
REPRESENTATION_CONTEXT('A316_12CM600_05049G_SIM',
'TOP_LEVEL_ASSEMBLY_PART')
);
#414=UNCERTAINTY_MEASURE_WITH_UNIT(LENGTH_MEASURE(2.E-005),#420,
'DISTANCE_ACCURACY_VALUE','Maximum Tolerance applied to model');
#415=(
NAMED_UNIT(*)
SI_UNIT($,.STERADIAN.)
SOLID_ANGLE_UNIT()
);
#416=(
CONVERSION_BASED_UNIT('DEGREE',#418)
NAMED_UNIT(#417)
PLANE_ANGLE_UNIT()
);
#417=DIMENSIONAL_EXPONENTS(0.,0.,0.,0.,0.,0.,0.);
#418=PLANE_ANGLE_MEASURE_WITH_UNIT(PLANE_ANGLE_MEASURE(0.0174532925),#419);
#419=(
NAMED_UNIT(*)
PLANE_ANGLE_UNIT()
SI_UNIT($,.RADIAN.)
);
#420=(
LENGTH_UNIT()
NAMED_UNIT(*)
SI_UNIT(.MILLI.,.METRE.)
);
ENDSEC;
END-ISO-10303-21;
