ISO-10303-21;
HEADER;
/* Generated by software containing ST-Developer
 * from STEP Tools, Inc. (www.steptools.com) 
 */
/* OPTION: using custom schema-name function */

FILE_DESCRIPTION(
/* description */ ('3-D model version:1'),
/* implementation_level */ '2;1');

FILE_NAME(
/* name */ 'A316-10CM400-03760G',
/* time_stamp */ '2014-08-22T11:05:35+02:00',
/* author */ ('InteractiveCad'),
/* organization */ ('AB Sandvik Coromant'),
/* preprocessor_version */ 'ST-DEVELOPER v11',
/* originating_system */ 'SIEMENS UGS NX 6.0',
/* authorisation */ '');

FILE_SCHEMA (('AP203_CONFIGURATION_CONTROLLED_3D_DESIGN_OF_MECHANICAL_PARTS_AND_ASSEMBLIES_MIM_LF'));
ENDSEC;

DATA;
#10=SHAPE_REPRESENTATION_RELATIONSHIP('None',
'relationship between A316_10CM400_03760G_SIM-None and A316_10CM400_037
60G_SIM-None',#94,#11);
#11=ADVANCED_BREP_SHAPE_REPRESENTATION('A316_10CM400_03760G_SIM-None',(#112,
#113),#393);
#12=CC_DESIGN_APPROVAL(#24,(#82));
#13=CC_DESIGN_APPROVAL(#25,(#84));
#14=CC_DESIGN_APPROVAL(#26,(#31));
#15=APPROVAL_PERSON_ORGANIZATION(#69,#24,#18);
#16=APPROVAL_PERSON_ORGANIZATION(#70,#25,#19);
#17=APPROVAL_PERSON_ORGANIZATION(#71,#26,#20);
#18=APPROVAL_ROLE('approver');
#19=APPROVAL_ROLE('approver');
#20=APPROVAL_ROLE('approver');
#21=APPROVAL_DATE_TIME(#39,#24);
#22=APPROVAL_DATE_TIME(#40,#25);
#23=APPROVAL_DATE_TIME(#41,#26);
#24=APPROVAL(#27,' ');
#25=APPROVAL(#28,' ');
#26=APPROVAL(#29,' ');
#27=APPROVAL_STATUS('not_yet_approved');
#28=APPROVAL_STATUS('not_yet_approved');
#29=APPROVAL_STATUS('not_yet_approved');
#30=CC_DESIGN_SECURITY_CLASSIFICATION(#31,(#84));
#31=SECURITY_CLASSIFICATION(' ',' ',#32);
#32=SECURITY_CLASSIFICATION_LEVEL('confidential');
#33=CC_DESIGN_DATE_AND_TIME_ASSIGNMENT(#37,#35,(#82));
#34=CC_DESIGN_DATE_AND_TIME_ASSIGNMENT(#38,#36,(#31));
#35=DATE_TIME_ROLE('creation_date');
#36=DATE_TIME_ROLE('classification_date');
#37=DATE_AND_TIME(#52,#42);
#38=DATE_AND_TIME(#53,#43);
#39=DATE_AND_TIME(#54,#44);
#40=DATE_AND_TIME(#55,#45);
#41=DATE_AND_TIME(#56,#46);
#42=LOCAL_TIME(0,0,0.,#47);
#43=LOCAL_TIME(0,0,0.,#48);
#44=LOCAL_TIME(0,0,0.,#49);
#45=LOCAL_TIME(0,0,0.,#50);
#46=LOCAL_TIME(0,0,0.,#51);
#47=COORDINATED_UNIVERSAL_TIME_OFFSET(0,0,.BEHIND.);
#48=COORDINATED_UNIVERSAL_TIME_OFFSET(0,0,.BEHIND.);
#49=COORDINATED_UNIVERSAL_TIME_OFFSET(0,0,.BEHIND.);
#50=COORDINATED_UNIVERSAL_TIME_OFFSET(0,0,.BEHIND.);
#51=COORDINATED_UNIVERSAL_TIME_OFFSET(0,0,.BEHIND.);
#52=CALENDAR_DATE(0,1,1);
#53=CALENDAR_DATE(0,1,1);
#54=CALENDAR_DATE(0,1,1);
#55=CALENDAR_DATE(0,1,1);
#56=CALENDAR_DATE(0,1,1);
#57=CC_DESIGN_PERSON_AND_ORGANIZATION_ASSIGNMENT(#65,#61,(#82,#84));
#58=CC_DESIGN_PERSON_AND_ORGANIZATION_ASSIGNMENT(#66,#62,(#86));
#59=CC_DESIGN_PERSON_AND_ORGANIZATION_ASSIGNMENT(#67,#63,(#84));
#60=CC_DESIGN_PERSON_AND_ORGANIZATION_ASSIGNMENT(#68,#64,(#31));
#61=PERSON_AND_ORGANIZATION_ROLE('creator');
#62=PERSON_AND_ORGANIZATION_ROLE('design_owner');
#63=PERSON_AND_ORGANIZATION_ROLE('design_supplier');
#64=PERSON_AND_ORGANIZATION_ROLE('classification_officer');
#65=PERSON_AND_ORGANIZATION(#79,#72);
#66=PERSON_AND_ORGANIZATION(#79,#73);
#67=PERSON_AND_ORGANIZATION(#79,#74);
#68=PERSON_AND_ORGANIZATION(#79,#75);
#69=PERSON_AND_ORGANIZATION(#79,#76);
#70=PERSON_AND_ORGANIZATION(#79,#77);
#71=PERSON_AND_ORGANIZATION(#79,#78);
#72=ORGANIZATION(' ',' ',' ');
#73=ORGANIZATION(' ',' ',' ');
#74=ORGANIZATION(' ',' ',' ');
#75=ORGANIZATION(' ',' ',' ');
#76=ORGANIZATION(' ',' ',' ');
#77=ORGANIZATION(' ',' ',' ');
#78=ORGANIZATION(' ',' ',' ');
#79=PERSON(' ',' ',' ',(' '),$,$);
#80=SHAPE_DEFINITION_REPRESENTATION(#81,#94);
#81=PRODUCT_DEFINITION_SHAPE('','',#82);
#82=PRODUCT_DEFINITION(' ','',#84,#83);
#83=DESIGN_CONTEXT('',#93,'design');
#84=PRODUCT_DEFINITION_FORMATION_WITH_SPECIFIED_SOURCE(' ',' ',#86,.NOT_KNOWN.);
#85=PRODUCT_RELATED_PRODUCT_CATEGORY('detail','',(#86));
#86=PRODUCT('A316_10CM400_03760G_SIM','A316_10CM400_03760G_SIM',' ',(#91));
#87=PRODUCT_CATEGORY_RELATIONSHIP(' ',' ',#89,#90);
#88=PRODUCT_CATEGORY_RELATIONSHIP('','',#90,#85);
#89=PRODUCT_CATEGORY('part',' ');
#90=PRODUCT_CATEGORY(' ','');
#91=MECHANICAL_CONTEXT(' ',#93,'mechanical');
#92=APPLICATION_PROTOCOL_DEFINITION('international standard',
'config_control_design',1994,#93);
#93=APPLICATION_CONTEXT(
'configuration controlled 3D designs of mechanical parts and assemblies');
#94=SHAPE_REPRESENTATION('A316_10CM400_03760G_SIM-None',(#263),#393);
#95=PRESENTATION_LAYER_ASSIGNMENT('1','Layer 1',(#112,#113));
#96=STYLED_ITEM('',(#98),#112);
#97=STYLED_ITEM('',(#99),#113);
#98=PRESENTATION_STYLE_ASSIGNMENT((#100));
#99=PRESENTATION_STYLE_ASSIGNMENT((#101));
#100=SURFACE_STYLE_USAGE(.BOTH.,#102);
#101=SURFACE_STYLE_USAGE(.BOTH.,#103);
#102=SURFACE_SIDE_STYLE('',(#104));
#103=SURFACE_SIDE_STYLE('',(#105));
#104=SURFACE_STYLE_FILL_AREA(#106);
#105=SURFACE_STYLE_FILL_AREA(#107);
#106=FILL_AREA_STYLE('',(#108));
#107=FILL_AREA_STYLE('',(#109));
#108=FILL_AREA_STYLE_COLOUR('',#110);
#109=FILL_AREA_STYLE_COLOUR('',#111);
#110=COLOUR_RGB('TLS_NOCUT',0.499992370489052,0.499992370489052,0.499992370489052);
#111=COLOUR_RGB('TLS_CUT',0.8,0.8,0.8);
#112=MANIFOLD_SOLID_BREP('',#114);
#113=MANIFOLD_SOLID_BREP('',#115);
#114=CLOSED_SHELL('',(#147,#148,#149,#150,#151,#152,#153,#154,#155,#156,
#157));
#115=CLOSED_SHELL('',(#158,#159,#160,#161));
#116=CONICAL_SURFACE('',#273,3.61391757576667,2.20000000000004);
#117=CONICAL_SURFACE('',#275,3.54432613753609,6.00000000000001);
#118=CONICAL_SURFACE('',#283,2.2,44.9999999999998);
#119=CONICAL_SURFACE('',#290,7.27350269189626,30.);
#120=TOROIDAL_SURFACE('',#271,3.91369645068986,0.3);
#121=TOROIDAL_SURFACE('',#279,2.7,0.5);
#122=CYLINDRICAL_SURFACE('',#267,4.625);
#123=CYLINDRICAL_SURFACE('',#281,2.2);
#124=CYLINDRICAL_SURFACE('',#291,4.625);
#125=FACE_BOUND('',#173,.T.);
#126=FACE_BOUND('',#174,.T.);
#127=FACE_BOUND('',#175,.T.);
#128=FACE_BOUND('',#176,.T.);
#129=FACE_BOUND('',#177,.T.);
#130=FACE_BOUND('',#178,.T.);
#131=FACE_BOUND('',#179,.T.);
#132=FACE_BOUND('',#180,.T.);
#133=FACE_BOUND('',#181,.T.);
#134=FACE_BOUND('',#182,.T.);
#135=FACE_BOUND('',#183,.T.);
#136=FACE_BOUND('',#184,.T.);
#137=FACE_BOUND('',#185,.T.);
#138=FACE_BOUND('',#186,.T.);
#139=FACE_BOUND('',#187,.T.);
#140=FACE_BOUND('',#188,.T.);
#141=FACE_BOUND('',#189,.T.);
#142=FACE_BOUND('',#190,.T.);
#143=FACE_BOUND('',#194,.T.);
#144=FACE_BOUND('',#195,.T.);
#145=FACE_BOUND('',#196,.T.);
#146=FACE_BOUND('',#197,.T.);
#147=ADVANCED_FACE('',(#168),#162,.F.);
#148=ADVANCED_FACE('',(#125,#126),#122,.T.);
#149=ADVANCED_FACE('',(#127,#128),#163,.F.);
#150=ADVANCED_FACE('',(#129,#130),#120,.F.);
#151=ADVANCED_FACE('',(#131,#132),#116,.T.);
#152=ADVANCED_FACE('',(#133,#134),#117,.T.);
#153=ADVANCED_FACE('',(#135,#136),#164,.F.);
#154=ADVANCED_FACE('',(#137,#138),#121,.F.);
#155=ADVANCED_FACE('',(#139,#140),#123,.T.);
#156=ADVANCED_FACE('',(#141,#142),#118,.T.);
#157=ADVANCED_FACE('',(#169),#165,.F.);
#158=ADVANCED_FACE('',(#170),#166,.T.);
#159=ADVANCED_FACE('',(#171),#167,.T.);
#160=ADVANCED_FACE('',(#143,#144),#119,.T.);
#161=ADVANCED_FACE('',(#145,#146),#124,.T.);
#162=PLANE('',#265);
#163=PLANE('',#269);
#164=PLANE('',#277);
#165=PLANE('',#284);
#166=PLANE('',#286);
#167=PLANE('',#288);
#168=FACE_OUTER_BOUND('',#172,.T.);
#169=FACE_OUTER_BOUND('',#191,.T.);
#170=FACE_OUTER_BOUND('',#192,.T.);
#171=FACE_OUTER_BOUND('',#193,.T.);
#172=EDGE_LOOP('',(#198));
#173=EDGE_LOOP('',(#199));
#174=EDGE_LOOP('',(#200));
#175=EDGE_LOOP('',(#201));
#176=EDGE_LOOP('',(#202));
#177=EDGE_LOOP('',(#203));
#178=EDGE_LOOP('',(#204));
#179=EDGE_LOOP('',(#205));
#180=EDGE_LOOP('',(#206));
#181=EDGE_LOOP('',(#207));
#182=EDGE_LOOP('',(#208));
#183=EDGE_LOOP('',(#209));
#184=EDGE_LOOP('',(#210));
#185=EDGE_LOOP('',(#211));
#186=EDGE_LOOP('',(#212));
#187=EDGE_LOOP('',(#213));
#188=EDGE_LOOP('',(#214));
#189=EDGE_LOOP('',(#215));
#190=EDGE_LOOP('',(#216));
#191=EDGE_LOOP('',(#217));
#192=EDGE_LOOP('',(#218));
#193=EDGE_LOOP('',(#219));
#194=EDGE_LOOP('',(#220));
#195=EDGE_LOOP('',(#221));
#196=EDGE_LOOP('',(#222));
#197=EDGE_LOOP('',(#223));
#198=ORIENTED_EDGE('',*,*,#237,.F.);
#199=ORIENTED_EDGE('',*,*,#238,.F.);
#200=ORIENTED_EDGE('',*,*,#237,.T.);
#201=ORIENTED_EDGE('',*,*,#239,.F.);
#202=ORIENTED_EDGE('',*,*,#238,.T.);
#203=ORIENTED_EDGE('',*,*,#240,.F.);
#204=ORIENTED_EDGE('',*,*,#239,.T.);
#205=ORIENTED_EDGE('',*,*,#241,.F.);
#206=ORIENTED_EDGE('',*,*,#240,.T.);
#207=ORIENTED_EDGE('',*,*,#242,.F.);
#208=ORIENTED_EDGE('',*,*,#241,.T.);
#209=ORIENTED_EDGE('',*,*,#243,.F.);
#210=ORIENTED_EDGE('',*,*,#242,.T.);
#211=ORIENTED_EDGE('',*,*,#244,.F.);
#212=ORIENTED_EDGE('',*,*,#243,.T.);
#213=ORIENTED_EDGE('',*,*,#245,.F.);
#214=ORIENTED_EDGE('',*,*,#244,.T.);
#215=ORIENTED_EDGE('',*,*,#246,.F.);
#216=ORIENTED_EDGE('',*,*,#245,.T.);
#217=ORIENTED_EDGE('',*,*,#246,.T.);
#218=ORIENTED_EDGE('',*,*,#247,.F.);
#219=ORIENTED_EDGE('',*,*,#248,.F.);
#220=ORIENTED_EDGE('',*,*,#249,.F.);
#221=ORIENTED_EDGE('',*,*,#248,.T.);
#222=ORIENTED_EDGE('',*,*,#249,.T.);
#223=ORIENTED_EDGE('',*,*,#247,.T.);
#224=VERTEX_POINT('',#352);
#225=VERTEX_POINT('',#355);
#226=VERTEX_POINT('',#358);
#227=VERTEX_POINT('',#361);
#228=VERTEX_POINT('',#364);
#229=VERTEX_POINT('',#367);
#230=VERTEX_POINT('',#370);
#231=VERTEX_POINT('',#373);
#232=VERTEX_POINT('',#376);
#233=VERTEX_POINT('',#379);
#234=VERTEX_POINT('',#383);
#235=VERTEX_POINT('',#386);
#236=VERTEX_POINT('',#389);
#237=EDGE_CURVE('',#224,#224,#250,.T.);
#238=EDGE_CURVE('',#225,#225,#251,.T.);
#239=EDGE_CURVE('',#226,#226,#252,.T.);
#240=EDGE_CURVE('',#227,#227,#253,.T.);
#241=EDGE_CURVE('',#228,#228,#254,.T.);
#242=EDGE_CURVE('',#229,#229,#255,.T.);
#243=EDGE_CURVE('',#230,#230,#256,.T.);
#244=EDGE_CURVE('',#231,#231,#257,.T.);
#245=EDGE_CURVE('',#232,#232,#258,.T.);
#246=EDGE_CURVE('',#233,#233,#259,.T.);
#247=EDGE_CURVE('',#234,#234,#260,.T.);
#248=EDGE_CURVE('',#235,#235,#261,.T.);
#249=EDGE_CURVE('',#236,#236,#262,.T.);
#250=CIRCLE('',#264,4.625);
#251=CIRCLE('',#266,4.625);
#252=CIRCLE('',#268,3.91369645068986);
#253=CIRCLE('',#270,3.61391757576667);
#254=CIRCLE('',#272,3.54432613753609);
#255=CIRCLE('',#274,2.9557424200483);
#256=CIRCLE('',#276,2.7);
#257=CIRCLE('',#278,2.2);
#258=CIRCLE('',#280,2.2);
#259=CIRCLE('',#282,2.);
#260=CIRCLE('',#285,4.625);
#261=CIRCLE('',#287,1.5);
#262=CIRCLE('',#289,4.625);
#263=AXIS2_PLACEMENT_3D('',#350,#292,#293);
#264=AXIS2_PLACEMENT_3D('',#351,#294,#295);
#265=AXIS2_PLACEMENT_3D('',#353,#296,#297);
#266=AXIS2_PLACEMENT_3D('',#354,#298,#299);
#267=AXIS2_PLACEMENT_3D('',#356,#300,#301);
#268=AXIS2_PLACEMENT_3D('',#357,#302,#303);
#269=AXIS2_PLACEMENT_3D('',#359,#304,#305);
#270=AXIS2_PLACEMENT_3D('',#360,#306,#307);
#271=AXIS2_PLACEMENT_3D('',#362,#308,#309);
#272=AXIS2_PLACEMENT_3D('',#363,#310,#311);
#273=AXIS2_PLACEMENT_3D('',#365,#312,#313);
#274=AXIS2_PLACEMENT_3D('',#366,#314,#315);
#275=AXIS2_PLACEMENT_3D('',#368,#316,#317);
#276=AXIS2_PLACEMENT_3D('',#369,#318,#319);
#277=AXIS2_PLACEMENT_3D('',#371,#320,#321);
#278=AXIS2_PLACEMENT_3D('',#372,#322,#323);
#279=AXIS2_PLACEMENT_3D('',#374,#324,#325);
#280=AXIS2_PLACEMENT_3D('',#375,#326,#327);
#281=AXIS2_PLACEMENT_3D('',#377,#328,#329);
#282=AXIS2_PLACEMENT_3D('',#378,#330,#331);
#283=AXIS2_PLACEMENT_3D('',#380,#332,#333);
#284=AXIS2_PLACEMENT_3D('',#381,#334,#335);
#285=AXIS2_PLACEMENT_3D('',#382,#336,#337);
#286=AXIS2_PLACEMENT_3D('',#384,#338,#339);
#287=AXIS2_PLACEMENT_3D('',#385,#340,#341);
#288=AXIS2_PLACEMENT_3D('',#387,#342,#343);
#289=AXIS2_PLACEMENT_3D('',#388,#344,#345);
#290=AXIS2_PLACEMENT_3D('',#390,#346,#347);
#291=AXIS2_PLACEMENT_3D('',#391,#348,#349);
#292=DIRECTION('',(0.,0.,1.));
#293=DIRECTION('',(1.,0.,0.));
#294=DIRECTION('',(0.,0.,1.));
#295=DIRECTION('',(1.,0.,0.));
#296=DIRECTION('',(0.,0.,1.));
#297=DIRECTION('',(1.,0.,0.));
#298=DIRECTION('',(0.,0.,1.));
#299=DIRECTION('',(1.,0.,0.));
#300=DIRECTION('',(0.,0.,1.));
#301=DIRECTION('',(1.,0.,0.));
#302=DIRECTION('',(0.,0.,1.));
#303=DIRECTION('',(1.,0.,0.));
#304=DIRECTION('',(0.,0.,-1.));
#305=DIRECTION('',(-1.,0.,0.));
#306=DIRECTION('',(0.,0.,1.));
#307=DIRECTION('',(1.,0.,0.));
#308=DIRECTION('',(0.,0.,1.));
#309=DIRECTION('',(1.,0.,0.));
#310=DIRECTION('',(0.,0.,1.));
#311=DIRECTION('',(1.,0.,0.));
#312=DIRECTION('',(0.,0.,-1.));
#313=DIRECTION('',(-1.,0.,-3.61142399359731E-017));
#314=DIRECTION('',(0.,0.,1.));
#315=DIRECTION('',(1.,0.,0.));
#316=DIRECTION('',(0.,0.,-1.));
#317=DIRECTION('',(-1.,0.,-8.38234591535874E-017));
#318=DIRECTION('',(0.,0.,1.));
#319=DIRECTION('',(1.,0.,0.));
#320=DIRECTION('',(0.,0.,-1.));
#321=DIRECTION('',(-1.,0.,0.));
#322=DIRECTION('',(0.,0.,1.));
#323=DIRECTION('',(1.,0.,0.));
#324=DIRECTION('',(0.,0.,1.));
#325=DIRECTION('',(1.,0.,0.));
#326=DIRECTION('',(0.,0.,1.));
#327=DIRECTION('',(1.,0.,0.));
#328=DIRECTION('',(0.,0.,1.));
#329=DIRECTION('',(1.,0.,0.));
#330=DIRECTION('',(0.,0.,1.));
#331=DIRECTION('',(1.,0.,0.));
#332=DIRECTION('',(0.,0.,-1.));
#333=DIRECTION('',(-1.,0.,1.03854927717631E-017));
#334=DIRECTION('',(0.,0.,-1.));
#335=DIRECTION('',(-1.,0.,0.));
#336=DIRECTION('',(0.,0.,-1.));
#337=DIRECTION('',(1.,0.,0.));
#338=DIRECTION('',(0.,0.,1.));
#339=DIRECTION('',(1.,0.,0.));
#340=DIRECTION('',(0.,0.,1.));
#341=DIRECTION('',(-1.,0.,0.));
#342=DIRECTION('',(0.,0.,-1.));
#343=DIRECTION('',(1.,0.,0.));
#344=DIRECTION('',(0.,0.,1.));
#345=DIRECTION('',(-1.,0.,0.));
#346=DIRECTION('',(0.,0.,1.));
#347=DIRECTION('',(-1.,0.,7.19557539664377E-017));
#348=DIRECTION('',(0.,0.,1.));
#349=DIRECTION('',(-1.,0.,0.));
#350=CARTESIAN_POINT('',(0.,0.,0.));
#351=CARTESIAN_POINT('',(0.,0.,-6.9873));
#352=CARTESIAN_POINT('',(4.625,0.,-6.9873));
#353=CARTESIAN_POINT('',(0.,0.,-6.9873));
#354=CARTESIAN_POINT('',(0.,0.,0.));
#355=CARTESIAN_POINT('',(4.625,0.,0.));
#356=CARTESIAN_POINT('',(0.,0.,8.2));
#357=CARTESIAN_POINT('',(0.,0.,0.));
#358=CARTESIAN_POINT('',(3.91369645068986,0.,0.));
#359=CARTESIAN_POINT('',(0.,4.625,-5.42101086242752E-017));
#360=CARTESIAN_POINT('',(0.,0.,0.288483657273743));
#361=CARTESIAN_POINT('',(3.61391757576667,0.,0.288483657273743));
#362=CARTESIAN_POINT('',(0.,0.,0.3));
#363=CARTESIAN_POINT('',(0.,0.,2.1));
#364=CARTESIAN_POINT('',(3.54432613753609,0.,2.1));
#365=CARTESIAN_POINT('',(0.,0.,0.288483657273743));
#366=CARTESIAN_POINT('',(0.,0.,7.7));
#367=CARTESIAN_POINT('',(2.9557424200483,0.,7.7));
#368=CARTESIAN_POINT('',(0.,0.,2.1));
#369=CARTESIAN_POINT('',(0.,0.,7.7));
#370=CARTESIAN_POINT('',(2.7,0.,7.7));
#371=CARTESIAN_POINT('',(0.,2.95574242004831,7.7));
#372=CARTESIAN_POINT('',(0.,0.,8.2));
#373=CARTESIAN_POINT('',(2.2,0.,8.2));
#374=CARTESIAN_POINT('',(0.,0.,8.2));
#375=CARTESIAN_POINT('',(0.,0.,11.));
#376=CARTESIAN_POINT('',(2.2,0.,11.));
#377=CARTESIAN_POINT('',(0.,0.,8.2));
#378=CARTESIAN_POINT('',(0.,0.,11.2));
#379=CARTESIAN_POINT('',(2.,0.,11.2));
#380=CARTESIAN_POINT('',(0.,0.,11.));
#381=CARTESIAN_POINT('',(0.,2.,11.2));
#382=CARTESIAN_POINT('',(0.,0.,-6.9873));
#383=CARTESIAN_POINT('',(4.625,0.,-6.9873));
#384=CARTESIAN_POINT('',(0.,0.,-6.9873));
#385=CARTESIAN_POINT('',(0.,0.,-12.4));
#386=CARTESIAN_POINT('',(-1.5,0.,-12.4));
#387=CARTESIAN_POINT('',(0.,0.,-12.4));
#388=CARTESIAN_POINT('',(0.,0.,-6.98734122634726));
#389=CARTESIAN_POINT('',(-4.625,0.,-6.98734122634726));
#390=CARTESIAN_POINT('',(0.,0.,-2.4));
#391=CARTESIAN_POINT('',(0.,0.,-7.1));
#392=MECHANICAL_DESIGN_GEOMETRIC_PRESENTATION_REPRESENTATION('',(#96,#97),
#393);
#393=(
GEOMETRIC_REPRESENTATION_CONTEXT(3)
GLOBAL_UNCERTAINTY_ASSIGNED_CONTEXT((#394))
GLOBAL_UNIT_ASSIGNED_CONTEXT((#400,#396,#395))
REPRESENTATION_CONTEXT('A316_10CM400_03760G_SIM',
'TOP_LEVEL_ASSEMBLY_PART')
);
#394=UNCERTAINTY_MEASURE_WITH_UNIT(LENGTH_MEASURE(2.E-005),#400,
'DISTANCE_ACCURACY_VALUE','Maximum Tolerance applied to model');
#395=(
NAMED_UNIT(*)
SI_UNIT($,.STERADIAN.)
SOLID_ANGLE_UNIT()
);
#396=(
CONVERSION_BASED_UNIT('DEGREE',#398)
NAMED_UNIT(#397)
PLANE_ANGLE_UNIT()
);
#397=DIMENSIONAL_EXPONENTS(0.,0.,0.,0.,0.,0.,0.);
#398=PLANE_ANGLE_MEASURE_WITH_UNIT(PLANE_ANGLE_MEASURE(0.0174532925),#399);
#399=(
NAMED_UNIT(*)
PLANE_ANGLE_UNIT()
SI_UNIT($,.RADIAN.)
);
#400=(
LENGTH_UNIT()
NAMED_UNIT(*)
SI_UNIT(.MILLI.,.METRE.)
);
ENDSEC;
END-ISO-10303-21;
